  0
SECTION
  2
HEADER
  9
$ACADVER
  1
AC1009
  9
$INSBASE
 10
0.0
 20
0.0
 30
0.0
  9
$EXTMIN
 10
0.0
 20
-2.960436562073669
 30
0.0
  9
$EXTMAX
 10
283.80310985060521
 20
184.7507404271341
 30
0.0
  9
$LIMMIN
 10
0.0
 20
0.0
  9
$LIMMAX
 10
385.0
 20
270.0
  9
$ORTHOMODE
 70
     1
  9
$REGENMODE
 70
     1
  9
$FILLMODE
 70
     1
  9
$QTEXTMODE
 70
     0
  9
$MIRRTEXT
 70
     0
  9
$DRAGMODE
 70
     2
  9
$LTSCALE
 40
10.0
  9
$OSMODE
 70
  3071
  9
$ATTMODE
 70
     1
  9
$TEXTSIZE
 40
0.2
  9
$TRACEWID
 40
0.05
  9
$TEXTSTYLE
  7
STANDARD
  9
$CLAYER
  8
0
  9
$CELTYPE
  6
BYLAYER
  9
$CECOLOR
 62
   256
  9
$DIMSCALE
 40
1.0
  9
$DIMASZ
 40
3.0
  9
$DIMEXO
 40
0.0625
  9
$DIMDLI
 40
0.38
  9
$DIMRND
 40
0.0
  9
$DIMDLE
 40
0.0
  9
$DIMEXE
 40
0.18
  9
$DIMTP
 40
0.0
  9
$DIMTM
 40
0.0
  9
$DIMTXT
 40
3.0
  9
$DIMCEN
 40
0.09
  9
$DIMTSZ
 40
0.0
  9
$DIMTOL
 70
     0
  9
$DIMLIM
 70
     0
  9
$DIMTIH
 70
     1
  9
$DIMTOH
 70
     1
  9
$DIMSE1
 70
     0
  9
$DIMSE2
 70
     0
  9
$DIMTAD
 70
     0
  9
$DIMZIN
 70
     0
  9
$DIMBLK
  1

  9
$DIMASO
 70
     1
  9
$DIMSHO
 70
     1
  9
$DIMPOST
  1

  9
$DIMAPOST
  1

  9
$DIMALT
 70
     0
  9
$DIMALTD
 70
     2
  9
$DIMALTF
 40
25.399999999999999
  9
$DIMLFAC
 40
1.0
  9
$DIMTOFL
 70
     0
  9
$DIMTVP
 40
0.0
  9
$DIMTIX
 70
     0
  9
$DIMSOXD
 70
     0
  9
$DIMSAH
 70
     0
  9
$DIMBLK1
  1

  9
$DIMBLK2
  1

  9
$DIMSTYLE
  2
STANDARD
  9
$DIMCLRD
 70
     0
  9
$DIMCLRE
 70
     0
  9
$DIMCLRT
 70
     0
  9
$DIMTFAC
 40
1.0
  9
$DIMGAP
 40
0.09
  9
$LUNITS
 70
     2
  9
$LUPREC
 70
     4
  9
$SKETCHINC
 40
0.1
  9
$FILLETRAD
 40
0.0
  9
$AUNITS
 70
     0
  9
$AUPREC
 70
     0
  9
$MENU
  1
E:\r13\win\SUPPORT\ACAD
  9
$ELEVATION
 40
0.0
  9
$PELEVATION
 40
0.0
  9
$THICKNESS
 40
0.0
  9
$LIMCHECK
 70
     0
  9
$BLIPMODE
 70
     0
  9
$CHAMFERA
 40
0.0
  9
$CHAMFERB
 40
0.0
  9
$SKPOLY
 70
     0
  9
$TDCREATE
 40
2450364.447997801
  9
$TDUPDATE
 40
2456598.6936210878
  9
$TDINDWG
 40
0.0017978356
  9
$TDUSRTIMER
 40
0.0017978356
  9
$USRTIMER
 70
     1
  9
$ANGBASE
 50
0.0
  9
$ANGDIR
 70
     0
  9
$PDMODE
 70
     0
  9
$PDSIZE
 40
0.0
  9
$PLINEWID
 40
0.0
  9
$COORDS
 70
     1
  9
$SPLFRAME
 70
     0
  9
$SPLINETYPE
 70
     6
  9
$SPLINESEGS
 70
     8
  9
$ATTDIA
 70
     0
  9
$ATTREQ
 70
     1
  9
$HANDLING
 70
     1
  9
$HANDSEED
  5
2BA
  9
$SURFTAB1
 70
     6
  9
$SURFTAB2
 70
     6
  9
$SURFTYPE
 70
     6
  9
$SURFU
 70
     6
  9
$SURFV
 70
     6
  9
$UCSNAME
  2

  9
$UCSORG
 10
0.0
 20
0.0
 30
0.0
  9
$UCSXDIR
 10
1.0
 20
0.0
 30
0.0
  9
$UCSYDIR
 10
0.0
 20
1.0
 30
0.0
  9
$PUCSNAME
  2

  9
$PUCSORG
 10
0.0
 20
0.0
 30
0.0
  9
$PUCSXDIR
 10
1.0
 20
0.0
 30
0.0
  9
$PUCSYDIR
 10
0.0
 20
1.0
 30
0.0
  9
$USERI1
 70
     3
  9
$USERI2
 70
     1
  9
$USERI3
 70
     1
  9
$USERI4
 70
     0
  9
$USERI5
 70
     0
  9
$USERR1
 40
1.0
  9
$USERR2
 40
3.0
  9
$USERR3
 40
3.0
  9
$USERR4
 40
3.0
  9
$USERR5
 40
10.0
  9
$WORLDVIEW
 70
     1
  9
$SHADEDGE
 70
     3
  9
$SHADEDIF
 70
    70
  9
$TILEMODE
 70
     1
  9
$MAXACTVP
 70
    16
  9
$PLIMCHECK
 70
     0
  9
$PEXTMIN
 10
1.0000000000000000E+020
 20
1.0000000000000000E+020
 30
1.0000000000000000E+020
  9
$PEXTMAX
 10
-1.0000000000000000E+020
 20
-1.0000000000000000E+020
 30
-1.0000000000000000E+020
  9
$PLIMMIN
 10
0.0
 20
0.0
  9
$PLIMMAX
 10
12.0
 20
9.0
  9
$UNITMODE
 70
     0
  9
$VISRETAIN
 70
     0
  9
$PLINEGEN
 70
     0
  9
$PSLTSCALE
 70
     0
  0
ENDSEC
  0
SECTION
  2
TABLES
  0
TABLE
  2
VPORT
 70
     1
  0
VPORT
  2
*ACTIVE
 70
     0
 10
0.0
 20
0.0
 11
1.0
 21
1.0
 12
192.49412581440311
 22
169.9063198933564
 13
0.0
 23
0.0
 14
5.0
 24
5.0
 15
0.0
 25
0.0
 16
0.0
 26
0.0
 36
1.0
 17
0.0
 27
0.0
 37
0.0
 40
348.89937369551939
 41
1.831871345029239
 42
50.0
 43
0.0
 44
0.0
 50
0.0
 51
0.0
 71
     0
 72
   100
 73
     1
 74
     0
 75
     0
 76
     0
 77
     0
 78
     0
  0
ENDTAB
  0
TABLE
  2
LTYPE
 70
     4
  0
LTYPE
  2
CONTINUOUS
 70
     0
  3
Solid Line
 72
    65
 73
     0
 40
0.0
  0
LTYPE
  2
CENTER
 70
     0
  3
____ _ ____ _ ____ _ ____ _ ____ _ ____ _ ____
 72
    65
 73
     4
 40
2.0
 49
1.25
 49
-0.25
 49
0.25
 49
-0.25
  0
LTYPE
  2
HIDDEN
 70
     0
  3
_ _ _ _ _ _ _ _ _ _ _ _ _ _ _ _ _ _ _ _ _ _ _
 72
    65
 73
     2
 40
0.375
 49
0.25
 49
-0.125
  0
LTYPE
  2
PHANTOM2
 70
     0
  3
___ _ _ ___ _ _ ___ _ _ ___ _ _
 72
    65
 73
     6
 40
1.25
 49
0.625
 49
-0.125
 49
0.125
 49
-0.125
 49
0.125
 49
-0.125
  0
ENDTAB
  0
TABLE
  2
LAYER
 70
     4
  0
LAYER
  2
0
 70
     0
 62
     7
  6
CONTINUOUS
  0
LAYER
  2
1
 70
     0
 62
     1
  6
CENTER
  0
LAYER
  2
2
 70
     0
 62
     2
  6
HIDDEN
  0
LAYER
  2
3
 70
     0
 62
     3
  6
CONTINUOUS
  0
ENDTAB
  0
TABLE
  2
STYLE
 70
     2
  0
STYLE
  2
STANDARD
 70
     0
 40
0.0
 41
1.0
 50
0.0
 71
     0
 42
0.2
  3
SIMPLEX
  4
BIGFONT
  0
STYLE
  2
STANDARD1
 70
     0
 40
0.0
 41
1.0
 50
0.0
 71
     0
 42
3.0
  3
txt
  4

  0
ENDTAB
  0
TABLE
  2
VIEW
 70
     0
  0
ENDTAB
  0
TABLE
  2
UCS
 70
     0
  0
ENDTAB
  0
TABLE
  2
APPID
 70
     4
  0
APPID
  2
ACAD
 70
     0
  0
APPID
  2
ACAD_EXEMPT_FROM_CAD_STANDARDS
 70
     0
  0
APPID
  2
ACAD_MLEADERVER
 70
     0
  0
APPID
  2
ACAD_NAV_VCDISPLAY
 70
     0
  0
ENDTAB
  0
TABLE
  2
DIMSTYLE
 70
     1
  0
DIMSTYLE
  2
STANDARD
 70
     0
  3

  4

  5

  6

  7

 40
1.0
 41
0.18
 42
0.0625
 43
0.38
 44
0.18
 45
0.0
 46
0.0
 47
0.0
 48
0.0
140
0.18
141
0.09
142
0.0
143
25.399999999999999
144
1.0
145
0.0
146
1.0
147
0.09
 71
     0
 72
     0
 73
     1
 74
     1
 75
     0
 76
     0
 77
     0
 78
     0
170
     0
171
     2
172
     0
173
     0
174
     0
175
     0
176
     0
177
     0
178
     0
  0
ENDTAB
  0
ENDSEC
  0
SECTION
  2
BLOCKS
  0
BLOCK
  8
0
  2
$MODEL_SPACE
 70
     0
 10
0.0
 20
0.0
 30
0.0
  3
$MODEL_SPACE
  1

  0
ENDBLK
  5
10A
  8
0
  0
BLOCK
 67
     1
  8
0
  2
$PAPER_SPACE
 70
     0
 10
0.0
 20
0.0
 30
0.0
  3
$PAPER_SPACE
  1

  0
ENDBLK
  5
108
 67
     1
  8
0
  0
ENDSEC
  0
SECTION
  2
ENTITIES
  0
LINE
  5
29
  8
0
 10
165.55310985060541
 20
160.8021268860029
 30
0.0
 11
51.553109850605317
 21
160.8021268860029
 31
0.0
  0
LINE
  5
2A
  8
0
 10
161.5531098506053
 20
179.60212688600279
 30
0.0
 11
55.553109850605381
 21
179.60212688600279
 31
0.0
  0
LINE
  5
2B
  8
1
 10
61.803109850605381
 20
161.5256607693378
 30
0.0
 11
61.803109850605381
 21
139.89226044215559
 31
0.0
  0
LINE
  5
2C
  8
0
 10
51.553109850605317
 20
175.60212688600279
 30
0.0
 11
51.553109850605317
 21
145.60212688600279
 31
0.0
  0
LINE
  5
2D
  8
1
 10
50.286290407746833
 20
153.33212688600281
 30
0.0
 11
73.597195250824768
 21
153.33212688600281
 31
0.0
  0
LINE
  5
2E
  8
0
 10
71.553109850605324
 20
160.8021268860027
 30
0.0
 11
71.553109850605324
 21
145.60212688600279
 31
0.0
  0
CIRCLE
  5
2F
  8
2
 10
61.803109850605381
 20
153.33212688600281
 30
0.0
 40
3.25
  0
LINE
  5
30
  8
0
 10
52.553109850605267
 20
144.60212688600291
 30
0.0
 11
70.553109850605381
 21
144.60212688600291
 31
0.0
  0
ARC
  5
31
  8
0
 10
52.553109850605267
 20
145.60212688600279
 30
0.0
 40
1.0
 50
180.0
 51
270.0
  0
ARC
  5
32
  8
0
 10
70.553109850605381
 20
145.60212688600279
 30
0.0
 40
1.0
 50
270.0
 51
0.0
  0
ARC
  5
33
  8
0
 10
55.553109850605381
 20
175.60212688600279
 30
0.0
 40
4.0
 50
90.0
 51
180.0
  0
LINE
  5
34
  8
1
 10
155.3031098506053
 20
163.50539944723701
 30
0.0
 11
155.3031098506053
 21
139.89226044215559
 31
0.0
  0
LINE
  5
37
  8
1
 10
108.5531098506052
 20
184.7507404271341
 30
0.0
 11
108.5531098506052
 21
153.74668934924421
 31
0.0
  0
CIRCLE
  5
38
  8
0
 10
98.55310985060521
 20
170.2021268860027
 30
0.0
 40
1.5
  0
CIRCLE
  5
39
  8
0
 10
113.5531098506052
 20
170.2021268860027
 30
0.0
 40
1.5
  0
CIRCLE
  5
3A
  8
0
 10
103.5531098506052
 20
170.2021268860027
 30
0.0
 40
1.5
  0
CIRCLE
  5
3B
  8
0
 10
108.5531098506052
 20
170.2021268860027
 30
0.0
 40
1.5
  0
CIRCLE
  5
3C
  8
0
 10
118.5531098506052
 20
170.2021268860027
 30
0.0
 40
1.5
  0
LINE
  5
3D
  8
0
 10
165.55310985060541
 20
175.60212688600279
 30
0.0
 11
165.55310985060541
 21
145.60212688600279
 31
0.0
  0
LINE
  5
3E
  8
0
 10
164.55310985060541
 20
144.60212688600291
 30
0.0
 11
146.5531098506053
 21
144.60212688600291
 31
0.0
  0
LINE
  5
3F
  8
1
 10
166.81992929346359
 20
153.33212688600281
 30
0.0
 11
143.50902445038591
 21
153.33212688600281
 31
0.0
  0
LINE
  5
40
  8
0
 10
145.55310985060541
 20
160.8021268860027
 30
0.0
 11
145.55310985060541
 21
145.60212688600279
 31
0.0
  0
ARC
  5
41
  8
0
 10
146.5531098506053
 20
145.60212688600279
 30
0.0
 40
1.0
 50
180.0
 51
270.0
  0
ARC
  5
42
  8
0
 10
164.55310985060541
 20
145.60212688600279
 30
0.0
 40
1.0
 50
270.0
 51
0.0
  0
ARC
  5
43
  8
0
 10
161.5531098506053
 20
175.60212688600279
 30
0.0
 40
4.0
 50
0.0
 51
90.0
  0
LINE
  5
46
  8
2
 10
67.574303141424764
 20
74.702126886002631
 30
0.0
 11
67.574303141424764
 21
69.702126886002631
 31
0.0
  0
LINE
  5
47
  8
2
 10
64.688706496015072
 20
74.702126886002631
 30
0.0
 11
64.688706496015072
 21
69.702126886002631
 31
0.0
  0
LINE
  5
48
  8
2
 10
58.917513205195398
 20
74.702126886002631
 30
0.0
 11
58.917513205195398
 21
69.702126886002631
 31
0.0
  0
LINE
  5
49
  8
2
 10
56.031916559785707
 20
74.702126886002631
 30
0.0
 11
56.031916559785707
 21
69.702126886002631
 31
0.0
  0
LINE
  5
4A
  8
0
 10
51.553109850605317
 20
63.702126886002681
 30
0.0
 11
51.553109850605317
 21
95.702126886002731
 31
0.0
  0
LINE
  5
4C
  8
0
 10
71.553109850605324
 20
63.702126886002681
 30
0.0
 11
51.553109850605317
 21
63.702126886002681
 31
0.0
  0
LINE
  5
4D
  8
2
 10
56.031916559785707
 20
69.702126886002631
 30
0.0
 11
67.574303141424764
 21
69.702126886002631
 31
0.0
  0
LINE
  5
4E
  8
2
 10
58.55310985060521
 20
63.702126886002681
 30
0.0
 11
58.55310985060521
 21
69.702126886002631
 31
0.0
  0
LINE
  5
4F
  8
2
 10
65.053109850605267
 20
63.702126886002681
 30
0.0
 11
65.053109850605267
 21
69.702126886002631
 31
0.0
  0
LINE
  5
50
  8
2
 10
54.553109850605438
 20
74.702126886002631
 30
0.0
 11
54.553109850605438
 21
94.002126886002685
 31
0.0
  0
LINE
  5
51
  8
2
 10
69.053109850605324
 20
74.702126886002631
 30
0.0
 11
69.053109850605324
 21
94.002126886002685
 31
0.0
  0
LINE
  5
53
  8
2
 10
54.553109850605438
 20
74.702126886002631
 30
0.0
 11
69.053109850605324
 21
74.702126886002631
 31
0.0
  0
ARC
  5
54
  8
0
 10
52.553109850605267
 20
95.702126886002731
 30
0.0
 40
1.0
 50
90.0
 51
180.0
  0
LINE
  5
55
  8
2
 10
51.553109850605317
 20
94.002126886002685
 30
0.0
 11
54.553109850605438
 21
94.002126886002685
 31
0.0
  0
ARC
  5
56
  8
0
 10
73.55310985060521
 20
88.802126886002725
 30
0.0
 40
2.0
 50
90.0
 51
180.0
  0
LINE
  5
57
  8
2
 10
71.553109850605324
 20
94.002126886002685
 30
0.0
 11
69.053109850605324
 21
94.002126886002685
 31
0.0
  0
LINE
  5
58
  8
1
 10
108.5531098506052
 20
99.952145412870763
 30
0.0
 11
108.5531098506052
 21
85.577290962094494
 31
0.0
  0
LINE
  5
59
  8
0
 10
73.55310985060521
 20
90.802126886002739
 30
0.0
 11
143.55310985060521
 21
90.802126886002753
 31
0.0
  0
LINE
  5
5A
  8
0
 10
52.553109850605267
 20
96.702126886002731
 30
0.0
 11
164.55310985060541
 21
96.702126886002674
 31
0.0
  0
LINE
  5
5B
  8
0
 10
165.55310985060541
 20
63.702126886002681
 30
0.0
 11
165.55310985060541
 21
95.702126886002731
 31
0.0
  0
LINE
  5
5C
  8
0
 10
145.55310985060541
 20
63.702126886002681
 30
0.0
 11
145.55310985060541
 21
95.702126886002731
 31
0.0
  0
LINE
  5
5D
  8
0
 10
145.55310985060541
 20
63.702126886002681
 30
0.0
 11
165.55310985060541
 21
63.702126886002681
 31
0.0
  0
LINE
  5
5E
  8
3
 10
145.55310985060541
 20
72.102126886002722
 30
0.0
 11
165.55310985060541
 21
72.102126886002722
 31
0.0
  0
LINE
  5
5F
  8
3
 10
145.55310985060541
 20
71.702126886002645
 30
0.0
 11
165.55310985060541
 21
71.702126886002645
 31
0.0
  0
ARC
  5
60
  8
0
 10
143.55310985060521
 20
88.802126886002725
 30
0.0
 40
2.0
 50
0.0
 51
90.0
  0
ARC
  5
61
  8
0
 10
146.5531098506053
 20
95.702126886002731
 30
0.0
 40
1.0
 50
90.0
 51
180.0
  0
ARC
  5
62
  8
0
 10
164.55310985060541
 20
95.702126886002731
 30
0.0
 40
1.0
 50
0.0
 51
90.0
  0
ARC
  5
63
  8
0
 10
273.75856950546961
 20
73.361181267410061
 30
0.0
 40
25.0
 50
110.9908212671527
 51
183.42065216725379
  0
ARC
  5
66
  8
0
 10
273.75856950546961
 20
73.361181267410061
 30
0.0
 40
22.600000000000001
 50
113.3445350979373
 51
185.48201984930091
  0
LINE
  5
67
  8
0
 10
267.8031098506051
 20
63.702126886002681
 30
0.0
 11
248.80310985060501
 21
63.702126886002681
 31
0.0
  0
LINE
  5
68
  8
2
 10
253.55310985060521
 20
69.702126886002631
 30
0.0
 11
263.55310985060521
 21
69.702126886002631
 31
0.0
  0
LINE
  5
69
  8
0
 10
267.8031098506051
 20
63.702126886002681
 30
0.0
 11
267.8031098506051
 21
75.202126886001892
 31
0.0
  0
LINE
  5
6A
  8
2
 10
263.55310985060521
 20
69.702126886002631
 30
0.0
 11
263.55310985060521
 21
74.702126886002631
 31
0.0
  0
LINE
  5
6B
  8
2
 10
261.8031098506051
 20
63.702126886002681
 30
0.0
 11
261.8031098506051
 21
69.702126886002631
 31
0.0
  0
ARC
  5
6C
  8
0
 10
283.72592348061079
 20
73.632411592038736
 30
0.0
 40
16.0
 50
94.742390487584387
 51
174.36981463252769
  0
LINE
  5
6D
  8
0
 10
281.8031098506051
 20
96.702126886002674
 30
0.0
 11
264.80310985060521
 21
96.702126886002674
 31
0.0
  0
ARC
  5
6E
  8
0
 10
282.40310985060512
 20
90.978642136935903
 30
0.0
 40
1.4010066800444021
 50
270.0
 51
2.172147262690844
  0
ARC
  5
6F
  8
0
 10
281.8031098506051
 20
94.702126886002617
 30
0.0
 40
2.0
 50
0.0
 51
90.0
  0
LINE
  5
70
  8
0
 10
283.80310985060498
 20
90.925541124431462
 30
0.0
 11
283.80310985060498
 21
94.702126886002617
 31
0.0
  0
LINE
  5
71
  8
1
 10
258.55310985060521
 20
59.894406883010802
 30
0.0
 11
258.55310985060521
 21
95.656685710725554
 31
0.0
  0
LINE
  5
72
  8
0
 10
248.80310985060501
 20
63.702126886002681
 30
0.0
 11
248.80310985060501
 21
71.202126886002674
 31
0.0
  0
LINE
  5
73
  8
2
 10
253.55310985060521
 20
69.702126886002631
 30
0.0
 11
253.55310985060521
 21
74.702126886002631
 31
0.0
  0
LINE
  5
74
  8
2
 10
255.3031098506051
 20
63.702126886002681
 30
0.0
 11
255.3031098506051
 21
69.702126886002631
 31
0.0
  0
LINE
  5
75
  8
0
 10
251.26193677570029
 20
71.202126886002674
 30
0.0
 11
248.80310985060501
 21
71.202126886002674
 31
0.0
  0
LINE
  5
76
  8
0
 10
251.2078496370136
 20
71.869526677891784
 30
0.0
 11
248.80310985060501
 21
71.869526677891784
 31
0.0
  0
LINE
  5
77
  8
2
 10
251.19838633139091
 20
74.702126886002631
 30
0.0
 11
264.80310985060521
 21
74.702126886002631
 31
0.0
  0
LINE
  5
78
  8
0
 10
264.80310985060521
 20
96.702126886002674
 30
0.0
 11
264.80310985060521
 21
94.111114818390334
 31
0.0
  0
LINE
  5
79
  8
2
 10
264.80310985060521
 20
94.111114818390334
 30
0.0
 11
264.80310985060521
 21
74.702126886002631
 31
0.0
  0
LINE
  5
7A
  8
0
 10
71.553109850605324
 20
63.702126886002681
 30
0.0
 11
71.553109850605324
 21
95.702126886002731
 31
0.0
  0
ARC
  5
7B
  8
0
 10
70.553109850605381
 20
95.702126886002731
 30
0.0
 40
1.0
 50
0.0
 51
90.0
  0
LINE
  5
7C
  8
2
 10
148.05310985060541
 20
74.702126886002631
 30
0.0
 11
148.05310985060541
 21
94.002126886002685
 31
0.0
  0
LINE
  5
7D
  8
2
 10
162.55310985060521
 20
74.702126886002631
 30
0.0
 11
162.55310985060521
 21
94.002126886002685
 31
0.0
  0
LINE
  5
7E
  8
2
 10
152.05310985060541
 20
63.702126886002681
 30
0.0
 11
152.05310985060541
 21
69.702126886002631
 31
0.0
  0
LINE
  5
7F
  8
2
 10
158.55310985060521
 20
63.702126886002681
 30
0.0
 11
158.55310985060521
 21
69.702126886002631
 31
0.0
  0
LINE
  5
80
  8
2
 10
148.05310985060541
 20
74.702126886002631
 30
0.0
 11
162.55310985060521
 21
74.702126886002631
 31
0.0
  0
LINE
  5
81
  8
2
 10
161.07430314142471
 20
69.702126886002631
 30
0.0
 11
149.5319165597856
 21
69.702126886002631
 31
0.0
  0
LINE
  5
84
  8
2
 10
161.07430314142471
 20
74.702126886002631
 30
0.0
 11
161.07430314142471
 21
69.702126886002631
 31
0.0
  0
LINE
  5
85
  8
2
 10
158.18870649601499
 20
74.702126886002631
 30
0.0
 11
158.18870649601499
 21
69.702126886002631
 31
0.0
  0
LINE
  5
86
  8
2
 10
152.4175132051956
 20
74.702126886002631
 30
0.0
 11
152.4175132051956
 21
69.702126886002631
 31
0.0
  0
LINE
  5
87
  8
2
 10
149.5319165597856
 20
74.702126886002631
 30
0.0
 11
149.5319165597856
 21
69.702126886002631
 31
0.0
  0
LINE
  5
88
  8
2
 10
145.55310985060541
 20
94.002126886002685
 30
0.0
 11
148.05310985060541
 21
94.002126886002685
 31
0.0
  0
LINE
  5
89
  8
2
 10
165.55310985060541
 20
94.002126886002685
 30
0.0
 11
162.55310985060521
 21
94.002126886002685
 31
0.0
  0
LINE
  5
8A
  8
3
 10
71.553109850605324
 20
71.702126886002645
 30
0.0
 11
51.553109850605317
 21
71.702126886002645
 31
0.0
  0
LINE
  5
8B
  8
3
 10
71.553109850605324
 20
72.102126886002722
 30
0.0
 11
51.553109850605317
 21
72.102126886002722
 31
0.0
  0
LINE
  5
8C
  8
2
 10
64.687190535356876
 20
158.32750116512079
 30
0.0
 11
58.919029165853601
 21
158.32750116512079
 31
0.0
  0
LINE
  5
8D
  8
2
 10
58.919029165853601
 20
158.32750116512079
 30
0.0
 11
56.034948481101821
 21
153.33212688600281
 31
0.0
  0
LINE
  5
8E
  8
2
 10
56.034948481101821
 20
153.33212688600281
 30
0.0
 11
58.919029165853601
 21
148.33675260688469
 31
0.0
  0
LINE
  5
8F
  8
2
 10
58.919029165853601
 20
148.33675260688469
 30
0.0
 11
64.687190535356876
 21
148.33675260688469
 31
0.0
  0
LINE
  5
90
  8
2
 10
64.687190535356876
 20
148.33675260688469
 30
0.0
 11
67.571271220108656
 21
153.33212688600281
 31
0.0
  0
LINE
  5
91
  8
2
 10
67.571271220108656
 20
153.33212688600281
 30
0.0
 11
64.687190535356876
 21
158.32750116512079
 31
0.0
  0
CIRCLE
  5
92
  8
2
 10
155.3031098506053
 20
153.33212688600281
 30
0.0
 40
3.25
  0
LINE
  5
93
  8
2
 10
149.53494848110171
 20
153.33212688600281
 30
0.0
 11
152.41902916585349
 21
158.32750116512079
 31
0.0
  0
LINE
  5
94
  8
2
 10
152.41902916585349
 20
158.32750116512079
 30
0.0
 11
158.1871905353571
 21
158.32750116512079
 31
0.0
  0
LINE
  5
95
  8
2
 10
158.1871905353571
 20
158.32750116512079
 30
0.0
 11
161.0712712201086
 21
153.33212688600281
 31
0.0
  0
LINE
  5
96
  8
2
 10
158.1871905353571
 20
148.33675260688469
 30
0.0
 11
152.41902916585349
 21
148.33675260688469
 31
0.0
  0
LINE
  5
97
  8
2
 10
161.0712712201086
 20
153.33212688600281
 30
0.0
 11
158.1871905353571
 21
148.33675260688469
 31
0.0
  0
LINE
  5
98
  8
2
 10
152.41902916585349
 20
148.33675260688469
 30
0.0
 11
149.53494848110171
 21
153.33212688600281
 31
0.0
  0
LINE
  5
99
  8
2
 10
280.3031098506051
 20
94.202126886002674
 30
0.0
 11
264.80310985060521
 21
94.202126886002674
 31
0.0
  0
LINE
  5
9A
  8
2
 10
280.80310985060521
 20
90.577635456891485
 30
0.0
 11
280.80310985060521
 21
93.702126886002674
 31
0.0
  0
LINE
  5
9B
  8
2
 10
282.40310985060512
 20
89.577635456891542
 30
0.0
 11
281.8031098506051
 21
89.577635456891542
 31
0.0
  0
ARC
  5
9C
  8
2
 10
281.8031098506051
 20
90.577635456891485
 30
0.0
 40
1.0
 50
180.0000000000008
 51
270.0000000000029
  0
ARC
  5
9D
  8
2
 10
280.3031098506051
 20
93.702126886002674
 30
0.0
 40
0.5
 50
0.0
 51
90.0
  0
LINE
  5
9E
  8
1
 10
61.803109850605381
 20
100.1506019712254
 30
0.0
 11
61.803109850605381
 21
59.70397398945515
 31
0.0
  0
LINE
  5
9F
  8
1
 10
155.3031098506053
 20
100.1506019712254
 30
0.0
 11
155.3031098506053
 21
59.70397398945515
 31
0.0
  0
TEXT
  5
257
  8
0
 62
     3
 10
0.0
 20
0.0
 30
0.0
 40
10.0
  1
EWH110H-RE
  7
STANDARD1
  0
ENDSEC
  0
EOF
