  0
SECTION
  2
HEADER
  9
$ACADVER
  1
AC1009
  9
$INSBASE
 10
0.0
 20
0.0
 30
0.0
  9
$EXTMIN
 10
0.0
 20
-2.960436562073669
 30
0.0
  9
$EXTMAX
 10
565.35281669724816
 20
334.51256652792409
 30
0.0
  9
$LIMMIN
 10
0.0
 20
0.0
  9
$LIMMAX
 10
375.0
 20
270.0
  9
$ORTHOMODE
 70
     1
  9
$REGENMODE
 70
     1
  9
$FILLMODE
 70
     1
  9
$QTEXTMODE
 70
     0
  9
$MIRRTEXT
 70
     0
  9
$DRAGMODE
 70
     2
  9
$LTSCALE
 40
10.0
  9
$OSMODE
 70
  3071
  9
$ATTMODE
 70
     1
  9
$TEXTSIZE
 40
0.2
  9
$TRACEWID
 40
0.05
  9
$TEXTSTYLE
  7
STANDARD
  9
$CLAYER
  8
0
  9
$CELTYPE
  6
BYLAYER
  9
$CECOLOR
 62
   256
  9
$DIMSCALE
 40
1.0
  9
$DIMASZ
 40
3.0
  9
$DIMEXO
 40
2.0
  9
$DIMDLI
 40
0.38
  9
$DIMRND
 40
0.0
  9
$DIMDLE
 40
0.0
  9
$DIMEXE
 40
2.0
  9
$DIMTP
 40
0.0
  9
$DIMTM
 40
0.0
  9
$DIMTXT
 40
3.2000000000000002
  9
$DIMCEN
 40
0.09
  9
$DIMTSZ
 40
0.0
  9
$DIMTOL
 70
     0
  9
$DIMLIM
 70
     0
  9
$DIMTIH
 70
     0
  9
$DIMTOH
 70
     0
  9
$DIMSE1
 70
     0
  9
$DIMSE2
 70
     0
  9
$DIMTAD
 70
     1
  9
$DIMZIN
 70
     0
  9
$DIMBLK
  1

  9
$DIMASO
 70
     1
  9
$DIMSHO
 70
     0
  9
$DIMPOST
  1

  9
$DIMAPOST
  1

  9
$DIMALT
 70
     0
  9
$DIMALTD
 70
     2
  9
$DIMALTF
 40
25.399999999999999
  9
$DIMLFAC
 40
1.0
  9
$DIMTOFL
 70
     0
  9
$DIMTVP
 40
1.6000000000000001
  9
$DIMTIX
 70
     1
  9
$DIMSOXD
 70
     0
  9
$DIMSAH
 70
     0
  9
$DIMBLK1
  1

  9
$DIMBLK2
  1

  9
$DIMSTYLE
  2
STANDARD
  9
$DIMCLRD
 70
     0
  9
$DIMCLRE
 70
     0
  9
$DIMCLRT
 70
     0
  9
$DIMTFAC
 40
1.0
  9
$DIMGAP
 40
0.09
  9
$LUNITS
 70
     2
  9
$LUPREC
 70
     4
  9
$SKETCHINC
 40
0.1
  9
$FILLETRAD
 40
2.0
  9
$AUNITS
 70
     0
  9
$AUPREC
 70
     0
  9
$MENU
  1
E:\r13\win\SUPPORT\ACAD
  9
$ELEVATION
 40
0.0
  9
$PELEVATION
 40
0.0
  9
$THICKNESS
 40
0.0
  9
$LIMCHECK
 70
     0
  9
$BLIPMODE
 70
     0
  9
$CHAMFERA
 40
0.0
  9
$CHAMFERB
 40
0.0
  9
$SKPOLY
 70
     0
  9
$TDCREATE
 40
2447977.5416277782
  9
$TDUPDATE
 40
2456598.6926460071
  9
$TDINDWG
 40
0.0085727315
  9
$TDUSRTIMER
 40
0.0085727315
  9
$USRTIMER
 70
     1
  9
$ANGBASE
 50
0.0
  9
$ANGDIR
 70
     0
  9
$PDMODE
 70
     0
  9
$PDSIZE
 40
0.0
  9
$PLINEWID
 40
0.0
  9
$COORDS
 70
     1
  9
$SPLFRAME
 70
     0
  9
$SPLINETYPE
 70
     6
  9
$SPLINESEGS
 70
     8
  9
$ATTDIA
 70
     0
  9
$ATTREQ
 70
     1
  9
$HANDLING
 70
     1
  9
$HANDSEED
  5
41E
  9
$SURFTAB1
 70
     6
  9
$SURFTAB2
 70
     6
  9
$SURFTYPE
 70
     6
  9
$SURFU
 70
     6
  9
$SURFV
 70
     6
  9
$UCSNAME
  2

  9
$UCSORG
 10
0.0
 20
0.0
 30
0.0
  9
$UCSXDIR
 10
1.0
 20
0.0
 30
0.0
  9
$UCSYDIR
 10
0.0
 20
1.0
 30
0.0
  9
$PUCSNAME
  2

  9
$PUCSORG
 10
0.0
 20
0.0
 30
0.0
  9
$PUCSXDIR
 10
1.0
 20
0.0
 30
0.0
  9
$PUCSYDIR
 10
0.0
 20
1.0
 30
0.0
  9
$USERI1
 70
     0
  9
$USERI2
 70
     1
  9
$USERI3
 70
     1
  9
$USERI4
 70
     0
  9
$USERI5
 70
     0
  9
$USERR1
 40
0.0
  9
$USERR2
 40
0.0
  9
$USERR3
 40
0.0
  9
$USERR4
 40
0.0
  9
$USERR5
 40
0.0
  9
$WORLDVIEW
 70
     1
  9
$SHADEDGE
 70
     3
  9
$SHADEDIF
 70
    70
  9
$TILEMODE
 70
     1
  9
$MAXACTVP
 70
    16
  9
$PLIMCHECK
 70
     0
  9
$PEXTMIN
 10
1.0000000000000000E+020
 20
1.0000000000000000E+020
 30
1.0000000000000000E+020
  9
$PEXTMAX
 10
-1.0000000000000000E+020
 20
-1.0000000000000000E+020
 30
-1.0000000000000000E+020
  9
$PLIMMIN
 10
0.0
 20
0.0
  9
$PLIMMAX
 10
12.0
 20
9.0
  9
$UNITMODE
 70
     0
  9
$VISRETAIN
 70
     0
  9
$PLINEGEN
 70
     1
  9
$PSLTSCALE
 70
     0
  0
ENDSEC
  0
SECTION
  2
TABLES
  0
TABLE
  2
VPORT
 70
     1
  0
VPORT
  2
*ACTIVE
 70
     0
 10
0.0
 20
0.0
 11
1.0
 21
1.0
 12
282.67640966493877
 22
210.77145193540571
 13
0.0
 23
0.0
 14
10.0
 24
10.0
 15
10.0
 25
10.0
 16
0.0
 26
0.0
 36
1.0
 17
0.0
 27
0.0
 37
0.0
 40
431.36349219433572
 41
1.831871345029239
 42
50.0
 43
0.0
 44
0.0
 50
0.0
 51
0.0
 71
     0
 72
   500
 73
     1
 74
     0
 75
     0
 76
     0
 77
     0
 78
     2
  0
ENDTAB
  0
TABLE
  2
LTYPE
 70
     4
  0
LTYPE
  2
CONTINUOUS
 70
     0
  3
Solid Line
 72
    65
 73
     0
 40
0.0
  0
LTYPE
  2
CENTER
 70
     0
  3
____ _ ____ _ ____ _ ____ _ ____ _ ____ _ ____
 72
    65
 73
     4
 40
2.0
 49
1.25
 49
-0.25
 49
0.25
 49
-0.25
  0
LTYPE
  2
HIDDEN
 70
     0
  3
_ _ _ _ _ _ _ _ _ _ _ _ _ _ _ _ _ _ _ _ _ _ _
 72
    65
 73
     2
 40
0.375
 49
0.25
 49
-0.125
  0
LTYPE
  2
PHANTOM2
 70
     0
  3
___ _ _ ___ _ _ ___ _ _ ___ _ _
 72
    65
 73
     6
 40
1.25
 49
0.625
 49
-0.125
 49
0.125
 49
-0.125
 49
0.125
 49
-0.125
  0
ENDTAB
  0
TABLE
  2
LAYER
 70
     4
  0
LAYER
  2
0
 70
     0
 62
     7
  6
CONTINUOUS
  0
LAYER
  2
1
 70
     0
 62
     1
  6
CENTER
  0
LAYER
  2
2
 70
     0
 62
     2
  6
HIDDEN
  0
LAYER
  2
3
 70
     0
 62
     3
  6
CONTINUOUS
  0
ENDTAB
  0
TABLE
  2
STYLE
 70
     2
  0
STYLE
  2
STANDARD
 70
     0
 40
0.0
 41
1.0
 50
0.0
 71
     0
 42
0.2
  3
TXT
  4
BIGFONT
  0
STYLE
  2
STANDARD1
 70
     0
 40
0.0
 41
1.0
 50
0.0
 71
     0
 42
3.0
  3
txt
  4

  0
ENDTAB
  0
TABLE
  2
VIEW
 70
     1
  0
VIEW
  2
ALL
 70
     0
 40
270.0
 10
220.99159663865549
 20
135.0
 41
0.0
 11
0.0
 21
0.0
 31
1.0
 12
0.0
 22
0.0
 32
0.0
 42
0.0
 43
0.0
 44
0.0
 50
0.0
 71
     0
  0
ENDTAB
  0
TABLE
  2
UCS
 70
     0
  0
ENDTAB
  0
TABLE
  2
APPID
 70
     4
  0
APPID
  2
ACAD
 70
     0
  0
APPID
  2
GENIUS_GENOREF_13
 70
     0
  0
APPID
  2
ACAD_MLEADERVER
 70
     0
  0
APPID
  2
ACAD_NAV_VCDISPLAY
 70
     0
  0
ENDTAB
  0
TABLE
  2
DIMSTYLE
 70
     1
  0
DIMSTYLE
  2
STANDARD
 70
     0
  3

  4

  5

  6

  7

 40
1.0
 41
0.18
 42
0.0625
 43
0.38
 44
0.18
 45
0.0
 46
0.0
 47
0.0
 48
0.0
140
0.18
141
0.09
142
0.0
143
25.399999999999999
144
1.0
145
0.0
146
1.0
147
0.09
 71
     0
 72
     0
 73
     1
 74
     1
 75
     0
 76
     0
 77
     0
 78
     0
170
     0
171
     2
172
     0
173
     0
174
     0
175
     0
176
     0
177
     0
178
     0
  0
ENDTAB
  0
ENDSEC
  0
SECTION
  2
BLOCKS
  0
BLOCK
  8
0
  2
$MODEL_SPACE
 70
     0
 10
0.0
 20
0.0
 30
0.0
  3
$MODEL_SPACE
  1

  0
ENDBLK
  5
19F
  8
0
  0
BLOCK
 67
     1
  8
0
  2
$PAPER_SPACE
 70
     0
 10
0.0
 20
0.0
 30
0.0
  3
$PAPER_SPACE
  1

  0
ENDBLK
  5
19D
 67
     1
  8
0
  0
ENDSEC
  0
SECTION
  2
ENTITIES
  0
LINE
  5
268
  8
0
 10
137.3528166974377
 20
169.5125665279262
 30
0.0
 11
137.35281669743691
 21
134.51256652792631
 31
0.0
  0
LINE
  5
269
  8
0
 10
346.3528166974379
 20
169.5125665279262
 30
0.0
 11
346.3528166974387
 21
134.51256652792631
 31
0.0
  0
CIRCLE
  5
26A
  8
2
 10
537.85281669724827
 20
152.01256652792421
 30
0.0
 40
15.5
  0
ARC
  5
26B
  8
2
 10
537.85281669724827
 20
152.01256652792421
 30
0.0
 40
17.5
 50
180.0000000000004
 51
0.0000000000001908
  0
LINE
  5
26C
  8
2
 10
411.78754426485682
 20
119.0125665279225
 30
0.0
 11
370.34081669724941
 21
119.0125665279225
 31
0.0
  0
ARC
  5
26D
  8
0
 10
537.85281669724827
 20
152.01256652792421
 30
0.0
 40
17.5
 50
0.0000000000002799
 51
180.0000000000002
  0
LINE
  5
26E
  8
1
 10
565.35281669724816
 20
152.01256652792441
 30
0.0
 11
510.35281669724822
 21
152.01256652792409
 31
0.0
  0
LINE
  5
26F
  8
1
 10
391.8528166972489
 20
322.23136658450119
 30
0.0
 11
391.85281669724952
 21
291.79376647134018
 31
0.0
  0
ARC
  5
270
  8
0
 10
414.3898429054334
 20
321.01312320327389
 30
0.0
 40
3.5
 50
19.954733708498178
 51
91.021904608371827
  0
ARC
  5
271
  8
0
 10
414.3898429054334
 20
293.01200985258538
 30
0.0
 40
3.5
 50
268.97809539162807
 51
340.04526629150178
  0
ARC
  5
272
  8
0
 10
375.8288667489951
 20
307.01256652792961
 30
0.0
 40
44.523949948254923
 50
340.04526629150178
 51
19.954733708498178
  0
ARC
  5
273
  8
0
 10
379.12693765293972
 20
307.01256652792961
 30
0.0
 40
9.2855519096284524
 50
117.05668895118249
 51
242.94331104881749
  0
ARC
  5
274
  8
0
 10
408.38121532499213
 20
264.45303970073439
 30
0.0
 40
60.86335764954643
 50
99.322258637376109
 51
123.37058296050159
  0
ARC
  5
275
  8
0
 10
408.38121532499213
 20
349.57209335512488
 30
0.0
 40
60.86335764954643
 50
236.62941703949829
 51
260.67774136262392
  0
ARC
  5
276
  8
2
 10
390.87781678041608
 20
307.01256652792028
 30
0.0
 40
5.25
 50
90.000000000013031
 51
269.99999999998698
  0
ARC
  5
277
  8
2
 10
392.82781661408319
 20
307.01256652792068
 30
0.0
 40
5.25
 50
269.99999999998698
 51
90.000000000013031
  0
LINE
  5
278
  8
2
 10
392.82781661408433
 20
312.26256652792068
 30
0.0
 11
390.87781678041722
 21
312.26256652792028
 31
0.0
  0
LINE
  5
279
  8
2
 10
392.82781661408433
 20
301.76256652791977
 30
0.0
 11
390.87781678041722
 21
301.76256652792028
 31
0.0
  0
ARC
  5
27A
  8
3
 10
400.47033726590797
 20
307.01256652792961
 30
0.0
 40
17.608109133237281
 50
96.352357292671527
 51
263.64764270732849
  0
LINE
  5
27B
  8
1
 10
373.35281669725128
 20
314.01256652792142
 30
0.0
 11
373.35281669725128
 21
300.01256652792142
 31
0.0
  0
CIRCLE
  5
27C
  8
2
 10
373.35281669725128
 20
307.01256652792142
 30
0.0
 40
2.0
  0
LINE
  5
27D
  8
2
 10
375.25610363371561
 20
298.51256652792961
 30
0.0
 11
411.78918426485882
 21
298.51256652792961
 31
0.0
  0
LINE
  5
27E
  8
2
 10
375.25610363371561
 20
315.51256652792961
 30
0.0
 11
411.78918426485882
 21
315.51256652792961
 31
0.0
  0
LINE
  5
27F
  8
2
 10
378.56452675548871
 20
296.51256652792961
 30
0.0
 11
411.78918426485882
 21
296.51256652792972
 31
0.0
  0
LINE
  5
280
  8
2
 10
378.56452675548871
 20
317.51256652792961
 30
0.0
 11
411.78918426485882
 21
317.51256652792961
 31
0.0
  0
LINE
  5
281
  8
2
 10
411.78918426485882
 20
296.51256652792972
 30
0.0
 11
411.78918426485882
 21
298.51256652792961
 31
0.0
  0
LINE
  5
282
  8
2
 10
411.78918426485882
 20
315.51256652792961
 30
0.0
 11
411.78918426485882
 21
317.51256652792961
 31
0.0
  0
LINE
  5
283
  8
0
 10
346.35281669724981
 20
324.51256652792608
 30
0.0
 11
346.35281669725049
 21
289.51256652792631
 31
0.0
  0
LINE
  5
284
  8
0
 10
137.35281669724949
 20
324.51256652792608
 30
0.0
 11
137.3528166972487
 21
289.51256652792631
 31
0.0
  0
LINE
  5
285
  8
2
 10
71.916449129640455
 20
315.51256652792961
 30
0.0
 11
71.916449129640455
 21
317.51256652792961
 31
0.0
  0
LINE
  5
286
  8
2
 10
71.916449129640455
 20
296.51256652792972
 30
0.0
 11
71.916449129640455
 21
298.51256652792961
 31
0.0
  0
LINE
  5
287
  8
2
 10
105.1411066390106
 20
317.51256652792961
 30
0.0
 11
71.916449129640455
 21
317.51256652792961
 31
0.0
  0
LINE
  5
288
  8
2
 10
105.1411066390106
 20
296.51256652792961
 30
0.0
 11
71.916449129640455
 21
296.51256652792972
 31
0.0
  0
LINE
  5
289
  8
2
 10
108.44952976078361
 20
315.51256652792961
 30
0.0
 11
71.916449129640455
 21
315.51256652792961
 31
0.0
  0
LINE
  5
28A
  8
2
 10
108.44952976078361
 20
298.51256652792961
 30
0.0
 11
71.916449129640455
 21
298.51256652792961
 31
0.0
  0
LINE
  5
28B
  8
2
 10
71.918089129640464
 20
119.0125665279225
 30
0.0
 11
113.3648166972477
 21
119.0125665279225
 31
0.0
  0
ARC
  5
28C
  8
0
 10
384.26811610656449
 20
164.5125665279254
 30
0.0
 40
5.0
 50
53.944802222591903
 51
90.0
  0
ARC
  5
28D
  8
0
 10
99.437517287929964
 20
164.5125665279229
 30
0.0
 40
5.0
 50
90.0
 51
126.05519777740879
  0
LINE
  5
28E
  8
2
 10
413.23859473002398
 20
112.0125665279225
 30
0.0
 11
370.34081669724918
 21
112.0125665279225
 31
0.0
  0
LINE
  5
28F
  8
2
 10
70.467038664473193
 20
112.0125665279225
 30
0.0
 11
113.3648166972477
 21
112.0125665279225
 31
0.0
  0
LINE
  5
290
  8
1
 10
391.85281669724969
 20
117.0125665279225
 30
0.0
 11
391.85281669725077
 21
74.012566527922502
 31
0.0
  0
ARC
  5
291
  8
2
 10
349.04884481043541
 20
116.2260552764082
 30
0.0
 40
21.29245537390781
 50
359.6138838016152
 51
87.647571818669377
  0
ARC
  5
292
  8
0
 10
349.0453366189127
 20
116.2255682769523
 30
0.0
 40
18.308038571046399
 50
359.55246543939643
 51
87.252836591822259
  0
LINE
  5
293
  8
2
 10
370.34081669724941
 20
112.0125665279225
 30
0.0
 11
370.34081669725038
 21
116.0825665279241
 31
0.0
  0
LINE
  5
294
  8
2
 10
349.9228166972494
 20
137.50056652792489
 30
0.0
 11
349.10609669724931
 21
137.50056652792489
 31
0.0
  0
LINE
  5
295
  8
2
 10
378.78584253260613
 20
165.5325665279222
 30
0.0
 11
349.10609669724931
 21
165.5325665279222
 31
0.0
  0
LINE
  5
296
  8
2
 10
349.10609669724948
 20
165.5325665279222
 30
0.0
 11
349.10609669724982
 21
137.500566527925
 31
0.0
  0
LINE
  5
297
  8
0
 10
367.35281669725032
 20
116.0825665280441
 30
0.0
 11
367.35281669725032
 21
84.012566527922317
 31
0.0
  0
ARC
  5
298
  8
0
 10
335.98006804691028
 20
100.1125759885613
 30
0.0
 40
85.492353852480647
 50
9.2828545942975413
 51
53.184152499132438
  0
LINE
  5
299
  8
0
 10
367.3528166972502
 20
84.012566527922687
 30
0.0
 11
420.3528166972502
 21
84.012566527922274
 31
0.0
  0
LINE
  5
29A
  8
0
 10
413.23859473002398
 20
112.32560224362901
 30
0.0
 11
413.23859473002398
 21
84.012566527922317
 31
0.0
  0
ARC
  5
29B
  8
0
 10
334.80814471622369
 20
99.150044043732635
 30
0.0
 40
79.529433691219651
 50
9.5360976404038844
 51
62.21900362297081
  0
LINE
  5
29C
  8
2
 10
385.55281669724991
 20
112.0125665279225
 30
0.0
 11
385.55281669725059
 21
84.012566527922388
 31
0.0
  0
LINE
  5
29D
  8
2
 10
398.15281669724988
 20
112.0125665279225
 30
0.0
 11
398.15281669724931
 21
84.012566527922388
 31
0.0
  0
LINE
  5
29E
  8
1
 10
373.35281669725032
 20
104.0125665279226
 30
0.0
 11
373.35281669725038
 21
79.012566527922615
 31
0.0
  0
LINE
  5
29F
  8
2
 10
371.35281669725038
 20
99.012566527922615
 30
0.0
 11
375.35281669725032
 21
99.012566527922615
 31
0.0
  0
LINE
  5
2A0
  8
2
 10
371.35281669725038
 20
99.012566527922687
 30
0.0
 11
371.35281669725038
 21
84.012566527922615
 31
0.0
  0
LINE
  5
2A1
  8
2
 10
375.35281669725032
 20
99.012566527922615
 30
0.0
 11
375.35281669725038
 21
84.012566527922544
 31
0.0
  0
LINE
  5
2A2
  8
1
 10
416.44066447074891
 20
152.01256652792691
 30
0.0
 11
63.352816697246404
 21
152.01256652792219
 31
0.0
  0
LINE
  5
2A3
  8
2
 10
108.35281669724679
 20
99.012566527922544
 30
0.0
 11
108.35281669724669
 21
84.012566527922544
 31
0.0
  0
LINE
  5
2A4
  8
2
 10
112.35281669724669
 20
99.012566527922615
 30
0.0
 11
112.35281669724669
 21
84.012566527922615
 31
0.0
  0
LINE
  5
2A5
  8
2
 10
112.35281669724669
 20
99.012566527922615
 30
0.0
 11
108.35281669724679
 21
99.012566527922544
 31
0.0
  0
LINE
  5
2A6
  8
1
 10
241.85281669724921
 20
307.01256652792603
 30
0.0
 11
430.35281669724992
 21
307.01256652791938
 31
0.0
  0
CIRCLE
  5
2A7
  8
2
 10
110.352816697248
 20
307.01256652792961
 30
0.0
 40
2.0
  0
LINE
  5
2A8
  8
1
 10
110.352816697248
 20
314.01256652792972
 30
0.0
 11
110.352816697248
 21
300.01256652792972
 31
0.0
  0
LINE
  5
2A9
  8
1
 10
110.35281669724679
 20
104.0125665279226
 30
0.0
 11
110.35281669724669
 21
79.012566527922615
 31
0.0
  0
ARC
  5
2AA
  8
3
 10
83.235296128591173
 20
307.01256652792961
 30
0.0
 40
17.608109133237281
 50
276.35235729267151
 51
83.647642707328458
  0
LINE
  5
2AB
  8
2
 10
90.877816780416353
 20
301.76256652792671
 30
0.0
 11
92.827816614083474
 21
301.76256652792711
 31
0.0
  0
LINE
  5
2AC
  8
2
 10
90.877816780416353
 20
312.26256652792762
 30
0.0
 11
92.827816614083474
 21
312.26256652792711
 31
0.0
  0
ARC
  5
2AD
  8
2
 10
90.877816780415174
 20
307.01256652792762
 30
0.0
 40
5.25
 50
89.999999999986969
 51
270.00000000001302
  0
ARC
  5
2AE
  8
2
 10
92.827816614082266
 20
307.01256652792711
 30
0.0
 40
5.25
 50
270.00000000001302
 51
89.999999999986969
  0
ARC
  5
2AF
  8
0
 10
75.324418069507203
 20
349.57209335512488
 30
0.0
 40
60.86335764954643
 50
279.32225863737608
 51
303.37058296050162
  0
ARC
  5
2B0
  8
0
 10
75.324418069507203
 20
264.45303970073439
 30
0.0
 40
60.86335764954643
 50
56.629417039498328
 51
80.677741362623891
  0
ARC
  5
2B1
  8
0
 10
104.5786957415596
 20
307.01256652792961
 30
0.0
 40
9.2855519096284524
 50
297.05668895118248
 51
62.943311048817428
  0
LINE
  5
2B2
  8
0
 10
69.378211779566243
 20
289.51256652792762
 30
0.0
 11
414.32742161531399
 21
289.5125665279208
 31
0.0
  0
LINE
  5
2B3
  8
0
 10
69.378211779803962
 20
324.5125665279275
 30
0.0
 11
414.32742161431639
 21
324.51256652792068
 31
0.0
  0
ARC
  5
2B4
  8
0
 10
107.87676664550411
 20
307.01256652792961
 30
0.0
 40
44.523949948254923
 50
160.0452662915018
 51
199.95473370849811
  0
ARC
  5
2B5
  8
0
 10
69.315790489065932
 20
293.01200985258538
 30
0.0
 40
3.5
 50
199.95473370849811
 51
271.02190460837181
  0
ARC
  5
2B6
  8
0
 10
69.315790489065932
 20
321.01312320327389
 30
0.0
 40
3.5
 50
88.978095391628145
 51
160.0452662915018
  0
LINE
  5
2B7
  8
1
 10
91.852816697249565
 20
322.23136658450801
 30
0.0
 11
91.852816697248855
 21
291.79376647134711
 31
0.0
  0
LINE
  5
2B8
  8
1
 10
241.85281669724921
 20
307.01256652792608
 30
0.0
 11
53.352816697249182
 21
307.01256652793001
 31
0.0
  0
LINE
  5
2B9
  8
1
 10
241.85281669724989
 20
334.51256652792409
 30
0.0
 11
241.85281669724861
 21
279.51256652792409
 31
0.0
  0
LINE
  5
2BA
  8
1
 10
537.85281669724759
 20
179.51256652792421
 30
0.0
 11
537.85281669725009
 21
74.012566527924264
 31
0.0
1001
GENIUS_GENOREF_13
1005
0
  0
LINE
  5
2BB
  8
0
 10
555.3528166972502
 20
84.012566527924378
 30
0.0
 11
520.35281669725043
 21
84.01256652792415
 31
0.0
  0
LINE
  5
2BC
  8
0
 10
420.35281669725009
 20
113.9032196437484
 30
0.0
 11
420.35281669725009
 21
84.012566527924264
 31
0.0
  0
LINE
  5
2BD
  8
0
 10
520.35281669725009
 20
84.01256652792415
 30
0.0
 11
520.35281669725009
 21
152.08256687143501
 31
0.0
  0
LINE
  5
2BE
  8
0
 10
555.3528166972502
 20
84.012566527924378
 30
0.0
 11
555.3528166972502
 21
152.08256651955139
 31
0.0
  0
LINE
  5
2BF
  8
2
 10
85.552816697247295
 20
112.0125665279225
 30
0.0
 11
85.552816697247977
 21
84.012566527922388
 31
0.0
  0
LINE
  5
2C0
  8
2
 10
98.152816697247331
 20
112.0125665279225
 30
0.0
 11
98.152816697246635
 21
84.012566527922388
 31
0.0
  0
ARC
  5
2C1
  8
0
 10
148.89748867827359
 20
99.150044043732578
 30
0.0
 40
79.529433691219751
 50
117.78099637703269
 51
170.46390235959609
  0
LINE
  5
2C2
  8
0
 10
70.467038664473193
 20
112.32560224362901
 30
0.0
 11
70.467038664473193
 21
84.012566527922317
 31
0.0
  0
LINE
  5
2C3
  8
0
 10
133.78281669724569
 20
134.51256652792321
 30
0.0
 11
349.92281669721058
 21
134.512566527926
 31
0.0
  0
LINE
  5
2C4
  8
0
 10
99.437517287929893
 20
169.5125665279229
 30
0.0
 11
384.26811610656449
 21
169.51256652792529
 31
0.0
  0
LINE
  5
2C5
  8
1
 10
241.85281669724861
 20
179.51256652792409
 30
0.0
 11
241.8528166972477
 21
124.5125665279246
 31
0.0
  0
LINE
  5
2C6
  8
0
 10
116.35281669724689
 20
84.012566527922687
 30
0.0
 11
63.352816697246901
 21
84.012566527922274
 31
0.0
  0
ARC
  5
2C7
  8
0
 10
147.72556534758709
 20
100.1125759885614
 30
0.0
 40
85.492353852480804
 50
126.8158475008685
 51
170.71714540570241
  0
LINE
  5
2C8
  8
0
 10
63.352816697246787
 20
113.9032196437465
 30
0.0
 11
63.352816697246901
 21
84.012566527922317
 31
0.0
  0
LINE
  5
2C9
  8
0
 10
116.35281669724689
 20
114.3382995080314
 30
0.0
 11
116.35281669724689
 21
84.012566527922317
 31
0.0
  0
LINE
  5
2CA
  8
0
 10
116.35281669724689
 20
114.3382995080314
 30
0.0
 11
116.35281669724689
 21
116.0825665279233
 31
0.0
1001
GENIUS_GENOREF_13
1005
0
  0
LINE
  5
2CB
  8
2
 10
134.59953669724769
 20
165.5325665279222
 30
0.0
 11
134.5995366972474
 21
137.50056652792421
 31
0.0
  0
LINE
  5
2CC
  8
2
 10
104.9197908618911
 20
165.5325665279222
 30
0.0
 11
134.59953669724791
 21
165.5325665279222
 31
0.0
  0
LINE
  5
2CD
  8
2
 10
133.7828166972478
 20
137.50056652792409
 30
0.0
 11
134.59953669724791
 21
137.50056652792409
 31
0.0
  0
LINE
  5
2CE
  8
2
 10
113.3648166972478
 20
112.0125665279225
 30
0.0
 11
113.36481669724679
 21
116.0825665279233
 31
0.0
  0
ARC
  5
2CF
  8
0
 10
134.6602967755845
 20
116.22556827695151
 30
0.0
 40
18.308038571046339
 50
92.747163408177727
 51
180.44753456060371
  0
ARC
  5
2D0
  8
2
 10
134.65678858406179
 20
116.22605527640739
 30
0.0
 40
21.29245537390776
 50
92.352428181330637
 51
180.38611619838471
  0
LINE
  5
2D1
  8
1
 10
91.852816697247476
 20
117.0125665279225
 30
0.0
 11
91.852816697246453
 21
74.012566527922502
 31
0.0
  0
TEXT
  5
387
  8
0
 62
     3
 10
0.0
 20
0.0
 30
0.0
 40
10.0
  1
ETH300-BR
  7
STANDARD1
  0
ENDSEC
  0
EOF
