  0
SECTION
  2
HEADER
  9
$ACADVER
  1
AC1009
  9
$INSBASE
 10
0.0
 20
0.0
 30
0.0
  9
$EXTMIN
 10
0.0
 20
-2.960436562073669
 30
-0.0000000000000003
  9
$EXTMAX
 10
219.04046628553181
 20
164.0162590074487
 30
0.0006584539182919
  9
$LIMMIN
 10
0.0
 20
0.0
  9
$LIMMAX
 10
375.0
 20
270.0
  9
$ORTHOMODE
 70
     0
  9
$REGENMODE
 70
     1
  9
$FILLMODE
 70
     1
  9
$QTEXTMODE
 70
     0
  9
$MIRRTEXT
 70
     0
  9
$DRAGMODE
 70
     2
  9
$LTSCALE
 40
10.0
  9
$OSMODE
 70
  3071
  9
$ATTMODE
 70
     1
  9
$TEXTSIZE
 40
0.2
  9
$TRACEWID
 40
0.05
  9
$TEXTSTYLE
  7
STANDARD
  9
$CLAYER
  8
0
  9
$CELTYPE
  6
BYLAYER
  9
$CECOLOR
 62
   256
  9
$DIMSCALE
 40
1.0
  9
$DIMASZ
 40
3.0
  9
$DIMEXO
 40
0.0625
  9
$DIMDLI
 40
0.38
  9
$DIMRND
 40
0.0
  9
$DIMDLE
 40
0.0
  9
$DIMEXE
 40
0.18
  9
$DIMTP
 40
0.0
  9
$DIMTM
 40
0.0
  9
$DIMTXT
 40
3.0
  9
$DIMCEN
 40
0.09
  9
$DIMTSZ
 40
0.0
  9
$DIMTOL
 70
     0
  9
$DIMLIM
 70
     0
  9
$DIMTIH
 70
     1
  9
$DIMTOH
 70
     1
  9
$DIMSE1
 70
     0
  9
$DIMSE2
 70
     0
  9
$DIMTAD
 70
     0
  9
$DIMZIN
 70
     0
  9
$DIMBLK
  1

  9
$DIMASO
 70
     1
  9
$DIMSHO
 70
     1
  9
$DIMPOST
  1

  9
$DIMAPOST
  1

  9
$DIMALT
 70
     0
  9
$DIMALTD
 70
     2
  9
$DIMALTF
 40
25.399999999999999
  9
$DIMLFAC
 40
1.0
  9
$DIMTOFL
 70
     0
  9
$DIMTVP
 40
0.0
  9
$DIMTIX
 70
     0
  9
$DIMSOXD
 70
     0
  9
$DIMSAH
 70
     0
  9
$DIMBLK1
  1

  9
$DIMBLK2
  1

  9
$DIMSTYLE
  2
STANDARD
  9
$DIMCLRD
 70
     0
  9
$DIMCLRE
 70
     0
  9
$DIMCLRT
 70
     0
  9
$DIMTFAC
 40
1.0
  9
$DIMGAP
 40
0.09
  9
$LUNITS
 70
     2
  9
$LUPREC
 70
     4
  9
$SKETCHINC
 40
0.1
  9
$FILLETRAD
 40
0.0
  9
$AUNITS
 70
     0
  9
$AUPREC
 70
     0
  9
$MENU
  1
E:\r13\win\SUPPORT\ACAD
  9
$ELEVATION
 40
0.0
  9
$PELEVATION
 40
0.0
  9
$THICKNESS
 40
0.0
  9
$LIMCHECK
 70
     0
  9
$BLIPMODE
 70
     0
  9
$CHAMFERA
 40
0.0
  9
$CHAMFERB
 40
0.0
  9
$SKPOLY
 70
     0
  9
$TDCREATE
 40
2450368.460196875
  9
$TDUPDATE
 40
2456598.6877811691
  9
$TDINDWG
 40
0.011118125
  9
$TDUSRTIMER
 40
0.011118125
  9
$USRTIMER
 70
     1
  9
$ANGBASE
 50
0.0
  9
$ANGDIR
 70
     0
  9
$PDMODE
 70
     0
  9
$PDSIZE
 40
0.0
  9
$PLINEWID
 40
0.0
  9
$COORDS
 70
     1
  9
$SPLFRAME
 70
     0
  9
$SPLINETYPE
 70
     6
  9
$SPLINESEGS
 70
     8
  9
$ATTDIA
 70
     0
  9
$ATTREQ
 70
     1
  9
$HANDLING
 70
     1
  9
$HANDSEED
  5
401
  9
$SURFTAB1
 70
     6
  9
$SURFTAB2
 70
     6
  9
$SURFTYPE
 70
     6
  9
$SURFU
 70
     6
  9
$SURFV
 70
     6
  9
$UCSNAME
  2

  9
$UCSORG
 10
0.0
 20
0.0
 30
0.0
  9
$UCSXDIR
 10
1.0
 20
0.0
 30
0.0
  9
$UCSYDIR
 10
0.0
 20
1.0
 30
0.0
  9
$PUCSNAME
  2

  9
$PUCSORG
 10
0.0
 20
0.0
 30
0.0
  9
$PUCSXDIR
 10
1.0
 20
0.0
 30
0.0
  9
$PUCSYDIR
 10
0.0
 20
1.0
 30
0.0
  9
$USERI1
 70
     3
  9
$USERI2
 70
     1
  9
$USERI3
 70
     1
  9
$USERI4
 70
     0
  9
$USERI5
 70
     0
  9
$USERR1
 40
1.0
  9
$USERR2
 40
3.0
  9
$USERR3
 40
3.0
  9
$USERR4
 40
3.0
  9
$USERR5
 40
10.0
  9
$WORLDVIEW
 70
     1
  9
$SHADEDGE
 70
     3
  9
$SHADEDIF
 70
    70
  9
$TILEMODE
 70
     1
  9
$MAXACTVP
 70
    16
  9
$PLIMCHECK
 70
     0
  9
$PEXTMIN
 10
1.0000000000000000E+020
 20
1.0000000000000000E+020
 30
1.0000000000000000E+020
  9
$PEXTMAX
 10
-1.0000000000000000E+020
 20
-1.0000000000000000E+020
 30
-1.0000000000000000E+020
  9
$PLIMMIN
 10
0.0
 20
0.0
  9
$PLIMMAX
 10
12.0
 20
9.0
  9
$UNITMODE
 70
     0
  9
$VISRETAIN
 70
     0
  9
$PLINEGEN
 70
     0
  9
$PSLTSCALE
 70
     0
  0
ENDSEC
  0
SECTION
  2
TABLES
  0
TABLE
  2
VPORT
 70
     1
  0
VPORT
  2
*ACTIVE
 70
     0
 10
0.0
 20
0.0
 11
1.0
 21
1.0
 12
187.49427839065231
 22
169.9063198933564
 13
0.0
 23
0.0
 14
10.0
 24
10.0
 15
10.0
 25
10.0
 16
0.0
 26
0.0
 36
1.0
 17
0.0
 27
0.0
 37
0.0
 40
348.89937369551939
 41
1.831871345029239
 42
50.0
 43
0.0
 44
0.0
 50
0.0
 51
0.0
 71
     0
 72
   100
 73
     1
 74
     0
 75
     0
 76
     0
 77
     0
 78
     0
  0
ENDTAB
  0
TABLE
  2
LTYPE
 70
     4
  0
LTYPE
  2
CONTINUOUS
 70
     0
  3
Solid Line
 72
    65
 73
     0
 40
0.0
  0
LTYPE
  2
CENTER
 70
     0
  3
____ _ ____ _ ____ _ ____ _ ____ _ ____ _ ____
 72
    65
 73
     4
 40
2.0
 49
1.25
 49
-0.25
 49
0.25
 49
-0.25
  0
LTYPE
  2
HIDDEN
 70
     0
  3
_ _ _ _ _ _ _ _ _ _ _ _ _ _ _ _ _ _ _ _ _ _ _
 72
    65
 73
     2
 40
0.375
 49
0.25
 49
-0.125
  0
LTYPE
  2
PHANTOM2
 70
     0
  3
___ _ _ ___ _ _ ___ _ _ ___ _ _
 72
    65
 73
     6
 40
1.25
 49
0.625
 49
-0.125
 49
0.125
 49
-0.125
 49
0.125
 49
-0.125
  0
ENDTAB
  0
TABLE
  2
LAYER
 70
     3
  0
LAYER
  2
0
 70
     0
 62
     7
  6
CONTINUOUS
  0
LAYER
  2
1
 70
     0
 62
     1
  6
CENTER
  0
LAYER
  2
2
 70
     0
 62
     2
  6
HIDDEN
  0
ENDTAB
  0
TABLE
  2
STYLE
 70
     2
  0
STYLE
  2
STANDARD
 70
     0
 40
0.0
 41
1.0
 50
0.0
 71
     0
 42
0.2
  3
SIMPLEX
  4
BIGFONT
  0
STYLE
  2
STANDARD1
 70
     0
 40
0.0
 41
1.0
 50
0.0
 71
     0
 42
3.0
  3
txt
  4

  0
ENDTAB
  0
TABLE
  2
VIEW
 70
     0
  0
ENDTAB
  0
TABLE
  2
UCS
 70
     0
  0
ENDTAB
  0
TABLE
  2
APPID
 70
     3
  0
APPID
  2
ACAD
 70
     0
  0
APPID
  2
ACAD_MLEADERVER
 70
     0
  0
APPID
  2
ACAD_NAV_VCDISPLAY
 70
     0
  0
ENDTAB
  0
TABLE
  2
DIMSTYLE
 70
     1
  0
DIMSTYLE
  2
STANDARD
 70
     0
  3

  4

  5

  6

  7

 40
1.0
 41
0.18
 42
0.0625
 43
0.38
 44
0.18
 45
0.0
 46
0.0
 47
0.0
 48
0.0
140
0.18
141
0.09
142
0.0
143
25.399999999999999
144
1.0
145
0.0
146
1.0
147
0.09
 71
     0
 72
     0
 73
     1
 74
     1
 75
     0
 76
     0
 77
     0
 78
     0
170
     0
171
     2
172
     0
173
     0
174
     0
175
     0
176
     0
177
     0
178
     0
  0
ENDTAB
  0
ENDSEC
  0
SECTION
  2
BLOCKS
  0
BLOCK
  8
0
  2
$MODEL_SPACE
 70
     0
 10
0.0
 20
0.0
 30
0.0
  3
$MODEL_SPACE
  1

  0
ENDBLK
  5
10D
  8
0
  0
BLOCK
 67
     1
  8
0
  2
$PAPER_SPACE
 70
     0
 10
0.0
 20
0.0
 30
0.0
  3
$PAPER_SPACE
  1

  0
ENDBLK
  5
10B
 67
     1
  8
0
  0
ENDSEC
  0
SECTION
  2
ENTITIES
  0
LINE
  5
168
  8
0
 10
123.1918921383557
 20
75.170686633250739
 30
0.0000051719047326
 11
123.1918921383557
 21
100.56492982060171
 31
0.0000051719047326
  0
ARC
  5
16A
  8
0
 10
157.69691603200471
 20
93.108994825568175
 30
0.0000051719047328
 40
10.96023916968762
 50
325.70210342659539
 51
108.6079541158954
  0
LINE
  5
16B
  8
1
 10
133.19199521277659
 20
63.728639820601771
 30
0.0000051719047356
 11
133.19199521277659
 21
109.72813981186481
 31
0.0000051719047356
  0
CIRCLE
  5
16D
  8
0
 10
133.22769411292529
 20
149.0162590074487
 30
0.0000051719047356
 40
7.5
  0
ARC
  5
16E
  8
0
 10
133.22769411292529
 20
149.0162590074487
 30
0.0000051719047356
 40
10.0
 50
180.0
 51
0.0
  0
ARC
  5
170
  8
0
 10
133.22769411292529
 20
149.0162590074487
 30
0.0000051719047356
 40
10.0
 50
0.0
 51
180.0
  0
LINE
  5
172
  8
0
 10
143.1914952126003
 20
68.728639820601771
 30
0.0000051719047356
 11
123.191495212953
 21
68.728639820601771
 31
0.0000051719047356
  0
LINE
  5
174
  8
0
 10
123.1918921383557
 20
75.170686633250739
 30
0.0000051719047326
 11
123.191495212953
 21
68.728639820601771
 31
0.0000051719047356
  0
ARC
  5
175
  8
0
 10
156.29264307248539
 20
148.9017187957806
 30
0.0000103438094712
 40
11.93507328514972
 50
340.91064505681271
 51
0.5498727405286517
  0
ARC
  5
178
  8
0
 10
463301.64025128121
 20
4001959.6899656579
 30
0.0000103438094712
 40
4028526.3364165421
 50
263.39821392708529
 51
263.3984440064994
  0
ARC
  5
179
  8
0
 10
148.2547289451756
 20
135.81822035959129
 30
0.0000051719047285
 40
10.0
 50
95.093226040066639
 51
138.7076059719644
  0
ARC
  5
17A
  8
0
 10
148.45480021677821
 20
133.57346840231801
 30
0.0000051719047285
 40
12.25365034186834
 50
84.85213304101984
 51
95.093226040066639
  0
ARC
  5
17B
  8
0
 10
165.8364036241623
 20
145.83019229899119
 30
0.0000103438094712
 40
1.9240652180797251
 50
263.66612723130021
 51
334.38723645623458
  0
ARC
  5
17C
  8
0
 10
463301.64034260053
 20
-4001661.6576970238
 30
0.0000103438094712
 40
4028526.3366747689
 50
96.601555994384185
 51
96.601786073796632
  0
ARC
  5
17E
  8
0
 10
136.8216256428816
 20
127.094047318165
 30
0.0000051719047328
 40
50.762496842025527
 50
278.94138672459258
 51
302.11232797311271
  0
ARC
  5
17F
  8
0
 10
148.2547289451756
 20
162.21429765530601
 30
0.0000051719047356
 40
10.0
 50
221.2923940280356
 51
264.90677395993328
  0
CIRCLE
  5
180
  8
0
 10
135.72769411292529
 20
149.0162590074487
 30
0.0000051719047356
 40
0.75
  0
CIRCLE
  5
181
  8
0
 10
130.72769411292529
 20
149.0162590074487
 30
0.0000051719047356
 40
0.75
  0
CIRCLE
  5
182
  8
0
 10
128.22769411292529
 20
149.0162590074487
 30
0.0000051719047356
 40
0.75
  0
CIRCLE
  5
183
  8
0
 10
133.22769411292529
 20
149.0162590074487
 30
0.0000051719047356
 40
0.75
  0
CIRCLE
  5
184
  8
0
 10
138.22769411292529
 20
149.0162590074487
 30
0.0000051719047356
 40
0.75
  0
ARC
  5
185
  8
0
 10
148.45480021677821
 20
164.45904961257929
 30
0.0000051719047285
 40
12.25365034186834
 50
264.90677395993328
 51
275.1478669589801
  0
ARC
  5
186
  8
0
 10
144.99109828378079
 20
75.170297539884018
 30
0.0000051719047328
 40
1.8
 50
98.94138672459259
 51
180.00353026778541
  0
LINE
  5
18F
  8
0
 10
143.19109828719749
 20
75.170686633250625
 30
0.0000051719047326
 11
143.1914952126003
 21
68.728639820601771
 31
0.0000051719047356
  0
ARC
  5
195
  8
0
 10
165.8364036241623
 20
152.20232571590611
 30
0.0000103438094712
 40
1.9240652180797251
 50
25.612763543770519
 51
96.333872768699806
  0
ARC
  5
196
  8
0
 10
156.29264307248539
 20
149.1307992191168
 30
0.0000103438094712
 40
11.93507328514972
 50
359.4501272594714
 51
19.089354943187381
  0
ARC
  5
197
  8
0
 10
158.490187837295
 20
92.567904162246577
 30
0.0000051719047328
 40
10.0
 50
302.11232797311271
 51
325.70210342659539
  0
LINE
  5
198
  8
0
 10
133.1914952127766
 20
100.56492982060171
 30
0.0000051719047342
 11
123.1918921383557
 21
100.56492982060171
 31
0.0000051719047342
  0
ARC
  5
199
  8
0
 10
133.19149521277831
 20
95.421147378729415
 30
0.000005171904737
 40
9.306992441872417
 50
36.307989983458441
 51
143.6920100165415
  0
ARC
  5
19C
  8
0
 10
133.19504417695029
 20
177.2846338266836
 30
0.0000051719047342
 40
76.71970408816729
 50
269.99734956395753
 51
285.88950882569202
  0
CIRCLE
  5
19F
  8
0
 10
157.5661905177563
 20
93.106139820604312
 30
0.0006584539182919
 40
7.7269999999999754
  0
LINE
  5
1A2
  8
1
 10
133.22769411292529
 20
164.0162590074487
 30
0.0000051719047356
 11
133.22769411292529
 21
134.0162590074487
 31
0.0000051719047356
  0
LINE
  5
1A6
  8
0
 10
219.04046628553181
 20
98.564929820601776
 30
0.0
 11
219.04046628553181
 21
68.728639820601757
 31
0.0
  0
LINE
  5
1A7
  8
0
 10
199.04046628553169
 20
98.564929820601776
 30
0.0
 11
199.04046628553169
 21
68.728639820601757
 31
0.0
  0
LINE
  5
1A8
  8
1
 10
209.04046628553181
 20
109.7281398206018
 30
0.0000051719047327
 11
209.04046628553181
 21
63.728639820601757
 31
0.0000051719047356
  0
POLYLINE
  5
1A9
  8
0
 66
     1
 10
0.0
 20
0.0
 30
0.0000051719047328
 70
     4
 75
     6
  0
VERTEX
  5
1AA
  8
0
 10
213.54046628553181
 20
102.0697339952555
 30
0.0000051719047328
 70
    16
  0
VERTEX
  5
1AB
  8
0
 10
213.54046628553181
 20
102.0697339952555
 30
0.0000051719047328
 70
     8
  0
VERTEX
  5
1AC
  8
0
 10
213.7701537855317
 20
98.130304045425646
 30
0.0000051719047328
 70
     8
  0
VERTEX
  5
1AD
  8
0
 10
213.93421628553179
 20
95.025106320265579
 30
0.0000051719047328
 70
     8
  0
VERTEX
  5
1AE
  8
0
 10
214.03265378553181
 20
92.476063411552104
 30
0.0000051719047328
 70
     8
  0
VERTEX
  5
1AF
  8
0
 10
214.06546628553181
 20
90.205097911061898
 30
0.0000051719047328
 70
     8
  0
VERTEX
  5
1B0
  8
0
 10
214.03265378553181
 20
87.934132410571735
 30
0.0000051719047328
 70
     8
  0
VERTEX
  5
1B1
  8
0
 10
213.93421628553179
 20
85.385089501858275
 30
0.0000051719047328
 70
     8
  0
VERTEX
  5
1B2
  8
0
 10
213.7701537855317
 20
82.279891776698207
 30
0.0000051719047328
 70
     8
  0
VERTEX
  5
1B3
  8
0
 10
213.54046628553181
 20
78.340461826868292
 30
0.0000051719047328
 70
     8
  0
VERTEX
  5
1B4
  8
0
 10
214.24046628553171
 20
90.205097911061898
 30
0.0000051719047328
 70
    16
  0
VERTEX
  5
1B5
  8
0
 10
213.54046628553181
 20
78.340461826868292
 30
0.0000051719047328
 70
    16
  0
SEQEND
  5
1B6
  8
0
  0
POLYLINE
  5
1B7
  8
0
 66
     1
 10
0.0
 20
0.0
 30
0.0000051719047328
 70
     4
 75
     6
  0
VERTEX
  5
1B8
  8
0
 10
204.54046628553181
 20
102.0697339952555
 30
0.0000051719047328
 70
    16
  0
VERTEX
  5
1B9
  8
0
 10
204.54046628553181
 20
102.0697339952555
 30
0.0000051719047328
 70
     8
  0
VERTEX
  5
1BA
  8
0
 10
204.31077878553171
 20
98.130304045425646
 30
0.0000051719047328
 70
     8
  0
VERTEX
  5
1BB
  8
0
 10
204.1467162855318
 20
95.025106320265579
 30
0.0000051719047328
 70
     8
  0
VERTEX
  5
1BC
  8
0
 10
204.04827878553169
 20
92.476063411552104
 30
0.0000051719047328
 70
     8
  0
VERTEX
  5
1BD
  8
0
 10
204.01546628553169
 20
90.205097911061898
 30
0.0000051719047328
 70
     8
  0
VERTEX
  5
1BE
  8
0
 10
204.04827878553169
 20
87.934132410571735
 30
0.0000051719047328
 70
     8
  0
VERTEX
  5
1BF
  8
0
 10
204.1467162855318
 20
85.385089501858275
 30
0.0000051719047328
 70
     8
  0
VERTEX
  5
1C0
  8
0
 10
204.31077878553171
 20
82.279891776698207
 30
0.0000051719047328
 70
     8
  0
VERTEX
  5
1C1
  8
0
 10
204.54046628553181
 20
78.340461826868292
 30
0.0000051719047328
 70
     8
  0
VERTEX
  5
1C2
  8
0
 10
203.84046628553179
 20
90.205097911061898
 30
0.0000051719047328
 70
    16
  0
VERTEX
  5
1C3
  8
0
 10
204.54046628553181
 20
78.340461826868292
 30
0.0000051719047328
 70
    16
  0
SEQEND
  5
1C4
  8
0
  0
LINE
  5
1C5
  8
0
 10
199.04046628553169
 20
68.728639820601757
 30
0.0000051719047356
 11
219.04046628553181
 21
68.728639820601757
 31
0.0000051719047356
  0
ARC
  5
1C6
  8
0
 10
206.54046628553169
 20
78.340461826868292
 30
0.0000051719047328
 40
2.0
 50
180.0
 51
270.0
  0
ARC
  5
1C7
  8
0
 10
211.54046628553181
 20
78.340461826868292
 30
0.0000051719047328
 40
2.0
 50
270.0
 51
0.000000000000007
  0
LINE
  5
1C8
  8
0
 10
209.04046628553181
 20
76.340461826868292
 30
0.0000051719047328
 11
211.54046628553181
 21
76.340461826868292
 31
0.0000051719047328
  0
LINE
  5
1C9
  8
0
 10
209.04046628553181
 20
76.340461826868292
 30
0.0000051719047328
 11
206.54046628553169
 21
76.340461826868292
 31
0.0000051719047328
  0
ARC
  5
1CB
  8
0
 10
206.54046628553169
 20
102.0692339952555
 30
0.0000051719047328
 40
2.0
 50
90.000000000000071
 51
180.0
  0
ARC
  5
1CC
  8
0
 10
211.54046628553181
 20
102.0692339952555
 30
0.0000051719047328
 40
2.0
 50
0.000000000000007
 51
89.999999999999915
  0
LINE
  5
1CD
  8
0
 10
213.6189259988665
 20
100.56492982060171
 30
0.0000003698731391
 11
217.04046628553181
 21
100.56492982060171
 31
0.0
  0
ARC
  5
1CE
  8
0
 10
217.04046628553181
 20
98.564929820601776
 30
0.0
 40
2.0
 50
0.000000000000007
 51
90.0
  0
LINE
  5
1D5
  8
0
 10
211.54046628553181
 20
104.0692339952555
 30
0.0000051719047328
 11
206.54046628553169
 21
104.0692339952555
 31
0.0000051719047328
  0
LINE
  5
1D6
  8
0
 10
201.04046628553181
 20
100.56492982060171
 30
0.0000013644577724
 11
204.462006572197
 21
100.56492982060171
 31
0.0000009945846333
  0
ARC
  5
1D7
  8
0
 10
201.04046628553181
 20
98.564929820601776
 30
0.0
 40
2.0
 50
90.0
 51
180.0
  0
ARC
  5
1DB
  8
0
 10
209.0404662855338
 20
95.421147378729415
 30
0.0000051719047361
 40
9.306992441872417
 50
33.551021787564608
 51
146.44897821243541
  0
LINE
  5
1E0
  8
1
 10
72.414921940318862
 20
109.7281398206018
 30
0.0000051719047324
 11
72.414921940318862
 21
63.728639820601757
 31
0.0000051719047353
  0
LINE
  5
1E1
  8
0
 10
82.414921940318862
 20
98.564929820601776
 30
-0.0000000000000003
 11
82.414921940318862
 21
68.728639820601757
 31
-0.0000000000000003
  0
LINE
  5
1E2
  8
0
 10
62.414921940318827
 20
98.564929820601776
 30
-0.0000000000000003
 11
62.414921940318862
 21
68.728639820601757
 31
-0.0000000000000003
  0
LINE
  5
1FF
  8
0
 10
62.414921940318862
 20
68.728639820601757
 30
0.0000051719047353
 11
82.414921940318862
 21
68.728639820601757
 31
0.0000051719047353
  0
ARC
  5
204
  8
0
 10
80.414921940318877
 20
98.564929820601776
 30
-0.0000000000000003
 40
2.0
 50
0.000000000000007
 51
90.0
  0
ARC
  5
205
  8
0
 10
72.414921940320895
 20
95.421147378729415
 30
0.0000051719047358
 40
9.306992441872417
 50
33.551021787564608
 51
146.44897821243541
  0
ARC
  5
207
  8
0
 10
64.414921940318862
 20
98.564929820601776
 30
-0.0000000000000003
 40
2.0
 50
90.0
 51
180.0
  0
LINE
  5
20A
  8
0
 10
64.414921940318862
 20
100.56492982060171
 30
0.0000017296216701
 11
80.414921940318877
 21
100.56492982060171
 31
-0.0000000000000003
  0
LINE
  5
20D
  8
1
 10
133.22769411292529
 20
164.0162590074487
 30
0.0
 11
133.22769411292529
 21
134.0162590074487
 31
0.0
  0
LINE
  5
20E
  8
1
 10
173.2273290073737
 20
149.0162590074487
 30
0.0
 11
118.22769411292531
 21
149.0162590074487
 31
0.0
  0
LINE
  5
2B3
  8
2
 10
138.19149521277669
 20
68.728639820601771
 30
0.0000051719047356
 11
138.19149521277669
 21
88.72913982060183
 31
0.0000051719047356
  0
LINE
  5
2B4
  8
2
 10
137.27134271277669
 20
69.648792320601771
 30
0.0000051719047356
 11
137.27134271277669
 21
87.808987320601787
 31
0.0000051719047356
  0
LINE
  5
2B5
  8
2
 10
139.69149521277669
 20
88.72913982060183
 30
0.0000051719047356
 11
126.6914952127766
 21
88.729139820601816
 31
0.0000051719047356
  0
LINE
  5
2B6
  8
2
 10
125.6914952127766
 20
95.728639820601757
 30
0.0000051719047356
 11
140.69149521277669
 21
95.728639820601771
 31
0.0000051719047356
  0
LINE
  5
2B7
  8
2
 10
137.27134271277669
 20
87.808987320601801
 30
0.0000051719047356
 11
129.11164771277669
 21
87.808987320601801
 31
0.0000051719047356
  0
LINE
  5
2B8
  8
2
 10
140.69149521277669
 20
100.93255549927269
 30
0.0000051719047342
 11
140.69149521277669
 21
95.728639820601771
 31
0.0000051719047356
  0
LINE
  5
2B9
  8
2
 10
139.69149521277669
 20
95.728639820601771
 30
0.0000051719047336
 11
139.6914952127766
 21
68.728639820601771
 31
0.0000051719047412
  0
LINE
  5
2BA
  8
2
 10
138.19149521277669
 20
88.72913982060183
 30
0.0000051719047356
 11
137.27134271277669
 21
87.808987320601801
 31
0.0000051719047356
  0
LINE
  5
2BB
  8
2
 10
128.19149521277669
 20
68.728639820601771
 30
0.0000051719047356
 11
128.19149521277669
 21
88.729139820601816
 31
0.0000051719047356
  0
LINE
  5
2BC
  8
2
 10
129.11164771277669
 20
69.648792320601771
 30
0.0000051719047356
 11
129.1116477127766
 21
87.808987320601787
 31
0.0000051719047356
  0
LINE
  5
2BE
  8
2
 10
125.6914952127766
 20
100.93255549927269
 30
0.0000051719047342
 11
125.6914952127766
 21
95.728639820601771
 31
0.0000051719047356
  0
LINE
  5
2BF
  8
2
 10
126.6914952127767
 20
95.728639820601771
 30
0.0000051719047336
 11
126.6914952127766
 21
68.728639820601771
 31
0.0000051719047412
  0
LINE
  5
2C0
  8
2
 10
129.11164771277669
 20
87.808987320601801
 30
0.0000051719047356
 11
128.19149521277669
 21
88.72913982060183
 31
0.0000051719047356
  0
LINE
  5
2C1
  8
2
 10
137.27134271277669
 20
69.648792320601771
 30
0.0000051719047356
 11
129.11164771277669
 21
69.648792320601771
 31
0.0000051719047356
  0
LINE
  5
2C2
  8
2
 10
129.11164771277669
 20
69.648792320601771
 30
0.0000051719047356
 11
128.19149521277669
 21
68.728639820601771
 31
0.0000051719047356
  0
LINE
  5
2C4
  8
2
 10
138.19149521277669
 20
68.728639820601771
 30
0.0000051719047356
 11
137.27134271277669
 21
69.648792320601771
 31
0.0000051719047356
  0
TEXT
  5
36D
  8
0
 62
     3
 10
0.0
 20
0.0
 30
0.0
 40
10.0
  1
ESWN70A
  7
STANDARD1
  0
ENDSEC
  0
EOF
