  0
SECTION
  2
HEADER
  9
$ACADVER
  1
AC1009
  9
$INSBASE
 10
0.0
 20
0.0
 30
0.0
  9
$EXTMIN
 10
0.0
 20
-2.960436562073669
 30
0.0
  9
$EXTMAX
 10
222.0343417040888
 20
147.23799531866661
 30
0.0
  9
$LIMMIN
 10
0.0
 20
0.0
  9
$LIMMAX
 10
275.0
 20
175.0
  9
$ORTHOMODE
 70
     0
  9
$REGENMODE
 70
     1
  9
$FILLMODE
 70
     1
  9
$QTEXTMODE
 70
     0
  9
$MIRRTEXT
 70
     0
  9
$DRAGMODE
 70
     2
  9
$LTSCALE
 40
10.0
  9
$OSMODE
 70
  3071
  9
$ATTMODE
 70
     1
  9
$TEXTSIZE
 40
0.2
  9
$TRACEWID
 40
0.05
  9
$TEXTSTYLE
  7
STANDARD
  9
$CLAYER
  8
0
  9
$CELTYPE
  6
BYLAYER
  9
$CECOLOR
 62
   256
  9
$DIMSCALE
 40
1.0
  9
$DIMASZ
 40
3.0
  9
$DIMEXO
 40
1.0
  9
$DIMDLI
 40
6.0
  9
$DIMRND
 40
0.0
  9
$DIMDLE
 40
0.0
  9
$DIMEXE
 40
1.0
  9
$DIMTP
 40
495.0
  9
$DIMTM
 40
0.0
  9
$DIMTXT
 40
3.0
  9
$DIMCEN
 40
0.0
  9
$DIMTSZ
 40
0.0
  9
$DIMTOL
 70
     0
  9
$DIMLIM
 70
     0
  9
$DIMTIH
 70
     0
  9
$DIMTOH
 70
     0
  9
$DIMSE1
 70
     0
  9
$DIMSE2
 70
     0
  9
$DIMTAD
 70
     1
  9
$DIMZIN
 70
     0
  9
$DIMBLK
  1

  9
$DIMASO
 70
     0
  9
$DIMSHO
 70
     0
  9
$DIMPOST
  1

  9
$DIMAPOST
  1

  9
$DIMALT
 70
     0
  9
$DIMALTD
 70
     2
  9
$DIMALTF
 40
25.399999999999999
  9
$DIMLFAC
 40
1.0
  9
$DIMTOFL
 70
     1
  9
$DIMTVP
 40
0.0
  9
$DIMTIX
 70
     1
  9
$DIMSOXD
 70
     0
  9
$DIMSAH
 70
     0
  9
$DIMBLK1
  1

  9
$DIMBLK2
  1

  9
$DIMSTYLE
  2
STANDARD
  9
$DIMCLRD
 70
     0
  9
$DIMCLRE
 70
     0
  9
$DIMCLRT
 70
     4
  9
$DIMTFAC
 40
1.0
  9
$DIMGAP
 40
1.0
  9
$LUNITS
 70
     2
  9
$LUPREC
 70
     4
  9
$SKETCHINC
 40
0.1
  9
$FILLETRAD
 40
0.0
  9
$AUNITS
 70
     0
  9
$AUPREC
 70
     0
  9
$MENU
  1
E:\r13\win\SUPPORT\ACAD
  9
$ELEVATION
 40
0.0
  9
$PELEVATION
 40
0.0
  9
$THICKNESS
 40
0.0
  9
$LIMCHECK
 70
     0
  9
$BLIPMODE
 70
     0
  9
$CHAMFERA
 40
0.0
  9
$CHAMFERB
 40
0.0
  9
$SKPOLY
 70
     0
  9
$TDCREATE
 40
2450653.5278402781
  9
$TDUPDATE
 40
2456598.6876951619
  9
$TDINDWG
 40
0.0501749306
  9
$TDUSRTIMER
 40
0.0501749306
  9
$USRTIMER
 70
     1
  9
$ANGBASE
 50
0.0
  9
$ANGDIR
 70
     0
  9
$PDMODE
 70
     0
  9
$PDSIZE
 40
0.0
  9
$PLINEWID
 40
0.0
  9
$COORDS
 70
     1
  9
$SPLFRAME
 70
     0
  9
$SPLINETYPE
 70
     6
  9
$SPLINESEGS
 70
     8
  9
$ATTDIA
 70
     0
  9
$ATTREQ
 70
     1
  9
$HANDLING
 70
     1
  9
$HANDSEED
  5
599
  9
$SURFTAB1
 70
     6
  9
$SURFTAB2
 70
     6
  9
$SURFTYPE
 70
     6
  9
$SURFU
 70
     6
  9
$SURFV
 70
     6
  9
$UCSNAME
  2

  9
$UCSORG
 10
0.0
 20
0.0
 30
0.0
  9
$UCSXDIR
 10
1.0
 20
0.0
 30
0.0
  9
$UCSYDIR
 10
0.0
 20
1.0
 30
0.0
  9
$PUCSNAME
  2

  9
$PUCSORG
 10
0.0
 20
0.0
 30
0.0
  9
$PUCSXDIR
 10
1.0
 20
0.0
 30
0.0
  9
$PUCSYDIR
 10
0.0
 20
1.0
 30
0.0
  9
$USERI1
 70
     4
  9
$USERI2
 70
     1
  9
$USERI3
 70
     1
  9
$USERI4
 70
     0
  9
$USERI5
 70
     0
  9
$USERR1
 40
1.0
  9
$USERR2
 40
3.0
  9
$USERR3
 40
3.0
  9
$USERR4
 40
3.0
  9
$USERR5
 40
10.0
  9
$WORLDVIEW
 70
     1
  9
$SHADEDGE
 70
     3
  9
$SHADEDIF
 70
    70
  9
$TILEMODE
 70
     1
  9
$MAXACTVP
 70
    16
  9
$PLIMCHECK
 70
     0
  9
$PEXTMIN
 10
1.0000000000000000E+020
 20
1.0000000000000000E+020
 30
1.0000000000000000E+020
  9
$PEXTMAX
 10
-1.0000000000000000E+020
 20
-1.0000000000000000E+020
 30
-1.0000000000000000E+020
  9
$PLIMMIN
 10
0.0
 20
0.0
  9
$PLIMMAX
 10
12.0
 20
9.0
  9
$UNITMODE
 70
     0
  9
$VISRETAIN
 70
     0
  9
$PLINEGEN
 70
     0
  9
$PSLTSCALE
 70
     0
  0
ENDSEC
  0
SECTION
  2
TABLES
  0
TABLE
  2
VPORT
 70
     1
  0
VPORT
  2
*ACTIVE
 70
     0
 10
0.0
 20
0.0
 11
1.0
 21
1.0
 12
137.495804153145
 22
109.7426039075407
 13
0.0
 23
0.0
 14
5.0
 24
5.0
 15
10.0
 25
10.0
 16
0.0
 26
0.0
 36
1.0
 17
0.0
 27
0.0
 37
0.0
 40
227.46955253719619
 41
1.831871345029239
 42
50.0
 43
0.0
 44
0.0
 50
0.0
 51
0.0
 71
     0
 72
   100
 73
     1
 74
     0
 75
     0
 76
     0
 77
     0
 78
     0
  0
ENDTAB
  0
TABLE
  2
LTYPE
 70
     4
  0
LTYPE
  2
CONTINUOUS
 70
     0
  3
Solid Line
 72
    65
 73
     0
 40
0.0
  0
LTYPE
  2
CENTER
 70
     0
  3
____ _ ____ _ ____ _ ____ _ ____ _ ____ _ ____
 72
    65
 73
     4
 40
2.0
 49
1.25
 49
-0.25
 49
0.25
 49
-0.25
  0
LTYPE
  2
HIDDEN
 70
     0
  3
_ _ _ _ _ _ _ _ _ _ _ _ _ _ _ _ _ _ _ _ _ _ _
 72
    65
 73
     2
 40
0.375
 49
0.25
 49
-0.125
  0
LTYPE
  2
PHANTOM2
 70
     0
  3
___ _ _ ___ _ _ ___ _ _ ___ _ _
 72
    65
 73
     6
 40
1.25
 49
0.625
 49
-0.125
 49
0.125
 49
-0.125
 49
0.125
 49
-0.125
  0
ENDTAB
  0
TABLE
  2
LAYER
 70
     3
  0
LAYER
  2
0
 70
     0
 62
     7
  6
CONTINUOUS
  0
LAYER
  2
1
 70
     0
 62
     1
  6
CENTER
  0
LAYER
  2
2
 70
     0
 62
     2
  6
HIDDEN
  0
ENDTAB
  0
TABLE
  2
STYLE
 70
     3
  0
STYLE
  2
STANDARD
 70
     0
 40
0.0
 41
1.0
 50
0.0
 71
     0
 42
0.2
  3
simplex
  4
bigfont
  0
STYLE
  2
06000
 70
     0
 40
0.0
 41
0.6
 50
0.0
 71
     0
 42
3.0
  3
romans
  4
extfont
  0
STYLE
  2
STANDARD1
 70
     0
 40
0.0
 41
1.0
 50
0.0
 71
     0
 42
3.0
  3
txt
  4

  0
ENDTAB
  0
TABLE
  2
VIEW
 70
     0
  0
ENDTAB
  0
TABLE
  2
UCS
 70
     0
  0
ENDTAB
  0
TABLE
  2
APPID
 70
     3
  0
APPID
  2
ACAD
 70
     0
  0
APPID
  2
ACAD_MLEADERVER
 70
     0
  0
APPID
  2
ACAD_NAV_VCDISPLAY
 70
     0
  0
ENDTAB
  0
TABLE
  2
DIMSTYLE
 70
     1
  0
DIMSTYLE
  2
STANDARD
 70
     0
  3

  4

  5

  6

  7

 40
1.0
 41
0.18
 42
0.0625
 43
0.38
 44
0.18
 45
0.0
 46
0.0
 47
0.0
 48
0.0
140
0.18
141
0.09
142
0.0
143
25.399999999999999
144
1.0
145
0.0
146
1.0
147
0.09
 71
     0
 72
     0
 73
     1
 74
     1
 75
     0
 76
     0
 77
     0
 78
     0
170
     0
171
     2
172
     0
173
     0
174
     0
175
     0
176
     0
177
     0
178
     0
  0
ENDTAB
  0
ENDSEC
  0
SECTION
  2
BLOCKS
  0
BLOCK
  8
0
  2
$MODEL_SPACE
 70
     0
 10
0.0
 20
0.0
 30
0.0
  3
$MODEL_SPACE
  1

  0
ENDBLK
  5
7
  8
0
  0
BLOCK
 67
     1
  8
0
  2
$PAPER_SPACE
 70
     0
 10
0.0
 20
0.0
 30
0.0
  3
$PAPER_SPACE
  1

  0
ENDBLK
  5
A
 67
     1
  8
0
  0
ENDSEC
  0
SECTION
  2
ENTITIES
  0
LINE
  5
413
  8
1
 10
83.675398643082175
 20
147.23799531866661
 30
0.0
 11
83.675398643082175
 21
77.237995318666606
 31
0.0
  0
CIRCLE
  5
414
  8
0
 10
83.675398643082175
 20
112.23799531866661
 30
0.0
 40
30.0
  0
LINE
  5
415
  8
1
 10
118.6753986430822
 20
112.23799531866661
 30
0.0
 11
48.67539864308219
 21
112.23799531866661
 31
0.0
  0
LINE
  5
416
  8
2
 10
81.175398643082175
 20
82.342343460913099
 30
0.0
 11
81.175398643082175
 21
105.1669275068011
 31
0.0
  0
LINE
  5
417
  8
2
 10
81.608398643082182
 20
82.309288179867565
 30
0.0
 11
81.608398643082182
 21
105.02845226795939
 31
0.0
  0
LINE
  5
418
  8
2
 10
85.742398643082225
 20
82.309288179867565
 30
0.0
 11
85.742398643082225
 21
105.02845226795939
 31
0.0
  0
LINE
  5
419
  8
2
 10
86.175398643082175
 20
82.342343460913099
 30
0.0
 11
86.175398643082175
 21
105.1669275068011
 31
0.0
  0
CIRCLE
  5
41A
  8
0
 10
83.675398643082175
 20
112.23799531866661
 30
0.0
 40
7.5
  0
LINE
  5
41B
  8
0
 10
214.35999713586489
 20
142.23799531866661
 30
0.0
 11
214.35999713586489
 21
82.237995318666606
 31
0.0
  0
LINE
  5
41C
  8
0
 10
194.35999713586489
 20
141.73799531866661
 30
0.0
 11
194.35999713586509
 21
82.737995318666322
 31
0.0
  0
LINE
  5
41D
  8
0
 10
194.85999713586489
 20
142.23799531866661
 30
0.0
 11
194.85999713586489
 21
82.237995318666606
 31
0.0
  0
LINE
  5
41F
  8
2
 10
196.85999713586489
 20
82.604995318666496
 30
0.0
 11
196.85999713586489
 21
104.73799531866661
 31
0.0
  0
LINE
  5
420
  8
2
 10
197.29299713586491
 20
83.037995318666546
 30
0.0
 11
197.29299713586491
 21
104.73799531866661
 31
0.0
  0
LINE
  5
421
  8
2
 10
201.42699713586501
 20
83.037995318666546
 30
0.0
 11
201.42699713586501
 21
104.73799531866661
 31
0.0
  0
LINE
  5
422
  8
2
 10
201.85999713586489
 20
82.604995318666496
 30
0.0
 11
201.85999713586489
 21
104.73799531866651
 31
0.0
  0
LINE
  5
423
  8
1
 10
199.359997135865
 20
115.23799531866661
 30
0.0
 11
199.359997135865
 21
79.237995318666592
 31
0.0
  0
LINE
  5
424
  8
0
 10
209.35999713586489
 20
83.706299829812025
 30
0.0
 11
214.35999713586489
 21
83.706299829812025
 31
0.0
  0
LINE
  5
425
  8
0
 10
194.85999713586489
 20
82.237995318666606
 30
0.0
 11
214.35999713586489
 21
82.237995318666606
 31
0.0
  0
LINE
  5
426
  8
0
 10
194.35999713586489
 20
82.737995318666606
 30
0.0
 11
194.85999713586489
 21
82.237995318666606
 31
0.0
  0
LINE
  5
427
  8
0
 10
194.85999713586489
 20
82.237995318666549
 30
0.0
 11
194.35999713586489
 21
82.737995318666549
 31
0.0
  0
LINE
  5
428
  8
2
 10
197.29299713586491
 20
83.037995318666546
 30
0.0
 11
201.42699713586501
 21
83.037995318666546
 31
0.0
  0
LINE
  5
429
  8
2
 10
197.29299713586491
 20
83.037995318666546
 30
0.0
 11
196.49299713586501
 21
82.237995318666535
 31
0.0
  0
LINE
  5
42A
  8
2
 10
201.42699713586501
 20
83.037995318666546
 30
0.0
 11
202.22699713586491
 21
82.237995318666535
 31
0.0
  0
TEXT
  5
42B
  8
0
 10
203.85999713586489
 20
84.434871258383424
 30
0.0
 40
3.0
  1
1
 50
270.0
 41
0.6
  7
06000
 72
     4
 11
205.35999713586489
 21
83.706299829812011
 31
0.0
  0
LINE
  5
42C
  8
0
 10
211.85999713586489
 20
82.769377796805941
 30
0.0
 11
214.35999713586489
 21
82.769377796805941
 31
0.0
  0
LINE
  5
42D
  8
0
 10
211.85999713586489
 20
85.093183744686087
 30
0.0
 11
214.35999713586489
 21
85.093183744686087
 31
0.0
  0
LINE
  5
42E
  8
1
 10
189.359997135865
 20
112.23799531866661
 30
0.0
 11
219.35999713586489
 21
112.23799531866651
 31
0.0
  0
LINE
  5
42F
  8
2
 10
194.859997135865
 20
104.73799531866661
 30
0.0
 11
213.859997135865
 21
104.73799531866651
 31
0.0
  0
LINE
  5
430
  8
2
 10
194.859997135865
 20
119.73799531866661
 30
0.0
 11
213.859997135865
 21
119.73799531866651
 31
0.0
  0
LINE
  5
431
  8
0
 10
209.35999713586489
 20
94.604437749892526
 30
0.0
 11
214.35999713586489
 21
94.604437749892526
 31
0.0
  0
LINE
  5
432
  8
0
 10
209.35999713586489
 20
112.23799531866661
 30
0.0
 11
214.35999713586489
 21
112.23799531866661
 31
0.0
  0
LINE
  5
433
  8
2
 10
194.859997135865
 20
119.73799531866661
 30
0.0
 11
194.859997135865
 21
104.73799531866651
 31
0.0
  0
LINE
  5
434
  8
2
 10
194.859997135865
 20
104.73799531866661
 30
0.0
 11
194.359997135865
 21
104.23799531866661
 31
0.0
  0
LINE
  5
435
  8
1
 10
187.9061606475847
 20
112.23799531866661
 30
0.0
 11
201.77725319631671
 21
112.23799531866661
 31
0.0
  0
LINE
  5
436
  8
2
 10
194.359997135865
 20
120.23799531866661
 30
0.0
 11
194.859997135865
 21
119.73799531866661
 31
0.0
  0
TEXT
  5
437
  8
0
 10
203.85999713586489
 20
113.23799531866661
 30
0.0
 40
3.0
  1
0
 50
270.0
 72
     4
 11
205.35999713586489
 21
112.23799531866661
 31
0.0
  0
LINE
  5
438
  8
2
 10
213.859997135865
 20
119.73799531866651
 30
0.0
 11
213.859997135865
 21
104.73799531866651
 31
0.0
  0
LINE
  5
439
  8
0
 10
211.85999713586489
 20
86.908157553606202
 30
0.0
 11
214.35999713586489
 21
86.908157553606202
 31
0.0
  0
LINE
  5
43A
  8
0
 10
211.85999713586489
 20
89.122598035392997
 30
0.0
 11
214.35999713586489
 21
89.122598035392997
 31
0.0
  0
LINE
  5
43B
  8
0
 10
211.85999713586489
 20
91.701582140806011
 30
0.0
 11
214.35999713586489
 21
91.701582140806025
 31
0.0
  0
LINE
  5
43C
  8
0
 10
211.85999713586489
 20
97.785385095615283
 30
0.0
 11
214.3599971358648
 21
97.785385095615283
 31
0.0
  0
LINE
  5
43D
  8
0
 10
211.85999713586489
 20
101.19425873812639
 30
0.0
 11
214.35999713586489
 21
101.19425873812639
 31
0.0
  0
LINE
  5
43E
  8
2
 10
213.859997135865
 20
104.73799531866651
 30
0.0
 11
214.35999713586489
 21
104.23799531866651
 31
0.0
  0
LINE
  5
43F
  8
0
 10
211.85999713586489
 20
104.7772987037211
 30
0.0
 11
214.35999713586489
 21
104.7772987037211
 31
0.0
  0
LINE
  5
440
  8
1
 10
215.5026073587789
 20
112.23799531866661
 30
0.0
 11
222.0343417040888
 21
112.23799531866661
 31
0.0
  0
LINE
  5
441
  8
0
 10
211.85999713586489
 20
108.47799831173759
 30
0.0
 11
214.35999713586489
 21
108.47799831173759
 31
0.0
  0
LINE
  5
442
  8
0
 10
211.85999713586489
 20
115.9979923255957
 30
0.0
 11
214.35999713586489
 21
115.9979923255957
 31
0.0
  0
LINE
  5
443
  8
2
 10
213.859997135865
 20
119.73799531866651
 30
0.0
 11
214.35999713586489
 21
120.23799531866651
 31
0.0
  0
LINE
  5
444
  8
0
 10
211.85999713586489
 20
119.6986919336122
 30
0.0
 11
214.3599971358648
 21
119.6986919336122
 31
0.0
  0
LINE
  5
445
  8
0
 10
211.85999713586489
 20
126.690605541718
 30
0.0
 11
214.35999713586489
 21
126.690605541718
 31
0.0
  0
LINE
  5
446
  8
0
 10
211.85999713586489
 20
123.2817318992069
 30
0.0
 11
214.35999713586489
 21
123.2817318992069
 31
0.0
  0
LINE
  5
447
  8
0
 10
209.3599971358648
 20
140.76969080752119
 30
0.0
 11
214.35999713586489
 21
140.76969080752119
 31
0.0
  0
LINE
  5
448
  8
0
 10
209.3599971358648
 20
129.87155288744071
 30
0.0
 11
214.35999713586489
 21
129.87155288744071
 31
0.0
  0
LINE
  5
449
  8
0
 10
194.85999713586489
 20
142.23799531866661
 30
0.0
 11
214.359997135865
 21
142.23799531866661
 31
0.0
  0
LINE
  5
44A
  8
0
 10
194.85999713586489
 20
142.23799531866661
 30
0.0
 11
194.35999713586489
 21
141.73799531866661
 31
0.0
  0
TEXT
  5
44B
  8
0
 10
203.85999713586489
 20
141.66969080752119
 30
0.0
 40
3.0
  1
4
 50
270.0
 41
0.6
  7
06000
 72
     4
 11
205.35999713586489
 21
140.76969080752119
 31
0.0
  0
LINE
  5
44C
  8
0
 10
211.85999713586489
 20
132.7744084965272
 30
0.0
 11
214.35999713586489
 21
132.7744084965272
 31
0.0
  0
LINE
  5
44D
  8
0
 10
211.859997135865
 20
137.56783308372709
 30
0.0
 11
214.35999713586489
 21
137.56783308372709
 31
0.0
  0
LINE
  5
44E
  8
0
 10
211.85999713586489
 20
135.3533926019403
 30
0.0
 11
214.3599971358648
 21
135.3533926019403
 31
0.0
  0
LINE
  5
44F
  8
0
 10
211.85999713586489
 20
141.70661284052721
 30
0.0
 11
214.35999713586489
 21
141.70661284052721
 31
0.0
  0
LINE
  5
450
  8
0
 10
211.85999713586489
 20
139.38280689264721
 30
0.0
 11
214.35999713586489
 21
139.38280689264721
 31
0.0
  0
TEXT
  5
503
  8
0
 62
     3
 10
0.0
 20
0.0
 30
0.0
 40
10.0
  1
ESR1R60
  7
STANDARD1
  0
ENDSEC
  0
EOF
