  0
SECTION
  2
HEADER
  9
$ACADVER
  1
AC1009
  9
$INSBASE
 10
0.0
 20
0.0
 30
0.0
  9
$EXTMIN
 10
0.0
 20
-2.960436562073669
 30
0.0
  9
$EXTMAX
 10
156.11649842807651
 20
99.142323188435853
 30
0.0
  9
$LIMMIN
 10
0.0
 20
0.0
  9
$LIMMAX
 10
275.0
 20
175.0
  9
$ORTHOMODE
 70
     1
  9
$REGENMODE
 70
     1
  9
$FILLMODE
 70
     1
  9
$QTEXTMODE
 70
     0
  9
$MIRRTEXT
 70
     0
  9
$DRAGMODE
 70
     2
  9
$LTSCALE
 40
10.0
  9
$OSMODE
 70
  3071
  9
$ATTMODE
 70
     1
  9
$TEXTSIZE
 40
0.2
  9
$TRACEWID
 40
0.05
  9
$TEXTSTYLE
  7
STANDARD
  9
$CLAYER
  8
0
  9
$CELTYPE
  6
BYLAYER
  9
$CECOLOR
 62
   256
  9
$DIMSCALE
 40
1.0
  9
$DIMASZ
 40
3.0
  9
$DIMEXO
 40
1.0
  9
$DIMDLI
 40
6.0
  9
$DIMRND
 40
0.0
  9
$DIMDLE
 40
0.0
  9
$DIMEXE
 40
1.0
  9
$DIMTP
 40
495.0
  9
$DIMTM
 40
0.0
  9
$DIMTXT
 40
3.0
  9
$DIMCEN
 40
0.0
  9
$DIMTSZ
 40
0.0
  9
$DIMTOL
 70
     0
  9
$DIMLIM
 70
     0
  9
$DIMTIH
 70
     0
  9
$DIMTOH
 70
     0
  9
$DIMSE1
 70
     0
  9
$DIMSE2
 70
     0
  9
$DIMTAD
 70
     1
  9
$DIMZIN
 70
     0
  9
$DIMBLK
  1

  9
$DIMASO
 70
     0
  9
$DIMSHO
 70
     0
  9
$DIMPOST
  1

  9
$DIMAPOST
  1

  9
$DIMALT
 70
     0
  9
$DIMALTD
 70
     2
  9
$DIMALTF
 40
25.399999999999999
  9
$DIMLFAC
 40
1.0
  9
$DIMTOFL
 70
     1
  9
$DIMTVP
 40
0.0
  9
$DIMTIX
 70
     1
  9
$DIMSOXD
 70
     0
  9
$DIMSAH
 70
     0
  9
$DIMBLK1
  1

  9
$DIMBLK2
  1

  9
$DIMSTYLE
  2
STANDARD
  9
$DIMCLRD
 70
     0
  9
$DIMCLRE
 70
     0
  9
$DIMCLRT
 70
     4
  9
$DIMTFAC
 40
1.0
  9
$DIMGAP
 40
1.0
  9
$LUNITS
 70
     2
  9
$LUPREC
 70
     4
  9
$SKETCHINC
 40
0.1
  9
$FILLETRAD
 40
0.0
  9
$AUNITS
 70
     0
  9
$AUPREC
 70
     0
  9
$MENU
  1
E:\r13\win\SUPPORT\ACAD
  9
$ELEVATION
 40
0.0
  9
$PELEVATION
 40
0.0
  9
$THICKNESS
 40
0.0
  9
$LIMCHECK
 70
     0
  9
$BLIPMODE
 70
     0
  9
$CHAMFERA
 40
0.0
  9
$CHAMFERB
 40
0.0
  9
$SKPOLY
 70
     0
  9
$TDCREATE
 40
2450653.5278402781
  9
$TDUPDATE
 40
2456598.687654919
  9
$TDINDWG
 40
0.0387218519
  9
$TDUSRTIMER
 40
0.0387218519
  9
$USRTIMER
 70
     1
  9
$ANGBASE
 50
0.0
  9
$ANGDIR
 70
     0
  9
$PDMODE
 70
     0
  9
$PDSIZE
 40
0.0
  9
$PLINEWID
 40
0.0
  9
$COORDS
 70
     1
  9
$SPLFRAME
 70
     0
  9
$SPLINETYPE
 70
     6
  9
$SPLINESEGS
 70
     8
  9
$ATTDIA
 70
     0
  9
$ATTREQ
 70
     1
  9
$HANDLING
 70
     1
  9
$HANDSEED
  5
36D
  9
$SURFTAB1
 70
     6
  9
$SURFTAB2
 70
     6
  9
$SURFTYPE
 70
     6
  9
$SURFU
 70
     6
  9
$SURFV
 70
     6
  9
$UCSNAME
  2

  9
$UCSORG
 10
0.0
 20
0.0
 30
0.0
  9
$UCSXDIR
 10
1.0
 20
0.0
 30
0.0
  9
$UCSYDIR
 10
0.0
 20
1.0
 30
0.0
  9
$PUCSNAME
  2

  9
$PUCSORG
 10
0.0
 20
0.0
 30
0.0
  9
$PUCSXDIR
 10
1.0
 20
0.0
 30
0.0
  9
$PUCSYDIR
 10
0.0
 20
1.0
 30
0.0
  9
$USERI1
 70
     4
  9
$USERI2
 70
     1
  9
$USERI3
 70
     1
  9
$USERI4
 70
     0
  9
$USERI5
 70
     0
  9
$USERR1
 40
1.0
  9
$USERR2
 40
3.0
  9
$USERR3
 40
3.0
  9
$USERR4
 40
3.0
  9
$USERR5
 40
10.0
  9
$WORLDVIEW
 70
     1
  9
$SHADEDGE
 70
     3
  9
$SHADEDIF
 70
    70
  9
$TILEMODE
 70
     1
  9
$MAXACTVP
 70
    16
  9
$PLIMCHECK
 70
     0
  9
$PEXTMIN
 10
1.0000000000000000E+020
 20
1.0000000000000000E+020
 30
1.0000000000000000E+020
  9
$PEXTMAX
 10
-1.0000000000000000E+020
 20
-1.0000000000000000E+020
 30
-1.0000000000000000E+020
  9
$PLIMMIN
 10
0.0
 20
0.0
  9
$PLIMMAX
 10
12.0
 20
9.0
  9
$UNITMODE
 70
     0
  9
$VISRETAIN
 70
     0
  9
$PLINEGEN
 70
     0
  9
$PSLTSCALE
 70
     0
  0
ENDSEC
  0
SECTION
  2
TABLES
  0
TABLE
  2
VPORT
 70
     1
  0
VPORT
  2
*ACTIVE
 70
     0
 10
0.0
 20
0.0
 11
1.0
 21
1.0
 12
137.495804153145
 22
109.7426039075407
 13
0.0
 23
0.0
 14
5.0
 24
5.0
 15
10.0
 25
10.0
 16
0.0
 26
0.0
 36
1.0
 17
0.0
 27
0.0
 37
0.0
 40
227.46955253719619
 41
1.831871345029239
 42
50.0
 43
0.0
 44
0.0
 50
0.0
 51
0.0
 71
     0
 72
   100
 73
     1
 74
     0
 75
     0
 76
     0
 77
     0
 78
     0
  0
ENDTAB
  0
TABLE
  2
LTYPE
 70
     4
  0
LTYPE
  2
CONTINUOUS
 70
     0
  3
Solid Line
 72
    65
 73
     0
 40
0.0
  0
LTYPE
  2
CENTER
 70
     0
  3
____ _ ____ _ ____ _ ____ _ ____ _ ____ _ ____
 72
    65
 73
     4
 40
2.0
 49
1.25
 49
-0.25
 49
0.25
 49
-0.25
  0
LTYPE
  2
HIDDEN
 70
     0
  3
_ _ _ _ _ _ _ _ _ _ _ _ _ _ _ _ _ _ _ _ _ _ _
 72
    65
 73
     2
 40
0.375
 49
0.25
 49
-0.125
  0
LTYPE
  2
PHANTOM2
 70
     0
  3
___ _ _ ___ _ _ ___ _ _ ___ _ _
 72
    65
 73
     6
 40
1.25
 49
0.625
 49
-0.125
 49
0.125
 49
-0.125
 49
0.125
 49
-0.125
  0
ENDTAB
  0
TABLE
  2
LAYER
 70
     3
  0
LAYER
  2
0
 70
     0
 62
     7
  6
CONTINUOUS
  0
LAYER
  2
1
 70
     0
 62
     1
  6
CENTER
  0
LAYER
  2
2
 70
     0
 62
     2
  6
HIDDEN
  0
ENDTAB
  0
TABLE
  2
STYLE
 70
     3
  0
STYLE
  2
STANDARD
 70
     0
 40
0.0
 41
1.0
 50
0.0
 71
     0
 42
0.2
  3
simplex
  4
bigfont
  0
STYLE
  2
06000
 70
     0
 40
0.0
 41
0.6
 50
0.0
 71
     0
 42
3.0
  3
romans
  4
extfont
  0
STYLE
  2
STANDARD1
 70
     0
 40
0.0
 41
1.0
 50
0.0
 71
     0
 42
3.0
  3
txt
  4

  0
ENDTAB
  0
TABLE
  2
VIEW
 70
     0
  0
ENDTAB
  0
TABLE
  2
UCS
 70
     0
  0
ENDTAB
  0
TABLE
  2
APPID
 70
     3
  0
APPID
  2
ACAD
 70
     0
  0
APPID
  2
ACAD_MLEADERVER
 70
     0
  0
APPID
  2
ACAD_NAV_VCDISPLAY
 70
     0
  0
ENDTAB
  0
TABLE
  2
DIMSTYLE
 70
     1
  0
DIMSTYLE
  2
STANDARD
 70
     0
  3

  4

  5

  6

  7

 40
1.0
 41
0.18
 42
0.0625
 43
0.38
 44
0.18
 45
0.0
 46
0.0
 47
0.0
 48
0.0
140
0.18
141
0.09
142
0.0
143
25.399999999999999
144
1.0
145
0.0
146
1.0
147
0.09
 71
     0
 72
     0
 73
     1
 74
     1
 75
     0
 76
     0
 77
     0
 78
     0
170
     0
171
     2
172
     0
173
     0
174
     0
175
     0
176
     0
177
     0
178
     0
  0
ENDTAB
  0
ENDSEC
  0
SECTION
  2
BLOCKS
  0
BLOCK
  8
0
  2
$MODEL_SPACE
 70
     0
 10
0.0
 20
0.0
 30
0.0
  3
$MODEL_SPACE
  1

  0
ENDBLK
  5
7
  8
0
  0
BLOCK
 67
     1
  8
0
  2
$PAPER_SPACE
 70
     0
 10
0.0
 20
0.0
 30
0.0
  3
$PAPER_SPACE
  1

  0
ENDBLK
  5
A
 67
     1
  8
0
  0
ENDSEC
  0
SECTION
  2
ENTITIES
  0
LINE
  5
1E7
  8
1
 10
77.670805545589133
 20
76.142323188435853
 30
0.0
 11
31.670805545589129
 21
76.142323188435853
 31
0.0
  0
CIRCLE
  5
1E8
  8
0
 10
54.670805545589133
 20
76.142323188435853
 30
0.0
 40
20.0
  0
LINE
  5
1E9
  8
2
 10
56.670805545589189
 20
56.24257444630345
 30
0.0
 11
56.670805545589133
 21
71.559747493480003
 31
0.0
  0
LINE
  5
1EA
  8
2
 10
56.29180554558917
 20
56.208122452013043
 30
0.0
 11
56.291805545589114
 21
71.412380376942252
 31
0.0
  0
LINE
  5
1EB
  8
2
 10
53.04980554558913
 20
56.208122452013043
 30
0.0
 11
53.049805545589088
 21
71.412380376942266
 31
0.0
  0
LINE
  5
1EC
  8
2
 10
52.670805545589161
 20
56.24257444630345
 30
0.0
 11
52.670805545589097
 21
71.559747493480003
 31
0.0
  0
LINE
  5
1ED
  8
1
 10
54.670805545589133
 20
99.142323188435853
 30
0.0
 11
54.670805545589133
 21
53.142323188435853
 31
0.0
  0
CIRCLE
  5
1EE
  8
0
 10
54.670805545589133
 20
76.142323188435853
 30
0.0
 40
5.0
  0
LINE
  5
1F0
  8
2
 10
136.29819751190371
 20
56.45625294163078
 30
0.0
 11
136.29819751190371
 21
71.142323188435824
 31
0.0
  0
LINE
  5
1F1
  8
2
 10
135.91919751190369
 20
56.83525294163077
 30
0.0
 11
135.91919751190369
 21
71.14232318843581
 31
0.0
  0
LINE
  5
1F2
  8
2
 10
132.6771975119037
 20
56.83525294163077
 30
0.0
 11
132.6771975119037
 21
71.14232318843581
 31
0.0
  0
LINE
  5
1F3
  8
2
 10
132.29819751190371
 20
56.45625294163078
 30
0.0
 11
132.29819751190371
 21
71.14232318843581
 31
0.0
  0
LINE
  5
1F4
  8
1
 10
134.29819751190371
 20
79.142323188435853
 30
0.0
 11
134.29819751190371
 21
53.14232318843586
 31
0.0
  0
LINE
  5
1F5
  8
0
 10
129.7981975119036
 20
96.142323188435853
 30
0.0
 11
129.79819751190391
 21
56.142323188435867
 31
0.0
  0
LINE
  5
1F6
  8
0
 10
129.29819751190391
 20
56.642323188435867
 30
0.0
 11
129.2981975119036
 21
95.642323188435839
 31
0.0
  0
LINE
  5
1F7
  8
0
 10
149.2981975119034
 20
56.142323188435853
 30
0.0
 11
149.2981975119034
 21
96.142323188435853
 31
0.0
  0
LINE
  5
1F8
  8
2
 10
132.6771975119037
 20
56.83525294163077
 30
0.0
 11
135.91919751190369
 21
56.83525294163077
 31
0.0
  0
LINE
  5
1F9
  8
0
 10
129.79819751190391
 20
56.142323188435867
 30
0.0
 11
149.29819751190351
 21
56.142323188435853
 31
0.0
  0
LINE
  5
1FA
  8
0
 10
129.29819751190391
 20
56.642323188435867
 30
0.0
 11
129.79819751190391
 21
56.142323188435867
 31
0.0
  0
LINE
  5
1FB
  8
2
 10
132.6771975119037
 20
56.83525294163077
 30
0.0
 11
131.97719751190371
 21
56.135252941630782
 31
0.0
  0
TEXT
  5
1FC
  8
0
 10
138.7981975119034
 20
57.849764291104229
 30
0.0
 40
3.0
  1
1
 50
270.0
 41
0.6
  7
06000
 72
     4
 11
140.29819751190351
 21
57.121192862532808
 31
0.0
  0
LINE
  5
1FD
  8
2
 10
135.91919751190369
 20
56.83525294163077
 30
0.0
 11
136.61919751190371
 21
56.135252941630782
 31
0.0
  0
LINE
  5
1FE
  8
0
 10
149.2981975119034
 20
56.181788619870417
 30
0.0
 11
146.79819751190351
 21
56.181788619870417
 31
0.0
  0
LINE
  5
1FF
  8
0
 10
149.2981975119034
 20
56.496578173862048
 30
0.0
 11
146.79819751190351
 21
56.496578173862048
 31
0.0
  0
LINE
  5
200
  8
0
 10
149.2981975119034
 20
57.121192862532808
 30
0.0
 11
144.29819751190351
 21
57.121192862532808
 31
0.0
  0
LINE
  5
201
  8
0
 10
149.2981975119034
 20
58.045782139115509
 30
0.0
 11
146.79819751190351
 21
58.045782139115509
 31
0.0
  0
LINE
  5
202
  8
0
 10
149.2981975119034
 20
59.255764678395508
 30
0.0
 11
146.79819751190351
 21
59.255764678395543
 31
0.0
  0
LINE
  5
203
  8
0
 10
149.2981975119034
 20
60.732058332920133
 30
0.0
 11
146.79819751190351
 21
60.732058332920133
 31
0.0
  0
LINE
  5
204
  8
0
 10
149.2981975119034
 20
62.451381069862151
 30
0.0
 11
146.79819751190351
 21
62.451381069862151
 31
0.0
  0
LINE
  5
205
  8
0
 10
149.2981975119034
 20
64.386618142586372
 30
0.0
 11
144.29819751190351
 21
64.386618142586372
 31
0.0
  0
LINE
  5
206
  8
0
 10
149.2981975119034
 20
66.507249706401581
 30
0.0
 11
146.79819751190351
 21
66.507249706401581
 31
0.0
  0
LINE
  5
207
  8
2
 10
129.79819751190379
 20
81.142323188435867
 30
0.0
 11
148.79819751190351
 21
81.14232318843564
 31
0.0
  0
LINE
  5
208
  8
2
 10
129.79819751190379
 20
71.142323188435867
 30
0.0
 11
148.79819751190351
 21
71.142323188435753
 31
0.0
  0
LINE
  5
209
  8
1
 10
136.51215876667521
 20
76.142323188435853
 30
0.0
 11
123.0011277844163
 21
76.142323188435853
 31
0.0
  0
LINE
  5
20A
  8
2
 10
129.29819751190379
 20
81.642323188435853
 30
0.0
 11
129.79819751190379
 21
81.142323188435867
 31
0.0
  0
LINE
  5
20B
  8
2
 10
129.79819751190379
 20
81.142323188435896
 30
0.0
 11
129.79819751190379
 21
71.142323188435867
 31
0.0
  0
LINE
  5
20C
  8
2
 10
129.79819751190379
 20
71.142323188435867
 30
0.0
 11
129.29819751190379
 21
70.642323188435853
 31
0.0
  0
LINE
  5
20D
  8
2
 10
148.79819751190351
 20
81.14232318843564
 30
0.0
 11
149.29819751190351
 21
81.642323188435654
 31
0.0
  0
TEXT
  5
20E
  8
0
 10
138.7981975119034
 20
77.142323188435853
 30
0.0
 40
3.0
  1
0
 50
270.0
 72
     4
 11
140.29819751190351
 21
76.142323188435853
 31
0.0
  0
LINE
  5
20F
  8
2
 10
148.79819751190351
 20
81.14232318843564
 30
0.0
 11
148.79819751190351
 21
71.142323188435753
 31
0.0
  0
LINE
  5
210
  8
0
 10
149.2981975119034
 20
68.779832134742293
 30
0.0
 11
146.79819751190351
 21
68.779832134742293
 31
0.0
  0
LINE
  5
211
  8
0
 10
149.2981975119034
 20
71.168525445138755
 30
0.0
 11
146.7981975119034
 21
71.168525445138755
 31
0.0
  0
LINE
  5
212
  8
0
 10
149.2981975119034
 20
73.63565851714975
 30
0.0
 11
146.79819751190351
 21
73.63565851714975
 31
0.0
  0
LINE
  5
213
  8
2
 10
148.79819751190351
 20
71.142323188435753
 30
0.0
 11
149.2981975119034
 21
70.642323188435753
 31
0.0
  0
LINE
  5
214
  8
0
 10
149.2981975119034
 20
76.142323188435853
 30
0.0
 11
144.29819751190351
 21
76.142323188435853
 31
0.0
  0
LINE
  5
215
  8
0
 10
149.2981975119034
 20
78.648987859721842
 30
0.0
 11
146.79819751190351
 21
78.648987859721871
 31
0.0
  0
LINE
  5
216
  8
0
 10
149.2981975119034
 20
81.116120931732823
 30
0.0
 11
146.79819751190351
 21
81.116120931732866
 31
0.0
  0
LINE
  5
217
  8
0
 10
149.2981975119034
 20
83.504814242129285
 30
0.0
 11
146.79819751190351
 21
83.504814242129285
 31
0.0
  0
LINE
  5
218
  8
0
 10
149.2981975119034
 20
85.777396670470068
 30
0.0
 11
146.7981975119034
 21
85.777396670470026
 31
0.0
  0
LINE
  5
219
  8
0
 10
149.2981975119034
 20
87.898028234285249
 30
0.0
 11
144.2981975119034
 21
87.898028234285249
 31
0.0
  0
LINE
  5
21A
  8
0
 10
149.2981975119034
 20
89.833265307009484
 30
0.0
 11
146.7981975119034
 21
89.833265307009484
 31
0.0
  0
LINE
  5
21B
  8
0
 10
149.29819751190331
 20
91.552588043951573
 30
0.0
 11
146.7981975119034
 21
91.552588043951573
 31
0.0
  0
LINE
  5
21C
  8
0
 10
149.2981975119034
 20
93.028881698476084
 30
0.0
 11
146.79819751190351
 21
93.028881698476084
 31
0.0
  0
LINE
  5
21D
  8
0
 10
129.7981975119036
 20
96.142323188435853
 30
0.0
 11
149.2981975119034
 21
96.142323188435853
 31
0.0
  0
LINE
  5
21E
  8
0
 10
129.7981975119036
 20
96.142323188435853
 30
0.0
 11
129.2981975119036
 21
95.642323188435839
 31
0.0
  0
TEXT
  5
21F
  8
0
 10
138.7981975119034
 20
96.063453514338903
 30
0.0
 40
3.0
  1
4
 50
270.0
 41
0.6
  7
06000
 72
     4
 11
140.29819751190351
 21
95.163453514338883
 31
0.0
  0
LINE
  5
220
  8
0
 10
149.2981975119034
 20
94.238864237756218
 30
0.0
 11
146.79819751190351
 21
94.238864237756218
 31
0.0
  0
LINE
  5
221
  8
0
 10
149.2981975119034
 20
95.16345351433884
 30
0.0
 11
144.2981975119034
 21
95.163453514338869
 31
0.0
  0
LINE
  5
222
  8
0
 10
149.2981975119034
 20
95.78806820300963
 30
0.0
 11
146.7981975119034
 21
95.78806820300963
 31
0.0
  0
LINE
  5
223
  8
0
 10
149.2981975119034
 20
96.102857757001289
 30
0.0
 11
146.7981975119034
 21
96.102857757001289
 31
0.0
  0
LINE
  5
224
  8
1
 10
151.05368002106979
 20
76.142323188435896
 30
0.0
 11
156.11649842807651
 21
76.142323188435896
 31
0.0
  0
TEXT
  5
2D7
  8
0
 62
     3
 10
0.0
 20
0.0
 30
0.0
 40
10.0
  1
ESR1R40
  7
STANDARD1
  0
ENDSEC
  0
EOF
