  0
SECTION
  2
HEADER
  9
$ACADVER
  1
AC1009
  9
$INSBASE
 10
0.0
 20
0.0
 30
0.0
  9
$EXTMIN
 10
0.0
 20
-2.960436562073669
 30
0.0
  9
$EXTMAX
 10
151.11649842807651
 20
94.142323188435853
 30
0.0
  9
$LIMMIN
 10
0.0
 20
0.0
  9
$LIMMAX
 10
275.0
 20
175.0
  9
$ORTHOMODE
 70
     1
  9
$REGENMODE
 70
     1
  9
$FILLMODE
 70
     1
  9
$QTEXTMODE
 70
     0
  9
$MIRRTEXT
 70
     0
  9
$DRAGMODE
 70
     2
  9
$LTSCALE
 40
10.0
  9
$OSMODE
 70
  3071
  9
$ATTMODE
 70
     1
  9
$TEXTSIZE
 40
0.2
  9
$TRACEWID
 40
0.05
  9
$TEXTSTYLE
  7
STANDARD
  9
$CLAYER
  8
0
  9
$CELTYPE
  6
BYLAYER
  9
$CECOLOR
 62
   256
  9
$DIMSCALE
 40
1.0
  9
$DIMASZ
 40
3.0
  9
$DIMEXO
 40
1.0
  9
$DIMDLI
 40
6.0
  9
$DIMRND
 40
0.0
  9
$DIMDLE
 40
0.0
  9
$DIMEXE
 40
1.0
  9
$DIMTP
 40
495.0
  9
$DIMTM
 40
0.0
  9
$DIMTXT
 40
3.0
  9
$DIMCEN
 40
0.0
  9
$DIMTSZ
 40
0.0
  9
$DIMTOL
 70
     0
  9
$DIMLIM
 70
     0
  9
$DIMTIH
 70
     0
  9
$DIMTOH
 70
     0
  9
$DIMSE1
 70
     0
  9
$DIMSE2
 70
     0
  9
$DIMTAD
 70
     1
  9
$DIMZIN
 70
     0
  9
$DIMBLK
  1

  9
$DIMASO
 70
     0
  9
$DIMSHO
 70
     0
  9
$DIMPOST
  1

  9
$DIMAPOST
  1

  9
$DIMALT
 70
     0
  9
$DIMALTD
 70
     2
  9
$DIMALTF
 40
25.399999999999999
  9
$DIMLFAC
 40
1.0
  9
$DIMTOFL
 70
     1
  9
$DIMTVP
 40
0.0
  9
$DIMTIX
 70
     1
  9
$DIMSOXD
 70
     0
  9
$DIMSAH
 70
     0
  9
$DIMBLK1
  1

  9
$DIMBLK2
  1

  9
$DIMSTYLE
  2
STANDARD
  9
$DIMCLRD
 70
     0
  9
$DIMCLRE
 70
     0
  9
$DIMCLRT
 70
     4
  9
$DIMTFAC
 40
1.0
  9
$DIMGAP
 40
1.0
  9
$LUNITS
 70
     2
  9
$LUPREC
 70
     4
  9
$SKETCHINC
 40
0.1
  9
$FILLETRAD
 40
0.0
  9
$AUNITS
 70
     0
  9
$AUPREC
 70
     0
  9
$MENU
  1
E:\r13\win\SUPPORT\ACAD
  9
$ELEVATION
 40
0.0
  9
$PELEVATION
 40
0.0
  9
$THICKNESS
 40
0.0
  9
$LIMCHECK
 70
     0
  9
$BLIPMODE
 70
     0
  9
$CHAMFERA
 40
0.0
  9
$CHAMFERB
 40
0.0
  9
$SKPOLY
 70
     0
  9
$TDCREATE
 40
2450653.5278402781
  9
$TDUPDATE
 40
2456598.6875036578
  9
$TDINDWG
 40
0.0379894329
  9
$TDUSRTIMER
 40
0.0379894329
  9
$USRTIMER
 70
     1
  9
$ANGBASE
 50
0.0
  9
$ANGDIR
 70
     0
  9
$PDMODE
 70
     0
  9
$PDSIZE
 40
0.0
  9
$PLINEWID
 40
0.0
  9
$COORDS
 70
     1
  9
$SPLFRAME
 70
     0
  9
$SPLINETYPE
 70
     6
  9
$SPLINESEGS
 70
     8
  9
$ATTDIA
 70
     0
  9
$ATTREQ
 70
     1
  9
$HANDLING
 70
     1
  9
$HANDSEED
  5
2E9
  9
$SURFTAB1
 70
     6
  9
$SURFTAB2
 70
     6
  9
$SURFTYPE
 70
     6
  9
$SURFU
 70
     6
  9
$SURFV
 70
     6
  9
$UCSNAME
  2

  9
$UCSORG
 10
0.0
 20
0.0
 30
0.0
  9
$UCSXDIR
 10
1.0
 20
0.0
 30
0.0
  9
$UCSYDIR
 10
0.0
 20
1.0
 30
0.0
  9
$PUCSNAME
  2

  9
$PUCSORG
 10
0.0
 20
0.0
 30
0.0
  9
$PUCSXDIR
 10
1.0
 20
0.0
 30
0.0
  9
$PUCSYDIR
 10
0.0
 20
1.0
 30
0.0
  9
$USERI1
 70
     4
  9
$USERI2
 70
     1
  9
$USERI3
 70
     1
  9
$USERI4
 70
     0
  9
$USERI5
 70
     0
  9
$USERR1
 40
1.0
  9
$USERR2
 40
3.0
  9
$USERR3
 40
3.0
  9
$USERR4
 40
3.0
  9
$USERR5
 40
10.0
  9
$WORLDVIEW
 70
     1
  9
$SHADEDGE
 70
     3
  9
$SHADEDIF
 70
    70
  9
$TILEMODE
 70
     1
  9
$MAXACTVP
 70
    16
  9
$PLIMCHECK
 70
     0
  9
$PEXTMIN
 10
1.0000000000000000E+020
 20
1.0000000000000000E+020
 30
1.0000000000000000E+020
  9
$PEXTMAX
 10
-1.0000000000000000E+020
 20
-1.0000000000000000E+020
 30
-1.0000000000000000E+020
  9
$PLIMMIN
 10
0.0
 20
0.0
  9
$PLIMMAX
 10
12.0
 20
9.0
  9
$UNITMODE
 70
     0
  9
$VISRETAIN
 70
     0
  9
$PLINEGEN
 70
     0
  9
$PSLTSCALE
 70
     0
  0
ENDSEC
  0
SECTION
  2
TABLES
  0
TABLE
  2
VPORT
 70
     1
  0
VPORT
  2
*ACTIVE
 70
     0
 10
0.0
 20
0.0
 11
1.0
 21
1.0
 12
137.495804153145
 22
109.7426039075407
 13
0.0
 23
0.0
 14
5.0
 24
5.0
 15
10.0
 25
10.0
 16
0.0
 26
0.0
 36
1.0
 17
0.0
 27
0.0
 37
0.0
 40
227.46955253719619
 41
1.831871345029239
 42
50.0
 43
0.0
 44
0.0
 50
0.0
 51
0.0
 71
     0
 72
   100
 73
     1
 74
     0
 75
     0
 76
     0
 77
     0
 78
     0
  0
ENDTAB
  0
TABLE
  2
LTYPE
 70
     4
  0
LTYPE
  2
CONTINUOUS
 70
     0
  3
Solid Line
 72
    65
 73
     0
 40
0.0
  0
LTYPE
  2
CENTER
 70
     0
  3
____ _ ____ _ ____ _ ____ _ ____ _ ____ _ ____
 72
    65
 73
     4
 40
2.0
 49
1.25
 49
-0.25
 49
0.25
 49
-0.25
  0
LTYPE
  2
HIDDEN
 70
     0
  3
_ _ _ _ _ _ _ _ _ _ _ _ _ _ _ _ _ _ _ _ _ _ _
 72
    65
 73
     2
 40
0.375
 49
0.25
 49
-0.125
  0
LTYPE
  2
PHANTOM2
 70
     0
  3
___ _ _ ___ _ _ ___ _ _ ___ _ _
 72
    65
 73
     6
 40
1.25
 49
0.625
 49
-0.125
 49
0.125
 49
-0.125
 49
0.125
 49
-0.125
  0
ENDTAB
  0
TABLE
  2
LAYER
 70
     3
  0
LAYER
  2
0
 70
     0
 62
     7
  6
CONTINUOUS
  0
LAYER
  2
1
 70
     0
 62
     1
  6
CENTER
  0
LAYER
  2
2
 70
     0
 62
     2
  6
HIDDEN
  0
ENDTAB
  0
TABLE
  2
STYLE
 70
     4
  0
STYLE
  2
STANDARD
 70
     0
 40
0.0
 41
1.0
 50
0.0
 71
     0
 42
0.2
  3
simplex
  4
bigfont
  0
STYLE
  2
07500
 70
     0
 40
0.0
 41
0.75
 50
0.0
 71
     0
 42
3.2000000000000002
  3
ROMANS
  4
EXTFONT
  0
STYLE
  2
05000
 70
     0
 40
0.0
 41
0.5
 50
0.0
 71
     0
 42
4.0
  3
txt.shx
  4

  0
STYLE
  2
STANDARD1
 70
     0
 40
0.0
 41
1.0
 50
0.0
 71
     0
 42
3.0
  3
txt
  4

  0
ENDTAB
  0
TABLE
  2
VIEW
 70
     0
  0
ENDTAB
  0
TABLE
  2
UCS
 70
     0
  0
ENDTAB
  0
TABLE
  2
APPID
 70
     3
  0
APPID
  2
ACAD
 70
     0
  0
APPID
  2
ACAD_MLEADERVER
 70
     0
  0
APPID
  2
ACAD_NAV_VCDISPLAY
 70
     0
  0
ENDTAB
  0
TABLE
  2
DIMSTYLE
 70
     1
  0
DIMSTYLE
  2
STANDARD
 70
     0
  3

  4

  5

  6

  7

 40
1.0
 41
0.18
 42
0.0625
 43
0.38
 44
0.18
 45
0.0
 46
0.0
 47
0.0
 48
0.0
140
0.18
141
0.09
142
0.0
143
25.399999999999999
144
1.0
145
0.0
146
1.0
147
0.09
 71
     0
 72
     0
 73
     1
 74
     1
 75
     0
 76
     0
 77
     0
 78
     0
170
     0
171
     2
172
     0
173
     0
174
     0
175
     0
176
     0
177
     0
178
     0
  0
ENDTAB
  0
ENDSEC
  0
SECTION
  2
BLOCKS
  0
BLOCK
  8
0
  2
$MODEL_SPACE
 70
     0
 10
0.0
 20
0.0
 30
0.0
  3
$MODEL_SPACE
  1

  0
ENDBLK
  5
7
  8
0
  0
BLOCK
 67
     1
  8
0
  2
$PAPER_SPACE
 70
     0
 10
0.0
 20
0.0
 30
0.0
  3
$PAPER_SPACE
  1

  0
ENDBLK
  5
A
 67
     1
  8
0
  0
ENDSEC
  0
SECTION
  2
ENTITIES
  0
LINE
  5
15F
  8
1
 10
77.670805545589133
 20
76.142323188435853
 30
0.0
 11
41.670805545589133
 21
76.142323188435853
 31
0.0
  0
CIRCLE
  5
160
  8
0
 10
59.670805545589133
 20
76.142323188435853
 30
0.0
 40
15.0
  0
LINE
  5
161
  8
2
 10
57.670805545589133
 20
61.276254441117352
 30
0.0
 11
57.670805545589133
 21
72.678221573298103
 31
0.0
  0
LINE
  5
162
  8
2
 10
58.049805545589152
 20
61.230168448090652
 30
0.0
 11
58.04980554558913
 21
72.485499566766364
 31
0.0
  0
LINE
  5
163
  8
2
 10
61.291805545589114
 20
61.230168448090637
 30
0.0
 11
61.291805545589114
 21
72.48549956676635
 31
0.0
  0
LINE
  5
164
  8
2
 10
61.670805545589133
 20
61.276254441117352
 30
0.0
 11
61.670805545589133
 21
72.678221573298089
 31
0.0
  0
LINE
  5
165
  8
1
 10
59.670805545589133
 20
94.142323188435853
 30
0.0
 11
59.670805545589133
 21
58.142323188435853
 31
0.0
  0
CIRCLE
  5
166
  8
0
 10
59.670805545589133
 20
76.142323188435853
 30
0.0
 40
4.0
  0
LINE
  5
168
  8
2
 10
131.29819751190371
 20
61.45625294163078
 30
0.0
 11
131.29819751190371
 21
72.142323188435839
 31
0.0
  0
LINE
  5
169
  8
2
 10
130.91919751190369
 20
61.83525294163077
 30
0.0
 11
130.91919751190369
 21
72.142323188435839
 31
0.0
  0
LINE
  5
16A
  8
2
 10
127.6771975119037
 20
61.83525294163077
 30
0.0
 11
127.6771975119037
 21
72.142323188435867
 31
0.0
  0
LINE
  5
16B
  8
2
 10
127.29819751190369
 20
61.45625294163078
 30
0.0
 11
127.29819751190369
 21
72.142323188435867
 31
0.0
  0
LINE
  5
16C
  8
1
 10
129.29819751190371
 20
79.142323188435853
 30
0.0
 11
129.29819751190371
 21
58.14232318843586
 31
0.0
  0
LINE
  5
16D
  8
0
 10
144.29819751190351
 20
61.142323188435853
 30
0.0
 11
144.29819751190351
 21
91.142323188435853
 31
0.0
  0
LINE
  5
16E
  8
0
 10
124.7981975119036
 20
91.142323188435853
 30
0.0
 11
124.79819751190389
 21
61.142323188435867
 31
0.0
  0
LINE
  5
16F
  8
0
 10
124.29819751190379
 20
61.642323188435867
 30
0.0
 11
124.2981975119036
 21
90.642323188435839
 31
0.0
  0
LINE
  5
170
  8
2
 10
127.6771975119037
 20
61.83525294163077
 30
0.0
 11
130.91919751190369
 21
61.83525294163077
 31
0.0
  0
LINE
  5
171
  8
0
 10
124.79819751190389
 20
61.142323188435867
 30
0.0
 11
144.29819751190351
 21
61.142323188435853
 31
0.0
  0
LINE
  5
172
  8
0
 10
124.29819751190379
 20
61.642323188435867
 30
0.0
 11
124.79819751190389
 21
61.142323188435867
 31
0.0
  0
LINE
  5
173
  8
2
 10
127.6771975119038
 20
61.83525294163077
 30
0.0
 11
126.9771975119038
 21
61.135252941630782
 31
0.0
  0
TEXT
  5
174
  8
0
 10
133.79819751190351
 20
62.376475444008548
 30
0.0
 40
3.0
  1
4
 50
270.0
 41
0.5
  7
05000
 72
     4
 11
135.29819751190351
 21
61.876475444008548
 31
0.0
  0
LINE
  5
175
  8
2
 10
130.91919751190369
 20
61.83525294163077
 30
0.0
 11
131.61919751190359
 21
61.135252941630782
 31
0.0
  0
LINE
  5
176
  8
0
 10
141.7981975119034
 20
61.40801442750557
 30
0.0
 11
144.29819751190351
 21
61.40801442750557
 31
0.0
  0
LINE
  5
177
  8
0
 10
139.29819751190351
 20
61.876475444008548
 30
0.0
 11
144.29819751190351
 21
61.876475444008562
 31
0.0
  0
LINE
  5
178
  8
0
 10
141.79819751190351
 20
62.569917401445558
 30
0.0
 11
144.2981975119034
 21
62.569917401445558
 31
0.0
  0
LINE
  5
179
  8
0
 10
141.79819751190351
 20
63.477404305905651
 30
0.0
 11
144.29819751190351
 21
63.477404305905651
 31
0.0
  0
LINE
  5
17A
  8
0
 10
141.79819751190351
 20
64.584624546799034
 30
0.0
 11
144.2981975119034
 21
64.584624546799034
 31
0.0
  0
LINE
  5
17B
  8
0
 10
141.79819751190351
 20
65.874116599505555
 30
0.0
 11
144.29819751190351
 21
65.874116599505555
 31
0.0
  0
LINE
  5
17C
  8
0
 10
139.29819751190351
 20
67.32554440404877
 30
0.0
 11
144.29819751190351
 21
67.32554440404877
 31
0.0
  0
LINE
  5
17D
  8
2
 10
124.79819751190379
 20
80.142323188435867
 30
0.0
 11
143.79819751190351
 21
80.14232318843564
 31
0.0
  0
LINE
  5
17E
  8
2
 10
124.79819751190379
 20
72.142323188435867
 30
0.0
 11
143.79819751190351
 21
72.142323188435753
 31
0.0
  0
LINE
  5
17F
  8
1
 10
131.51215876667521
 20
76.142323188435853
 30
0.0
 11
118.0011277844163
 21
76.142323188435853
 31
0.0
  0
LINE
  5
180
  8
0
 10
124.7981975119036
 20
91.142323188435853
 30
0.0
 11
144.29819751190351
 21
91.142323188435853
 31
0.0
  0
LINE
  5
181
  8
2
 10
124.79819751190379
 20
80.142323188435924
 30
0.0
 11
124.79819751190379
 21
72.142323188435839
 31
0.0
  0
LINE
  5
182
  8
2
 10
124.79819751190379
 20
72.142323188435867
 30
0.0
 11
124.29819751190379
 21
71.642323188435867
 31
0.0
  0
LINE
  5
183
  8
2
 10
124.29819751190379
 20
80.642323188435853
 30
0.0
 11
124.79819751190379
 21
80.142323188435867
 31
0.0
  0
LINE
  5
184
  8
0
 10
124.7981975119036
 20
91.142323188435853
 30
0.0
 11
124.2981975119036
 21
90.642323188435839
 31
0.0
  0
TEXT
  5
185
  8
0
 10
133.79819751190351
 20
77.213751759864422
 30
0.0
 40
3.0
  1
0
 50
270.0
 41
0.75
  7
07500
 72
     4
 11
135.29819751190351
 21
76.142323188435853
 31
0.0
  0
LINE
  5
186
  8
2
 10
143.79819751190351
 20
80.14232318843564
 30
0.0
 11
143.79819751190351
 21
72.142323188435725
 31
0.0
  0
LINE
  5
187
  8
0
 10
141.79819751190351
 20
70.620454898165676
 30
0.0
 11
144.29819751190351
 21
70.620454898165676
 31
0.0
  0
LINE
  5
188
  8
0
 10
141.79819751190351
 20
68.916018076910149
 30
0.0
 11
144.2981975119034
 21
68.916018076910163
 31
0.0
  0
LINE
  5
189
  8
0
 10
141.79819751190351
 20
74.262324684971318
 30
0.0
 11
144.29819751190351
 21
74.262324684971318
 31
0.0
  0
LINE
  5
18A
  8
0
 10
141.79819751190351
 20
72.411974880963058
 30
0.0
 11
144.29819751190351
 21
72.411974880963058
 31
0.0
  0
LINE
  5
18B
  8
2
 10
143.79819751190351
 20
72.142323188435753
 30
0.0
 11
144.29819751190351
 21
71.642323188435753
 31
0.0
  0
LINE
  5
18C
  8
0
 10
141.79819751190351
 20
79.872671495908676
 30
0.0
 11
144.29819751190351
 21
79.872671495908676
 31
0.0
  0
LINE
  5
18D
  8
0
 10
141.79819751190351
 20
78.022321691900416
 30
0.0
 11
144.29819751190351
 21
78.022321691900416
 31
0.0
  0
LINE
  5
18E
  8
0
 10
139.29819751190351
 20
76.142323188435853
 30
0.0
 11
144.29819751190351
 21
76.142323188435867
 31
0.0
  0
LINE
  5
18F
  8
2
 10
143.79819751190351
 20
80.14232318843564
 30
0.0
 11
144.29819751190351
 21
80.642323188435626
 31
0.0
  0
TEXT
  5
190
  8
0
 10
133.79819751190351
 20
90.658170932863186
 30
0.0
 40
3.0
  1
1
 50
270.0
 41
0.5
  7
05000
 72
     4
 11
135.29819751190351
 21
90.408170932863186
 31
0.0
  0
LINE
  5
191
  8
0
 10
141.79819751190351
 20
86.410529777366179
 30
0.0
 11
144.29819751190351
 21
86.410529777366179
 31
0.0
  0
LINE
  5
192
  8
0
 10
141.79819751190351
 20
83.368628299961586
 30
0.0
 11
144.2981975119034
 21
83.368628299961571
 31
0.0
  0
LINE
  5
193
  8
0
 10
141.79819751190351
 20
81.664191478706044
 30
0.0
 11
144.29819751190351
 21
81.664191478706044
 31
0.0
  0
LINE
  5
194
  8
0
 10
139.2981975119034
 20
84.959101972822936
 30
0.0
 11
144.29819751190351
 21
84.959101972822936
 31
0.0
  0
LINE
  5
195
  8
0
 10
141.7981975119034
 20
90.876631949366157
 30
0.0
 11
144.29819751190351
 21
90.876631949366157
 31
0.0
  0
LINE
  5
196
  8
0
 10
141.79819751190351
 20
89.714728975426155
 30
0.0
 11
144.2981975119034
 21
89.714728975426155
 31
0.0
  0
LINE
  5
197
  8
0
 10
141.79819751190351
 20
88.807242070966083
 30
0.0
 11
144.29819751190351
 21
88.807242070966083
 31
0.0
  0
LINE
  5
198
  8
0
 10
141.79819751190351
 20
87.700021830072686
 30
0.0
 11
144.2981975119034
 21
87.700021830072686
 31
0.0
  0
LINE
  5
199
  8
0
 10
139.29819751190351
 20
90.408170932863186
 30
0.0
 11
144.29819751190351
 21
90.408170932863186
 31
0.0
  0
LINE
  5
19A
  8
1
 10
146.05368002106979
 20
76.142323188435896
 30
0.0
 11
151.11649842807651
 21
76.142323188435896
 31
0.0
  0
TEXT
  5
258
  8
0
 62
     3
 10
0.0
 20
0.0
 30
0.0
 40
10.0
  1
ESR1L30
  7
STANDARD1
  0
ENDSEC
  0
EOF
