  0
SECTION
  2
HEADER
  9
$ACADVER
  1
AC1009
  9
$INSBASE
 10
0.0
 20
0.0
 30
0.0
  9
$EXTMIN
 10
0.0
 20
-2.960436562073669
 30
0.0
  9
$EXTMAX
 10
160.0
 20
160.0
 30
0.0
  9
$LIMMIN
 10
0.0
 20
0.0
  9
$LIMMAX
 10
275.0
 20
175.0
  9
$ORTHOMODE
 70
     1
  9
$REGENMODE
 70
     1
  9
$FILLMODE
 70
     1
  9
$QTEXTMODE
 70
     0
  9
$MIRRTEXT
 70
     0
  9
$DRAGMODE
 70
     2
  9
$LTSCALE
 40
5.0
  9
$OSMODE
 70
    37
  9
$ATTMODE
 70
     1
  9
$TEXTSIZE
 40
4.000000000000048
  9
$TRACEWID
 40
0.05
  9
$TEXTSTYLE
  7
STANDARD
  9
$CLAYER
  8
0
  9
$CELTYPE
  6
BYLAYER
  9
$CECOLOR
 62
   256
  9
$DIMSCALE
 40
1.0
  9
$DIMASZ
 40
3.0
  9
$DIMEXO
 40
2.0
  9
$DIMDLI
 40
0.38
  9
$DIMRND
 40
0.0
  9
$DIMDLE
 40
0.0
  9
$DIMEXE
 40
2.0
  9
$DIMTP
 40
0.0
  9
$DIMTM
 40
0.0
  9
$DIMTXT
 40
3.0
  9
$DIMCEN
 40
0.0
  9
$DIMTSZ
 40
0.0
  9
$DIMTOL
 70
     0
  9
$DIMLIM
 70
     0
  9
$DIMTIH
 70
     0
  9
$DIMTOH
 70
     0
  9
$DIMSE1
 70
     0
  9
$DIMSE2
 70
     0
  9
$DIMTAD
 70
     1
  9
$DIMZIN
 70
     0
  9
$DIMBLK
  1

  9
$DIMASO
 70
     0
  9
$DIMSHO
 70
     0
  9
$DIMPOST
  1

  9
$DIMAPOST
  1

  9
$DIMALT
 70
     0
  9
$DIMALTD
 70
     2
  9
$DIMALTF
 40
25.399999999999999
  9
$DIMLFAC
 40
1.0
  9
$DIMTOFL
 70
     0
  9
$DIMTVP
 40
1.6000000000000001
  9
$DIMTIX
 70
     1
  9
$DIMSOXD
 70
     0
  9
$DIMSAH
 70
     0
  9
$DIMBLK1
  1

  9
$DIMBLK2
  1

  9
$DIMSTYLE
  2
STANDARD
  9
$DIMCLRD
 70
     4
  9
$DIMCLRE
 70
     4
  9
$DIMCLRT
 70
     4
  9
$DIMTFAC
 40
1.0
  9
$DIMGAP
 40
1.1999999999999991
  9
$LUNITS
 70
     2
  9
$LUPREC
 70
     1
  9
$SKETCHINC
 40
0.1
  9
$FILLETRAD
 40
22.0
  9
$AUNITS
 70
     0
  9
$AUPREC
 70
     1
  9
$MENU
  1
E:\r13\win\SUPPORT\ACAD
  9
$ELEVATION
 40
0.0
  9
$PELEVATION
 40
0.0
  9
$THICKNESS
 40
0.0
  9
$LIMCHECK
 70
     0
  9
$BLIPMODE
 70
     0
  9
$CHAMFERA
 40
1.1999999999999991
  9
$CHAMFERB
 40
1.1999999999999991
  9
$SKPOLY
 70
     0
  9
$TDCREATE
 40
2449954.6020138888
  9
$TDUPDATE
 40
2457164.3890239699
  9
$TDINDWG
 40
0.5372214352
  9
$TDUSRTIMER
 40
0.5372214352
  9
$USRTIMER
 70
     1
  9
$ANGBASE
 50
0.0
  9
$ANGDIR
 70
     0
  9
$PDMODE
 70
     0
  9
$PDSIZE
 40
0.0
  9
$PLINEWID
 40
0.0
  9
$COORDS
 70
     1
  9
$SPLFRAME
 70
     0
  9
$SPLINETYPE
 70
     6
  9
$SPLINESEGS
 70
     8
  9
$ATTDIA
 70
     0
  9
$ATTREQ
 70
     1
  9
$HANDLING
 70
     1
  9
$HANDSEED
  5
455E
  9
$SURFTAB1
 70
     6
  9
$SURFTAB2
 70
     6
  9
$SURFTYPE
 70
     6
  9
$SURFU
 70
     6
  9
$SURFV
 70
     6
  9
$UCSNAME
  2

  9
$UCSORG
 10
0.0
 20
0.0
 30
0.0
  9
$UCSXDIR
 10
1.0
 20
0.0
 30
0.0
  9
$UCSYDIR
 10
0.0
 20
1.0
 30
0.0
  9
$PUCSNAME
  2

  9
$PUCSORG
 10
0.0
 20
0.0
 30
0.0
  9
$PUCSXDIR
 10
1.0
 20
0.0
 30
0.0
  9
$PUCSYDIR
 10
0.0
 20
1.0
 30
0.0
  9
$USERI1
 70
     4
  9
$USERI2
 70
     1
  9
$USERI3
 70
     1
  9
$USERI4
 70
     0
  9
$USERI5
 70
     0
  9
$USERR1
 40
1.0
  9
$USERR2
 40
3.0
  9
$USERR3
 40
3.0
  9
$USERR4
 40
3.0
  9
$USERR5
 40
10.0
  9
$WORLDVIEW
 70
     1
  9
$SHADEDGE
 70
     3
  9
$SHADEDIF
 70
    70
  9
$TILEMODE
 70
     1
  9
$MAXACTVP
 70
    16
  9
$PLIMCHECK
 70
     0
  9
$PEXTMIN
 10
1.0000000000000000E+020
 20
1.0000000000000000E+020
 30
1.0000000000000000E+020
  9
$PEXTMAX
 10
-1.0000000000000000E+020
 20
-1.0000000000000000E+020
 30
-1.0000000000000000E+020
  9
$PLIMMIN
 10
0.0
 20
0.0
  9
$PLIMMAX
 10
12.0
 20
9.0
  9
$UNITMODE
 70
     0
  9
$VISRETAIN
 70
     0
  9
$PLINEGEN
 70
     0
  9
$PSLTSCALE
 70
     0
  0
ENDSEC
  0
SECTION
  2
TABLES
  0
TABLE
  2
VPORT
 70
     1
  0
VPORT
  2
*ACTIVE
 70
     0
 10
0.0
 20
0.0
 11
1.0
 21
1.0
 12
245.19230769230771
 22
135.0
 13
0.0
 23
0.0
 14
5.0
 24
5.0
 15
10.0
 25
10.0
 16
0.0
 26
0.0
 36
1.0
 17
0.0
 27
0.0
 37
0.0
 40
270.0
 41
1.816239316239316
 42
50.0
 43
0.0
 44
0.0
 50
0.0
 51
0.0
 71
     0
 72
   500
 73
     1
 74
     0
 75
     0
 76
     0
 77
     0
 78
     2
  0
ENDTAB
  0
TABLE
  2
LTYPE
 70
     4
  0
LTYPE
  2
CONTINUOUS
 70
     0
  3
Solid Line
 72
    65
 73
     0
 40
0.0
  0
LTYPE
  2
CENTER
 70
     0
  3
____ _ ____ _ ____ _ ____ _ ____ _ ____ _ ____
 72
    65
 73
     4
 40
2.0
 49
1.25
 49
-0.25
 49
0.25
 49
-0.25
  0
LTYPE
  2
HIDDEN
 70
     0
  3
_ _ _ _ _ _ _ _ _ _ _ _ _ _ _ _ _ _ _ _ _ _ _
 72
    65
 73
     2
 40
0.375
 49
0.25
 49
-0.125
  0
LTYPE
  2
PHANTOM2
 70
     0
  3
___ _ _ ___ _ _ ___ _ _ ___ _ _
 72
    65
 73
     6
 40
1.25
 49
0.625
 49
-0.125
 49
0.125
 49
-0.125
 49
0.125
 49
-0.125
  0
ENDTAB
  0
TABLE
  2
LAYER
 70
     4
  0
LAYER
  2
0
 70
     0
 62
     7
  6
CONTINUOUS
  0
LAYER
  2
1
 70
     0
 62
     1
  6
CENTER
  0
LAYER
  2
2
 70
     0
 62
     2
  6
HIDDEN
  0
LAYER
  2
DEFPOINTS
 70
     0
 62
     7
  6
CONTINUOUS
  0
ENDTAB
  0
TABLE
  2
STYLE
 70
     2
  0
STYLE
  2
STANDARD
 70
     0
 40
0.0
 41
1.0
 50
0.0
 71
     0
 42
4.000000000000048
  3
SIMPLEX
  4
BIGFONT
  0
STYLE
  2
STANDARD1
 70
     0
 40
0.0
 41
1.0
 50
0.0
 71
     0
 42
3.0
  3
txt
  4

  0
ENDTAB
  0
TABLE
  2
VIEW
 70
     1
  0
VIEW
  2
ALL
 70
     0
 40
270.0
 10
220.78595317725751
 20
135.0
 41
441.57190635451502
 11
0.0
 21
0.0
 31
1.0
 12
0.0
 22
0.0
 32
0.0
 42
50.0
 43
0.0
 44
0.0
 50
0.0
 71
     0
  0
ENDTAB
  0
TABLE
  2
UCS
 70
     0
  0
ENDTAB
  0
TABLE
  2
APPID
 70
     6
  0
APPID
  2
ACAD
 70
     0
  0
APPID
  2
ACAD_MLEADERVER
 70
     0
  0
APPID
  2
ACAD_NAV_VCDISPLAY
 70
     0
  0
APPID
  2
ACAD_EXEMPT_FROM_CAD_STANDARDS
 70
     0
  0
APPID
  2
ACAD_DSTYLE_DIMJAG
 70
     0
  0
APPID
  2
ACAD_DSTYLE_DIMTALN
 70
     0
  0
ENDTAB
  0
TABLE
  2
DIMSTYLE
 70
     1
  0
DIMSTYLE
  2
STANDARD
 70
     0
  3

  4

  5

  6

  7

 40
1.0
 41
0.18
 42
0.0625
 43
0.38
 44
0.18
 45
0.0
 46
0.0
 47
0.0
 48
0.0
140
0.18
141
0.09
142
0.0
143
25.399999999999999
144
1.0
145
0.0
146
1.0
147
0.09
 71
     0
 72
     0
 73
     1
 74
     1
 75
     0
 76
     0
 77
     0
 78
     0
170
     0
171
     2
172
     0
173
     0
174
     0
175
     0
176
     0
177
     0
178
     0
  0
ENDTAB
  0
ENDSEC
  0
SECTION
  2
BLOCKS
  0
BLOCK
  8
0
  2
$MODEL_SPACE
 70
     0
 10
0.0
 20
0.0
 30
0.0
  3
$MODEL_SPACE
  1

  0
ENDBLK
  5
B2D
  8
0
  0
BLOCK
 67
     1
  8
0
  2
$PAPER_SPACE
 70
     0
 10
0.0
 20
0.0
 30
0.0
  3
$PAPER_SPACE
  1

  0
ENDBLK
  5
B2B
 67
     1
  8
0
  0
ENDSEC
  0
SECTION
  2
ENTITIES
  0
TEXT
  5
180E
  8
0
 62
     3
 10
0.0
 20
0.0
 30
0.0
 40
10.0
  1
ESCSS25
  7
STANDARD1
  0
LINE
  5
3C21
  8
2
 10
125.09999999999999
 20
53.749999999999993
 30
0.0
 11
140.5
 21
53.749999999999993
 31
0.0
  0
LINE
  5
3C22
  8
2
 10
140.5
 20
58.749999999999979
 30
0.0
 11
125.09999999999999
 21
58.749999999999993
 31
0.0
  0
ARC
  5
3C26
  8
2
 10
125.09999999999999
 20
53.549999999999997
 30
0.0
 40
0.1999999999999957
 50
90.0
 51
110.5560452195883
  0
ARC
  5
3C27
  8
2
 10
125.09999999999999
 20
58.949999999999861
 30
0.0
 40
0.1999999999998861
 50
249.44395478040829
 51
270.0
  0
LINE
  5
3C28
  8
2
 10
125.09999999999999
 20
58.749999999999993
 30
0.0
 11
125.09999999999999
 21
53.749999999999993
 31
0.0
  0
LINE
  5
3C29
  8
2
 10
125.0297753116823
 20
58.762734164486162
 30
0.0
 11
124.62977531168229
 21
58.912734164486189
 31
0.0
  0
LINE
  5
3C2A
  8
2
 10
124.62977531168229
 20
53.587265835513769
 30
0.0
 11
125.0297753116823
 21
53.737265835513803
 31
0.0
  0
ARC
  5
3C2C
  8
2
 10
124.7
 20
53.399999999999963
 30
0.0
 40
0.1999999999999996
 50
110.55604521958131
 51
180.0
  0
ARC
  5
3C2D
  8
2
 10
124.7
 20
59.100000000000009
 30
0.0
 40
0.1999999999999931
 50
180.0
 51
249.44395478041869
  0
ARC
  5
3C2F
  8
2
 10
120.0
 20
52.499999999999993
 30
0.0
 40
0.5000000000000018
 50
180.0
 51
270.0
  0
ARC
  5
3C30
  8
2
 10
120.0
 20
59.999999999999993
 30
0.0
 40
0.4999999999999983
 50
90.0
 51
180.0
  0
LINE
  5
3C33
  8
2
 10
124.5
 20
60.499999999999979
 30
0.0
 11
124.5
 21
51.999999999999993
 31
0.0
  0
LINE
  5
3C35
  8
2
 10
140.5
 20
54.240499999999983
 30
0.0
 11
126.90000000000001
 21
54.240499999999983
 31
0.0
  0
LINE
  5
3C36
  8
2
 10
126.90000000000001
 20
53.749999999999993
 30
0.0
 11
126.90000000000001
 21
58.749999999999993
 31
0.0
  0
LINE
  5
3C37
  8
2
 10
140.5
 20
58.259499999999981
 30
0.0
 11
126.90000000000001
 21
58.259499999999981
 31
0.0
  0
LINE
  5
3C3C
  8
2
 10
144.5
 20
53.4914677483752
 30
0.0
 11
144.5
 21
61.882575745806641
 31
0.0
  0
LINE
  5
3C3D
  8
2
 10
153.28222687914729
 20
61.882575745806641
 30
0.0
 11
144.5
 21
61.882575745806641
 31
0.0
  0
LINE
  5
3C46
  8
2
 10
119.5
 20
51.999999999999993
 30
0.0
 11
124.5
 21
51.999999999999993
 31
0.0
  0
LINE
  5
3C47
  8
2
 10
124.5
 20
60.499999999999979
 30
0.0
 11
119.5
 21
60.499999999999979
 31
0.0
  0
LINE
  5
3C4B
  8
2
 10
119.5
 20
61.882575745806641
 30
0.0
 11
110.7177731208526
 21
61.882575745806641
 31
0.0
  0
LINE
  5
3C4C
  8
2
 10
119.5
 20
61.882575745806641
 30
0.0
 11
119.5
 21
53.49146774837525
 31
0.0
  0
LINE
  5
3C4F
  8
1
 10
146.5
 20
56.249999999999993
 30
0.0
 11
117.5
 21
56.249999999999993
 31
0.0
  0
LINE
  5
3C50
  8
1
 10
146.5
 20
93.749999999999986
 30
0.0
 11
117.5
 21
93.749999999999986
 31
0.0
  0
LINE
  5
3C51
  8
1
 10
132.0
 20
46.999999999999972
 30
0.0
 11
132.0
 21
103.0
 31
0.0
  0
LINE
  5
3C52
  8
1
 10
160.0
 20
74.999999999999986
 30
0.0
 11
104.0
 21
74.999999999999986
 31
0.0
  0
LINE
  5
3C53
  8
0
 10
144.5
 20
99.382575745806648
 30
0.0
 11
139.5
 21
99.382575745806648
 31
0.0
  0
LINE
  5
3C54
  8
0
 10
144.5
 20
99.382575745806648
 30
0.0
 11
144.5000000000002
 21
96.508532251624658
 31
0.0
  0
LINE
  5
3C55
  8
0
 10
139.5
 20
99.382575745806648
 30
0.0
 11
139.5
 21
98.816100111263708
 31
0.0
  0
LINE
  5
3C56
  8
0
 10
139.5
 20
50.617424254193317
 30
0.0
 11
144.5
 21
50.617424254193317
 31
0.0
  0
LINE
  5
3C57
  8
0
 10
144.5
 20
50.617424254193317
 30
0.0
 11
144.5
 21
53.4914677483752
 31
0.0
  0
LINE
  5
3C58
  8
0
 10
139.5
 20
50.617424254193317
 30
0.0
 11
139.5
 21
51.18389988873291
 31
0.0
  0
POLYLINE
  5
3C59
  8
0
 66
     1
 10
0.0
 20
0.0
 30
0.0
  0
VERTEX
  5
4388
  8
0
 10
144.5
 20
53.4914677483752
 30
0.0
  0
VERTEX
  5
4389
  8
0
 10
145.55909571485699
 20
54.162715988876911
 30
0.0
  0
VERTEX
  5
438A
  8
0
 10
146.6071584714924
 20
54.899505316384243
 30
0.0
  0
VERTEX
  5
438B
  8
0
 10
147.6551963555732
 20
55.71466973997466
 30
0.0
  0
VERTEX
  5
438C
  8
0
 10
148.1720949185148
 20
56.147894305554289
 30
0.0
  0
VERTEX
  5
438D
  8
0
 10
148.67859945366069
 20
56.593730663491542
 30
0.0
  0
VERTEX
  5
438E
  8
0
 10
149.19626243451199
 20
57.072463877607888
 30
0.0
  0
VERTEX
  5
438F
  8
0
 10
149.70088729786511
 20
57.562908350206769
 30
0.0
  0
VERTEX
  5
4390
  8
0
 10
150.19524020421741
 20
58.067560238821997
 30
0.0
  0
VERTEX
  5
4391
  8
0
 10
150.6710750206403
 20
58.57741122671284
 30
0.0
  0
VERTEX
  5
4392
  8
0
 10
151.0284972757907
 20
58.976915787398113
 30
0.0
  0
VERTEX
  5
4393
  8
0
 10
151.370053252509
 20
59.372722901980509
 30
0.0
  0
VERTEX
  5
4394
  8
0
 10
151.69755644019929
 20
59.765833767224983
 30
0.0
  0
VERTEX
  5
4395
  8
0
 10
152.00393731026119
 20
60.146294792397711
 30
0.0
  0
VERTEX
  5
4396
  8
0
 10
152.4306157788661
 20
60.697897937001848
 30
0.0
  0
VERTEX
  5
4397
  8
0
 10
152.6202118472051
 20
60.951602085607519
 30
0.0
  0
VERTEX
  5
4398
  8
0
 10
152.78965426805249
 20
61.183043806262148
 30
0.0
  0
VERTEX
  5
4399
  8
0
 10
152.93160573166659
 20
61.380470456379882
 30
0.0
  0
VERTEX
  5
439A
  8
0
 10
153.05167497830189
 20
61.550054391031367
 30
0.0
  0
VERTEX
  5
439B
  8
0
 10
153.14982291094569
 20
61.690486029443541
 30
0.0
  0
VERTEX
  5
439C
  8
0
 10
153.22197203395561
 20
61.794777692859988
 30
0.0
  0
VERTEX
  5
439D
  8
0
 10
153.275573938402
 20
61.87178787528196
 30
0.0
  0
VERTEX
  5
439E
  8
0
 10
153.275573938402
 20
61.87178787528196
 30
0.0
  0
SEQEND
  5
439F
  8
0
  0
POLYLINE
  5
3C5A
  8
0
 66
     1
 10
0.0
 20
0.0
 30
0.0
  0
VERTEX
  5
43A0
  8
0
 10
139.5
 20
51.18389988873291
 30
0.0
  0
VERTEX
  5
43A1
  8
0
 10
140.56677869202261
 20
51.566752204252268
 30
0.0
  0
VERTEX
  5
43A2
  8
0
 10
141.66366866263351
 20
52.01971513954588
 30
0.0
  0
VERTEX
  5
43A3
  8
0
 10
142.78798824513621
 20
52.549349758846162
 30
0.0
  0
VERTEX
  5
43A4
  8
0
 10
143.91589467480861
 20
53.15085928929242
 30
0.0
  0
VERTEX
  5
43A5
  8
0
 10
144.5
 20
53.4914677483752
 30
0.0
  0
SEQEND
  5
43A6
  8
0
  0
POLYLINE
  5
3C5B
  8
0
 66
     1
 10
0.0
 20
0.0
 30
0.0
  0
VERTEX
  5
43A7
  8
0
 10
144.5000000000002
 20
96.508532251624658
 30
0.0
  0
VERTEX
  5
43A8
  8
0
 10
143.26934716588789
 20
97.202787277729783
 30
0.0
  0
VERTEX
  5
43A9
  8
0
 10
142.0231308125669
 20
97.818306669436012
 30
0.0
  0
VERTEX
  5
43AA
  8
0
 10
140.75388891134611
 20
98.360303464593628
 30
0.0
  0
VERTEX
  5
43AB
  8
0
 10
140.1213839390461
 20
98.599843580747745
 30
0.0
  0
VERTEX
  5
43AC
  8
0
 10
139.5
 20
98.816100111263708
 30
0.0
  0
SEQEND
  5
43AD
  8
0
  0
ARC
  5
3C5C
  8
0
 10
132.0
 20
74.999999999999758
 30
0.0
 40
24.99999999999979
 50
270.0
 51
287.45783806018181
  0
ARC
  5
3C5D
  8
0
 10
132.0
 20
74.999999999999986
 30
0.0
 40
25.000000000000028
 50
328.3231067979832
 51
31.67713868946516
  0
ARC
  5
3C5E
  8
0
 10
132.0
 20
74.999999999999758
 30
0.0
 40
25.00000000000021
 50
72.542344700869464
 51
90.000000853773628
  0
POLYLINE
  5
3C5F
  8
0
 66
     1
 10
0.0
 20
0.0
 30
0.0
  0
VERTEX
  5
43AE
  8
0
 10
153.27551768953839
 20
88.128303281160854
 30
0.0
  0
VERTEX
  5
43AF
  8
0
 10
153.25494525629179
 20
88.157256123685258
 30
0.0
  0
VERTEX
  5
43B0
  8
0
 10
153.15614242963329
 20
88.300415242210633
 30
0.0
  0
VERTEX
  5
43B1
  8
0
 10
152.98220479528121
 20
88.548357612540926
 30
0.0
  0
VERTEX
  5
43B2
  8
0
 10
152.73881243801759
 20
88.886877097655685
 30
0.0
  0
VERTEX
  5
43B3
  8
0
 10
152.42424012392721
 20
89.310539145438199
 30
0.0
  0
VERTEX
  5
43B4
  8
0
 10
152.01913433137261
 20
89.834502034508404
 30
0.0
  0
VERTEX
  5
43B5
  8
0
 10
151.54439024206371
 20
90.419717893505464
 30
0.0
  0
VERTEX
  5
43B6
  8
0
 10
151.1724040345928
 20
90.858035217744074
 30
0.0
  0
VERTEX
  5
43B7
  8
0
 10
150.77372484652619
 20
91.309345240533133
 30
0.0
  0
VERTEX
  5
43B8
  8
0
 10
150.34492073783389
 20
91.774682116328151
 30
0.0
  0
VERTEX
  5
43B9
  8
0
 10
149.8943007824584
 20
92.242584128414293
 30
0.0
  0
VERTEX
  5
43BA
  8
0
 10
149.2652278125795
 20
92.861924883931223
 30
0.0
  0
VERTEX
  5
43BB
  8
0
 10
148.60605652172691
 20
93.471465320776076
 30
0.0
  0
VERTEX
  5
43BC
  8
0
 10
147.9116654223098
 20
94.073065835857548
 30
0.0
  0
VERTEX
  5
43BD
  8
0
 10
147.19529195939469
 20
94.653152485415646
 30
0.0
  0
VERTEX
  5
43BE
  8
0
 10
146.53991337945129
 20
95.150048446085947
 30
0.0
  0
VERTEX
  5
43BF
  8
0
 10
145.87240015065061
 20
95.624850531724775
 30
0.0
  0
VERTEX
  5
43C0
  8
0
 10
145.19044913635011
 20
96.079003717147813
 30
0.0
  0
VERTEX
  5
43C1
  8
0
 10
144.5000000000002
 20
96.508532251624601
 30
0.0
  0
SEQEND
  5
43C2
  8
0
  0
LINE
  5
3C61
  8
0
 10
132.0
 20
100.0
 30
0.0
 11
132.0
 21
87.499999999999986
 31
0.0
  0
ARC
  5
3C62
  8
0
 10
132.0
 20
74.999999999999986
 30
0.0
 40
12.5
 50
270.0
 51
90.0
  0
LINE
  5
3C63
  8
0
 10
132.0
 20
49.999999999999993
 30
0.0
 11
132.0
 21
62.499999999999993
 31
0.0
  0
LINE
  5
3C65
  8
0
 10
119.5
 20
53.49146774837525
 30
0.0
 11
119.5
 21
50.617424254193317
 31
0.0
  0
LINE
  5
3C66
  8
0
 10
124.5
 20
51.183899888736271
 30
0.0
 11
124.5
 21
50.617424254193317
 31
0.0
  0
LINE
  5
3C67
  8
0
 10
119.5
 20
50.617424254193317
 30
0.0
 11
124.5
 21
50.617424254193317
 31
0.0
  0
LINE
  5
3C68
  8
0
 10
119.5
 20
96.508532251624715
 30
0.0
 11
119.5
 21
99.382575745806648
 31
0.0
  0
LINE
  5
3C69
  8
0
 10
124.4999999999753
 20
98.816100111255466
 30
0.0
 11
124.5
 21
99.382575745806648
 31
0.0
  0
LINE
  5
3C6A
  8
0
 10
124.5
 20
99.382575745806648
 30
0.0
 11
119.5
 21
99.382575745806648
 31
0.0
  0
POLYLINE
  5
3C6B
  8
0
 66
     1
 10
0.0
 20
0.0
 30
0.0
  0
VERTEX
  5
43C3
  8
0
 10
119.5
 20
53.49146774837525
 30
0.0
  0
VERTEX
  5
43C4
  8
0
 10
120.73065283411221
 20
52.797212722270139
 30
0.0
  0
VERTEX
  5
43C5
  8
0
 10
121.97686918743319
 20
52.181693330563903
 30
0.0
  0
VERTEX
  5
43C6
  8
0
 10
123.2461110886539
 20
51.639696535406337
 30
0.0
  0
VERTEX
  5
43C7
  8
0
 10
123.8786160609539
 20
51.400156419252241
 30
0.0
  0
VERTEX
  5
43C8
  8
0
 10
124.5
 20
51.183899888736271
 30
0.0
  0
SEQEND
  5
43C9
  8
0
  0
POLYLINE
  5
3C6C
  8
0
 66
     1
 10
0.0
 20
0.0
 30
0.0
  0
VERTEX
  5
43CA
  8
0
 10
119.5
 20
96.508532251624715
 30
0.0
  0
VERTEX
  5
43CB
  8
0
 10
118.4409042851432
 20
95.837284011123117
 30
0.0
  0
VERTEX
  5
43CC
  8
0
 10
117.3928415285078
 20
95.100494683615793
 30
0.0
  0
VERTEX
  5
43CD
  8
0
 10
116.3448036444271
 20
94.285330260025518
 30
0.0
  0
VERTEX
  5
43CE
  8
0
 10
115.8279050814855
 20
93.85210569444591
 30
0.0
  0
VERTEX
  5
43CF
  8
0
 10
115.3214005463397
 20
93.406269336508714
 30
0.0
  0
VERTEX
  5
43D0
  8
0
 10
114.8037375654883
 20
92.927536122392311
 30
0.0
  0
VERTEX
  5
43D1
  8
0
 10
114.2991127021351
 20
92.43709164979343
 30
0.0
  0
VERTEX
  5
43D2
  8
0
 10
113.8047597957829
 20
91.932439761178202
 30
0.0
  0
VERTEX
  5
43D3
  8
0
 10
113.3289249793599
 20
91.422588773287302
 30
0.0
  0
VERTEX
  5
43D4
  8
0
 10
112.9715027242094
 20
91.023084212602015
 30
0.0
  0
VERTEX
  5
43D5
  8
0
 10
112.6299467474911
 20
90.627277098019675
 30
0.0
  0
VERTEX
  5
43D6
  8
0
 10
112.30244355980081
 20
90.234166232775166
 30
0.0
  0
VERTEX
  5
43D7
  8
0
 10
111.99606268973891
 20
89.853705207602374
 30
0.0
  0
VERTEX
  5
43D8
  8
0
 10
111.569384221134
 20
89.302102062998244
 30
0.0
  0
VERTEX
  5
43D9
  8
0
 10
111.379788152795
 20
89.048397914392567
 30
0.0
  0
VERTEX
  5
43DA
  8
0
 10
111.2103457319475
 20
88.81695619373788
 30
0.0
  0
VERTEX
  5
43DB
  8
0
 10
111.06839426833351
 20
88.619529543620146
 30
0.0
  0
VERTEX
  5
43DC
  8
0
 10
110.9483250216982
 20
88.449945608968662
 30
0.0
  0
VERTEX
  5
43DD
  8
0
 10
110.8501770890543
 20
88.309513970556438
 30
0.0
  0
VERTEX
  5
43DE
  8
0
 10
110.77802796604441
 20
88.205222307139977
 30
0.0
  0
VERTEX
  5
43DF
  8
0
 10
110.72442606159809
 20
88.12821212471799
 30
0.0
  0
VERTEX
  5
43E0
  8
0
 10
110.72442606159809
 20
88.12821212471799
 30
0.0
  0
SEQEND
  5
43E1
  8
0
  0
POLYLINE
  5
3C6D
  8
0
 66
     1
 10
0.0
 20
0.0
 30
0.0
  0
VERTEX
  5
43E2
  8
0
 10
124.4999999999753
 20
98.816100111255466
 30
0.0
  0
VERTEX
  5
43E3
  8
0
 10
123.4332213079548
 20
98.433247795739007
 30
0.0
  0
VERTEX
  5
43E4
  8
0
 10
122.3363313373508
 20
97.980284860447156
 30
0.0
  0
VERTEX
  5
43E5
  8
0
 10
121.21201175485579
 20
97.450650241149845
 30
0.0
  0
VERTEX
  5
43E6
  8
0
 10
120.0841053251912
 20
96.849140710707502
 30
0.0
  0
VERTEX
  5
43E7
  8
0
 10
119.5
 20
96.508532251624715
 30
0.0
  0
SEQEND
  5
43E8
  8
0
  0
ARC
  5
3C6E
  8
0
 10
132.0
 20
74.999999999999872
 30
0.0
 40
25.000000000000099
 50
90.0
 51
107.4578380601818
  0
ARC
  5
3C6F
  8
0
 10
132.0
 20
74.999999999999986
 30
0.0
 40
25.000000000000021
 50
148.3231067979832
 51
211.6771386894651
  0
ARC
  5
3C70
  8
0
 10
132.0
 20
74.999999999999915
 30
0.0
 40
24.999999999999972
 50
252.54234470086939
 51
269.99999914622629
  0
POLYLINE
  5
3C71
  8
0
 66
     1
 10
0.0
 20
0.0
 30
0.0
  0
VERTEX
  5
43E9
  8
0
 10
110.7244823104616
 20
61.871696718839111
 30
0.0
  0
VERTEX
  5
43EA
  8
0
 10
110.74505474370829
 20
61.842743876314721
 30
0.0
  0
VERTEX
  5
43EB
  8
0
 10
110.84385757036669
 20
61.699584757789282
 30
0.0
  0
VERTEX
  5
43EC
  8
0
 10
111.01779520471879
 20
61.451642387458982
 30
0.0
  0
VERTEX
  5
43ED
  8
0
 10
111.2611875619824
 20
61.113122902344223
 30
0.0
  0
VERTEX
  5
43EE
  8
0
 10
111.57575987607289
 20
60.689460854561659
 30
0.0
  0
VERTEX
  5
43EF
  8
0
 10
111.9808656686275
 20
60.16549796549144
 30
0.0
  0
VERTEX
  5
43F0
  8
0
 10
112.4556097579364
 20
59.580282106494373
 30
0.0
  0
VERTEX
  5
43F1
  8
0
 10
112.8275959654073
 20
59.141964782255783
 30
0.0
  0
VERTEX
  5
43F2
  8
0
 10
113.22627515347391
 20
58.690654759466661
 30
0.0
  0
VERTEX
  5
43F3
  8
0
 10
113.6550792621663
 20
58.22531788367165
 30
0.0
  0
VERTEX
  5
43F4
  8
0
 10
114.1056992175418
 20
57.757415871585508
 30
0.0
  0
VERTEX
  5
43F5
  8
0
 10
114.7347721874207
 20
57.138075116068521
 30
0.0
  0
VERTEX
  5
43F6
  8
0
 10
115.3939434782733
 20
56.528534679223682
 30
0.0
  0
VERTEX
  5
43F7
  8
0
 10
116.0883345776905
 20
55.926934164142203
 30
0.0
  0
VERTEX
  5
43F8
  8
0
 10
116.8047080406056
 20
55.346847514584098
 30
0.0
  0
VERTEX
  5
43F9
  8
0
 10
117.46008662054901
 20
54.84995155391384
 30
0.0
  0
VERTEX
  5
43FA
  8
0
 10
118.12759984934971
 20
54.375149468275069
 30
0.0
  0
VERTEX
  5
43FB
  8
0
 10
118.8095508636501
 20
53.920996282852052
 30
0.0
  0
VERTEX
  5
43FC
  8
0
 10
119.5
 20
53.4914677483752
 30
0.0
  0
SEQEND
  5
43FD
  8
0
  0
ARC
  5
3C74
  8
0
 10
132.0
 20
74.999999999999986
 30
0.0
 40
12.5
 50
90.0
 51
270.0
  0
LINE
  5
3CAD
  8
1
 10
132.0
 20
140.0
 30
0.0
 11
132.0
 21
160.0
 31
0.0
  0
LINE
  5
3CAE
  8
1
 10
160.0
 20
150.0
 30
0.0
 11
104.0
 21
150.0
 31
0.0
  0
POLYLINE
  5
3CAF
  8
0
 66
     1
 10
0.0
 20
0.0
 30
0.0
  0
VERTEX
  5
43FE
  8
0
 10
148.2889678560993
 20
155.632575626365
 30
0.0
  0
VERTEX
  5
43FF
  8
0
 10
148.6785994536603
 20
155.62207779768519
 30
0.0
  0
VERTEX
  5
4400
  8
0
 10
148.9392013900451
 20
155.6024536405707
 30
0.0
  0
VERTEX
  5
4401
  8
0
 10
149.1962624345116
 20
155.57220447419871
 30
0.0
  0
VERTEX
  5
4402
  8
0
 10
149.4506504196159
 20
155.53065038480759
 30
0.0
  0
VERTEX
  5
4403
  8
0
 10
149.70088729786491
 20
155.47742468649341
 30
0.0
  0
VERTEX
  5
4404
  8
0
 10
149.95055542929529
 20
155.41088157643759
 30
0.0
  0
VERTEX
  5
4405
  8
0
 10
150.1952402042171
 20
155.33126479463391
 30
0.0
  0
VERTEX
  5
4406
  8
0
 10
150.43609462918991
 20
155.23739417803569
 30
0.0
  0
VERTEX
  5
4407
  8
0
 10
150.6710750206401
 20
155.12923644551711
 30
0.0
  0
VERTEX
  5
4408
  8
0
 10
151.02849727579061
 20
154.92847236176581
 30
0.0
  0
VERTEX
  5
4409
  8
0
 10
151.20164457385681
 20
154.8130612283305
 30
0.0
  0
VERTEX
  5
440A
  8
0
 10
151.37005325250891
 20
154.68769785819191
 30
0.0
  0
VERTEX
  5
440B
  8
0
 10
151.5365645152481
 20
154.549463132239
 30
0.0
  0
VERTEX
  5
440C
  8
0
 10
151.69755644019921
 20
154.4005479719566
 30
0.0
  0
VERTEX
  5
440D
  8
0
 10
151.85387725246079
 20
154.2395545156001
 30
0.0
  0
VERTEX
  5
440E
  8
0
 10
152.00393731026111
 20
154.06752952330831
 30
0.0
  0
VERTEX
  5
440F
  8
0
 10
152.22608931408959
 20
153.77508510302809
 30
0.0
  0
VERTEX
  5
4410
  8
0
 10
152.43061577886601
 20
153.4557363143424
 30
0.0
  0
VERTEX
  5
4411
  8
0
 10
152.62021184720501
 20
153.10174908089959
 30
0.0
  0
VERTEX
  5
4412
  8
0
 10
152.78965426805249
 20
152.71863722069509
 30
0.0
  0
VERTEX
  5
4413
  8
0
 10
152.93160573166651
 20
152.32468974886191
 30
0.0
  0
VERTEX
  5
4414
  8
0
 10
153.01532842685421
 20
152.04428174010059
 30
0.0
  0
VERTEX
  5
4415
  8
0
 10
153.08821878772341
 20
151.75498399522641
 30
0.0
  0
VERTEX
  5
4416
  8
0
 10
153.14982291094569
 20
151.458431107622
 30
0.0
  0
VERTEX
  5
4417
  8
0
 10
153.1893387481291
 20
151.2261446349506
 30
0.0
  0
VERTEX
  5
4418
  8
0
 10
153.22197203395561
 20
150.990631045855
 30
0.0
  0
VERTEX
  5
4419
  8
0
 10
153.2612733443292
 20
150.58608873486901
 30
0.0
  0
VERTEX
  5
441A
  8
0
 10
153.28032380726151
 20
150.17703430655399
 30
0.0
  0
VERTEX
  5
441B
  8
0
 10
153.27850325723861
 20
149.7531611582653
 30
0.0
  0
VERTEX
  5
441C
  8
0
 10
153.25494525629179
 20
149.33132559029559
 30
0.0
  0
VERTEX
  5
441D
  8
0
 10
153.21443025915559
 20
148.9500779286754
 30
0.0
  0
VERTEX
  5
441E
  8
0
 10
153.15614242963329
 20
148.5759439969159
 30
0.0
  0
VERTEX
  5
441F
  8
0
 10
153.07808458342731
 20
148.20144488559629
 30
0.0
  0
VERTEX
  5
4420
  8
0
 10
152.98220479528121
 20
147.8392533685693
 30
0.0
  0
VERTEX
  5
4421
  8
0
 10
152.86878601619671
 20
147.49064564358659
 30
0.0
  0
VERTEX
  5
4422
  8
0
 10
152.73881243801759
 20
147.15817925108851
 30
0.0
  0
VERTEX
  5
4423
  8
0
 10
152.58934771847419
 20
146.83602659508159
 30
0.0
  0
VERTEX
  5
4424
  8
0
 10
152.42424012392721
 20
146.53343154501979
 30
0.0
  0
VERTEX
  5
4425
  8
0
 10
152.22966277967689
 20
146.23003383922551
 30
0.0
  0
VERTEX
  5
4426
  8
0
 10
152.01913433137261
 20
145.95095255467641
 30
0.0
  0
VERTEX
  5
4427
  8
0
 10
151.7888705720633
 20
145.6914102385756
 30
0.0
  0
VERTEX
  5
4428
  8
0
 10
151.54439024206371
 20
145.45740926084989
 30
0.0
  0
VERTEX
  5
4429
  8
0
 10
151.36153144031229
 20
145.30562838168251
 30
0.0
  0
VERTEX
  5
442A
  8
0
 10
151.1724040345928
 20
145.1665282425113
 30
0.0
  0
VERTEX
  5
442B
  8
0
 10
150.9758614255388
 20
145.0389369717235
 30
0.0
  0
VERTEX
  5
442C
  8
0
 10
150.77372484652619
 20
144.92367122052349
 30
0.0
  0
VERTEX
  5
442D
  8
0
 10
150.56187291560721
 20
144.81833911619159
 30
0.0
  0
VERTEX
  5
442E
  8
0
 10
150.34492073783389
 20
144.72515130162989
 30
0.0
  0
VERTEX
  5
442F
  8
0
 10
150.12185752412839
 20
144.64327045642119
 30
0.0
  0
VERTEX
  5
4430
  8
0
 10
149.8943007824584
 20
144.5728822638217
 30
0.0
  0
VERTEX
  5
4431
  8
0
 10
149.5831823839132
 20
144.49594126300221
 30
0.0
  0
VERTEX
  5
4432
  8
0
 10
149.2652278125795
 20
144.43787521530939
 30
0.0
  0
VERTEX
  5
4433
  8
0
 10
148.93851399388879
 20
144.39748088512479
 30
0.0
  0
VERTEX
  5
4434
  8
0
 10
148.60605652172691
 20
144.3743153336932
 30
0.0
  0
VERTEX
  5
4435
  8
0
 10
148.2900358062908
 20
144.36742425897901
 30
0.0
  0
SEQEND
  5
4436
  8
0
  0
POLYLINE
  5
3CB0
  8
0
 66
     1
 10
0.0
 20
0.0
 30
0.0
  0
VERTEX
  5
4437
  8
0
 10
148.2900358062908
 20
144.36742425897901
 30
0.0
  0
VERTEX
  5
4438
  8
0
 10
148.26132733068479
 20
144.36748025236159
 30
0.0
  0
VERTEX
  5
4439
  8
0
 10
147.9116654223098
 20
144.3766968783506
 30
0.0
  0
VERTEX
  5
443A
  8
0
 10
147.5555247283134
 20
144.40125589711491
 30
0.0
  0
VERTEX
  5
443B
  8
0
 10
147.19529195939469
 20
144.4403035046563
 30
0.0
  0
VERTEX
  5
443C
  8
0
 10
146.86895946186269
 20
144.48700781191889
 30
0.0
  0
VERTEX
  5
443D
  8
0
 10
146.53991337945129
 20
144.54419814501449
 30
0.0
  0
VERTEX
  5
443E
  8
0
 10
146.20728358828711
 20
144.6116131684509
 30
0.0
  0
VERTEX
  5
443F
  8
0
 10
145.87240015065061
 20
144.68861176188921
 30
0.0
  0
VERTEX
  5
4440
  8
0
 10
145.53235441836051
 20
144.77559489593591
 30
0.0
  0
VERTEX
  5
4441
  8
0
 10
145.19044913635011
 20
144.87148645144009
 30
0.0
  0
VERTEX
  5
4442
  8
0
 10
144.5000000000002
 20
145.08915390701389
 30
0.0
  0
SEQEND
  5
4443
  8
0
  0
LINE
  5
3CB1
  8
0
 10
139.50000000002461
 20
152.46181623907771
 30
0.0
 11
139.5
 21
147.53818376093929
 31
0.0
  0
LINE
  5
3CB2
  8
0
 10
144.5
 20
154.91084609298599
 30
0.0
 11
144.5000000000002
 21
145.08915390701389
 31
0.0
  0
LINE
  5
3CB3
  8
0
 10
132.0
 20
157.0
 30
0.0
 11
156.65685222729209
 21
157.0
 31
0.0
  0
ARC
  5
3CB4
  8
0
 10
156.65685222729209
 20
156.90000000000001
 30
0.0
 40
0.0999999999999953
 50
4.03639969363996
 51
90.0
  0
LINE
  5
3CB5
  8
0
 10
132.0
 20
157.0
 30
0.0
 11
132.0
 21
143.0
 31
0.0
  0
LINE
  5
3CB6
  8
0
 10
132.0
 20
143.0
 30
0.0
 11
156.65685222729209
 21
143.0
 31
0.0
  0
ARC
  5
3CB7
  8
0
 10
156.65685222729209
 20
143.09999999999999
 30
0.0
 40
0.1000000000000147
 50
270.0
 51
355.96360030634372
  0
POLYLINE
  5
3CBA
  8
0
 66
     1
 10
0.0
 20
0.0
 30
0.0
  0
VERTEX
  5
4444
  8
0
 10
144.5
 20
154.91084609298599
 30
0.0
  0
VERTEX
  5
4445
  8
0
 10
145.0314067415118
 20
155.0811601662335
 30
0.0
  0
VERTEX
  5
4446
  8
0
 10
145.55909571485691
 20
155.2315537834528
 30
0.0
  0
VERTEX
  5
4447
  8
0
 10
146.08579645921111
 20
155.3614855689695
 30
0.0
  0
VERTEX
  5
4448
  8
0
 10
146.6071584714922
 20
155.4682788555244
 30
0.0
  0
VERTEX
  5
4449
  8
0
 10
147.1349791138442
 20
155.55185323329951
 30
0.0
  0
VERTEX
  5
444A
  8
0
 10
147.655196355573
 20
155.6070786551422
 30
0.0
  0
VERTEX
  5
444B
  8
0
 10
148.17209491851449
 20
155.6316507876366
 30
0.0
  0
VERTEX
  5
444C
  8
0
 10
148.2889678560993
 20
155.632575626365
 30
0.0
  0
SEQEND
  5
444D
  8
0
  0
POLYLINE
  5
3CBB
  8
0
 66
     1
 10
0.0
 20
0.0
 30
0.0
  0
VERTEX
  5
444E
  8
0
 10
144.5000000000002
 20
145.08915390701389
 30
0.0
  0
VERTEX
  5
444F
  8
0
 10
143.88611389055029
 20
145.3077922411768
 30
0.0
  0
VERTEX
  5
4450
  8
0
 10
143.26934716588789
 20
145.5498124144035
 30
0.0
  0
VERTEX
  5
4451
  8
0
 10
142.64649449578391
 20
145.81607623453331
 30
0.0
  0
VERTEX
  5
4452
  8
0
 10
142.0231308125669
 20
146.1045166698249
 30
0.0
  0
VERTEX
  5
4453
  8
0
 10
141.38693173146791
 20
146.42220917696341
 30
0.0
  0
VERTEX
  5
4454
  8
0
 10
140.75388891134611
 20
146.7641057655409
 30
0.0
  0
VERTEX
  5
4455
  8
0
 10
140.33132686629719
 20
147.00840535906221
 30
0.0
  0
VERTEX
  5
4456
  8
0
 10
139.91267668215659
 20
147.2658940785019
 30
0.0
  0
VERTEX
  5
4457
  8
0
 10
139.5
 20
147.53818376093929
 30
0.0
  0
SEQEND
  5
4458
  8
0
  0
POLYLINE
  5
3CBC
  8
0
 66
     1
 10
0.0
 20
0.0
 30
0.0
  0
VERTEX
  5
4459
  8
0
 10
139.50000000002461
 20
152.46181623907771
 30
0.0
  0
VERTEX
  5
445A
  8
0
 10
140.0290584764615
 20
152.80733038682661
 30
0.0
  0
VERTEX
  5
445B
  8
0
 10
140.5667786920452
 20
153.12939285101041
 30
0.0
  0
VERTEX
  5
445C
  8
0
 10
141.1136262470346
 20
153.43352391519329
 30
0.0
  0
VERTEX
  5
445D
  8
0
 10
141.6636686626492
 20
153.71895140217251
 30
0.0
  0
VERTEX
  5
445E
  8
0
 10
142.2256392424276
 20
153.99163020712081
 30
0.0
  0
VERTEX
  5
445F
  8
0
 10
142.78798824514419
 20
154.24630396049639
 30
0.0
  0
VERTEX
  5
4460
  8
0
 10
143.3527414128751
 20
154.48419447710171
 30
0.0
  0
VERTEX
  5
4461
  8
0
 10
143.9158946748087
 20
154.70332184604521
 30
0.0
  0
VERTEX
  5
4462
  8
0
 10
144.5
 20
154.91084609298599
 30
0.0
  0
SEQEND
  5
4463
  8
0
  0
ARC
  5
3CBD
  8
0
 10
58.874999999994692
 20
149.99999999999969
 30
0.0
 40
98.125000000005343
 50
355.96360030635998
 51
4.03639969363996
  0
POLYLINE
  5
3CBE
  8
0
 66
     1
 10
0.0
 20
0.0
 30
0.0
  0
VERTEX
  5
4464
  8
0
 10
115.7110321439007
 20
144.367424373635
 30
0.0
  0
VERTEX
  5
4465
  8
0
 10
115.3214005463397
 20
144.37792220231481
 30
0.0
  0
VERTEX
  5
4466
  8
0
 10
115.0607986099549
 20
144.39754635942921
 30
0.0
  0
VERTEX
  5
4467
  8
0
 10
114.8037375654884
 20
144.42779552580129
 30
0.0
  0
VERTEX
  5
4468
  8
0
 10
114.549349580384
 20
144.46934961519241
 30
0.0
  0
VERTEX
  5
4469
  8
0
 10
114.2991127021351
 20
144.52257531350659
 30
0.0
  0
VERTEX
  5
446A
  8
0
 10
114.04944457070469
 20
144.58911842356241
 30
0.0
  0
VERTEX
  5
446B
  8
0
 10
113.8047597957829
 20
144.668735205366
 30
0.0
  0
VERTEX
  5
446C
  8
0
 10
113.5639053708102
 20
144.76260582196431
 30
0.0
  0
VERTEX
  5
446D
  8
0
 10
113.3289249793599
 20
144.87076355448281
 30
0.0
  0
VERTEX
  5
446E
  8
0
 10
112.9715027242095
 20
145.0715276382341
 30
0.0
  0
VERTEX
  5
446F
  8
0
 10
112.7983554261432
 20
145.18693877166939
 30
0.0
  0
VERTEX
  5
4470
  8
0
 10
112.6299467474912
 20
145.312302141808
 30
0.0
  0
VERTEX
  5
4471
  8
0
 10
112.4634354847519
 20
145.450536867761
 30
0.0
  0
VERTEX
  5
4472
  8
0
 10
112.30244355980081
 20
145.5994520280434
 30
0.0
  0
VERTEX
  5
4473
  8
0
 10
112.1461227475392
 20
145.7604454843999
 30
0.0
  0
VERTEX
  5
4474
  8
0
 10
111.99606268973891
 20
145.93247047669161
 30
0.0
  0
VERTEX
  5
4475
  8
0
 10
111.77391068591039
 20
146.2249148969718
 30
0.0
  0
VERTEX
  5
4476
  8
0
 10
111.569384221134
 20
146.54426368565751
 30
0.0
  0
VERTEX
  5
4477
  8
0
 10
111.379788152795
 20
146.89825091910041
 30
0.0
  0
VERTEX
  5
4478
  8
0
 10
111.2103457319475
 20
147.2813627793048
 30
0.0
  0
VERTEX
  5
4479
  8
0
 10
111.06839426833351
 20
147.67531025113809
 30
0.0
  0
VERTEX
  5
447A
  8
0
 10
110.9846715731458
 20
147.9557182598993
 30
0.0
  0
VERTEX
  5
447B
  8
0
 10
110.91178121227659
 20
148.2450160047735
 30
0.0
  0
VERTEX
  5
447C
  8
0
 10
110.8501770890543
 20
148.541568892378
 30
0.0
  0
VERTEX
  5
447D
  8
0
 10
110.8106612518709
 20
148.77385536504929
 30
0.0
  0
VERTEX
  5
447E
  8
0
 10
110.77802796604441
 20
149.009368954145
 30
0.0
  0
VERTEX
  5
447F
  8
0
 10
110.7387266556709
 20
149.41391126513099
 30
0.0
  0
VERTEX
  5
4480
  8
0
 10
110.7196761927385
 20
149.82296569344601
 30
0.0
  0
VERTEX
  5
4481
  8
0
 10
110.7214967427614
 20
150.24683884173459
 30
0.0
  0
VERTEX
  5
4482
  8
0
 10
110.7450547437082
 20
150.66867440970441
 30
0.0
  0
VERTEX
  5
4483
  8
0
 10
110.78556974084439
 20
151.04992207132449
 30
0.0
  0
VERTEX
  5
4484
  8
0
 10
110.84385757036669
 20
151.42405600308399
 30
0.0
  0
VERTEX
  5
4485
  8
0
 10
110.9219154165727
 20
151.79855511440371
 30
0.0
  0
VERTEX
  5
4486
  8
0
 10
111.01779520471879
 20
152.16074663143061
 30
0.0
  0
VERTEX
  5
4487
  8
0
 10
111.13121398380341
 20
152.5093543564133
 30
0.0
  0
VERTEX
  5
4488
  8
0
 10
111.2611875619824
 20
152.84182074891149
 30
0.0
  0
VERTEX
  5
4489
  8
0
 10
111.4106522815258
 20
153.16397340491829
 30
0.0
  0
VERTEX
  5
448A
  8
0
 10
111.57575987607279
 20
153.46656845498009
 30
0.0
  0
VERTEX
  5
448B
  8
0
 10
111.7703372203231
 20
153.7699661607744
 30
0.0
  0
VERTEX
  5
448C
  8
0
 10
111.9808656686274
 20
154.04904744532351
 30
0.0
  0
VERTEX
  5
448D
  8
0
 10
112.2111294279367
 20
154.3085897614244
 30
0.0
  0
VERTEX
  5
448E
  8
0
 10
112.4556097579362
 20
154.54259073915
 30
0.0
  0
VERTEX
  5
448F
  8
0
 10
112.63846855968769
 20
154.6943716183174
 30
0.0
  0
VERTEX
  5
4490
  8
0
 10
112.8275959654072
 20
154.8334717574887
 30
0.0
  0
VERTEX
  5
4491
  8
0
 10
113.0241385744612
 20
154.9610630282765
 30
0.0
  0
VERTEX
  5
4492
  8
0
 10
113.22627515347379
 20
155.07632877947651
 30
0.0
  0
VERTEX
  5
4493
  8
0
 10
113.4381270843928
 20
155.18166088380841
 30
0.0
  0
VERTEX
  5
4494
  8
0
 10
113.6550792621662
 20
155.27484869836999
 30
0.0
  0
VERTEX
  5
4495
  8
0
 10
113.8781424758716
 20
155.35672954357869
 30
0.0
  0
VERTEX
  5
4496
  8
0
 10
114.1056992175416
 20
155.4271177361783
 30
0.0
  0
VERTEX
  5
4497
  8
0
 10
114.4168176160868
 20
155.50405873699779
 30
0.0
  0
VERTEX
  5
4498
  8
0
 10
114.7347721874205
 20
155.56212478469061
 30
0.0
  0
VERTEX
  5
4499
  8
0
 10
115.0614860061112
 20
155.60251911487521
 30
0.0
  0
VERTEX
  5
449A
  8
0
 10
115.3939434782731
 20
155.62568466630671
 30
0.0
  0
VERTEX
  5
449B
  8
0
 10
115.7099641937092
 20
155.63257574102099
 30
0.0
  0
SEQEND
  5
449C
  8
0
  0
POLYLINE
  5
3CBF
  8
0
 66
     1
 10
0.0
 20
0.0
 30
0.0
  0
VERTEX
  5
449D
  8
0
 10
115.7099641937092
 20
155.63257574102099
 30
0.0
  0
VERTEX
  5
449E
  8
0
 10
115.73867266931521
 20
155.63251974763841
 30
0.0
  0
VERTEX
  5
449F
  8
0
 10
116.0883345776902
 20
155.6233031216494
 30
0.0
  0
VERTEX
  5
44A0
  8
0
 10
116.4444752716866
 20
155.59874410288501
 30
0.0
  0
VERTEX
  5
44A1
  8
0
 10
116.80470804060531
 20
155.5596964953437
 30
0.0
  0
VERTEX
  5
44A2
  8
0
 10
117.1310405381373
 20
155.51299218808111
 30
0.0
  0
VERTEX
  5
44A3
  8
0
 10
117.46008662054869
 20
155.45580185498551
 30
0.0
  0
VERTEX
  5
44A4
  8
0
 10
117.7927164117129
 20
155.3883868315491
 30
0.0
  0
VERTEX
  5
44A5
  8
0
 10
118.12759984934939
 20
155.31138823811071
 30
0.0
  0
VERTEX
  5
44A6
  8
0
 10
118.4676455816395
 20
155.224405104064
 30
0.0
  0
VERTEX
  5
44A7
  8
0
 10
118.8095508636499
 20
155.12851354855979
 30
0.0
  0
VERTEX
  5
44A8
  8
0
 10
119.4999999999999
 20
154.91084609298599
 30
0.0
  0
SEQEND
  5
44A9
  8
0
  0
LINE
  5
3CC0
  8
0
 10
119.5
 20
145.08915390701401
 30
0.0
 11
119.4999999999999
 21
154.91084609298599
 31
0.0
  0
LINE
  5
3CC1
  8
0
 10
124.4999999999753
 20
147.53818376092229
 30
0.0
 11
124.5
 21
152.4618162390606
 31
0.0
  0
LINE
  5
3CC2
  8
0
 10
132.0
 20
143.0
 30
0.0
 11
107.34314777270789
 21
143.0
 31
0.0
  0
ARC
  5
3CC3
  8
0
 10
107.34314777270789
 20
143.09999999999991
 30
0.0
 40
0.0999999999999953
 50
184.03639969363991
 51
270.0
  0
LINE
  5
3CC5
  8
0
 10
132.0
 20
157.0
 30
0.0
 11
107.34314777270789
 21
157.0
 31
0.0
  0
ARC
  5
3CC6
  8
0
 10
107.34314777270789
 20
156.89999999999989
 30
0.0
 40
0.1000000000000147
 50
90.0
 51
175.96360030634369
  0
POLYLINE
  5
3CC9
  8
0
 66
     1
 10
0.0
 20
0.0
 30
0.0
  0
VERTEX
  5
44AA
  8
0
 10
119.5
 20
145.08915390701401
 30
0.0
  0
VERTEX
  5
44AB
  8
0
 10
118.9685932584882
 20
144.9188398337665
 30
0.0
  0
VERTEX
  5
44AC
  8
0
 10
118.4409042851432
 20
144.7684462165472
 30
0.0
  0
VERTEX
  5
44AD
  8
0
 10
117.9142035407889
 20
144.6385144310305
 30
0.0
  0
VERTEX
  5
44AE
  8
0
 10
117.3928415285078
 20
144.5317211444756
 30
0.0
  0
VERTEX
  5
44AF
  8
0
 10
116.8650208861558
 20
144.4481467667004
 30
0.0
  0
VERTEX
  5
44B0
  8
0
 10
116.3448036444271
 20
144.3929213448578
 30
0.0
  0
VERTEX
  5
44B1
  8
0
 10
115.8279050814855
 20
144.36834921236331
 30
0.0
  0
VERTEX
  5
44B2
  8
0
 10
115.7110321439007
 20
144.367424373635
 30
0.0
  0
SEQEND
  5
44B3
  8
0
  0
POLYLINE
  5
3CCA
  8
0
 66
     1
 10
0.0
 20
0.0
 30
0.0
  0
VERTEX
  5
44B4
  8
0
 10
119.4999999999999
 20
154.91084609298599
 30
0.0
  0
VERTEX
  5
44B5
  8
0
 10
120.11388610944969
 20
154.69220775882309
 30
0.0
  0
VERTEX
  5
44B6
  8
0
 10
120.73065283411211
 20
154.45018758559641
 30
0.0
  0
VERTEX
  5
44B7
  8
0
 10
121.3535055042161
 20
154.1839237654666
 30
0.0
  0
VERTEX
  5
44B8
  8
0
 10
121.9768691874331
 20
153.89548333017501
 30
0.0
  0
VERTEX
  5
44B9
  8
0
 10
122.613068268532
 20
153.57779082303651
 30
0.0
  0
VERTEX
  5
44BA
  8
0
 10
123.2461110886539
 20
153.23589423445901
 30
0.0
  0
VERTEX
  5
44BB
  8
0
 10
123.6686731337029
 20
152.99159464093771
 30
0.0
  0
VERTEX
  5
44BC
  8
0
 10
124.0873233178434
 20
152.73410592149801
 30
0.0
  0
VERTEX
  5
44BD
  8
0
 10
124.5
 20
152.4618162390606
 30
0.0
  0
SEQEND
  5
44BE
  8
0
  0
POLYLINE
  5
3CCB
  8
0
 66
     1
 10
0.0
 20
0.0
 30
0.0
  0
VERTEX
  5
44BF
  8
0
 10
124.4999999999753
 20
147.53818376092229
 30
0.0
  0
VERTEX
  5
44C0
  8
0
 10
123.9709415235385
 20
147.19266961317331
 30
0.0
  0
VERTEX
  5
44C1
  8
0
 10
123.4332213079548
 20
146.87060714898951
 30
0.0
  0
VERTEX
  5
44C2
  8
0
 10
122.8863737529654
 20
146.56647608480671
 30
0.0
  0
VERTEX
  5
44C3
  8
0
 10
122.3363313373509
 20
146.28104859782741
 30
0.0
  0
VERTEX
  5
44C4
  8
0
 10
121.7743607575724
 20
146.00836979287911
 30
0.0
  0
VERTEX
  5
44C5
  8
0
 10
121.21201175485589
 20
145.75369603950361
 30
0.0
  0
VERTEX
  5
44C6
  8
0
 10
120.6472585871249
 20
145.51580552289829
 30
0.0
  0
VERTEX
  5
44C7
  8
0
 10
120.0841053251913
 20
145.29667815395479
 30
0.0
  0
VERTEX
  5
44C8
  8
0
 10
119.5
 20
145.08915390701401
 30
0.0
  0
SEQEND
  5
44C9
  8
0
  0
ARC
  5
3CCC
  8
0
 10
205.12500000000529
 20
150.00000000000031
 30
0.0
 40
98.125000000005343
 50
175.96360030636001
 51
184.03639969363991
  0
LINE
  5
3CD5
  8
2
 10
50.0
 20
62.499999999999993
 30
0.0
 11
63.999999999999972
 21
62.499999999999993
 31
0.0
  0
LINE
  5
3CD6
  8
2
 10
50.0
 20
87.499999999999986
 30
0.0
 11
63.999999999999972
 21
87.499999999999986
 31
0.0
  0
LINE
  5
3CDD
  8
1
 10
47.0
 20
75.0
 30
0.0
 11
66.999999999999943
 21
74.999999999999986
 31
0.0
  0
LINE
  5
3CDE
  8
1
 10
57.0
 20
46.999999999999979
 30
0.0
 11
57.0
 21
103.0
 31
0.0
  0
LINE
  5
3CDF
  8
1
 10
63.25
 20
93.749999999999986
 30
0.0
 11
50.75
 21
93.749999999999986
 31
0.0
  0
LINE
  5
3CE1
  8
1
 10
63.25
 20
56.249999999999993
 30
0.0
 11
50.75
 21
56.249999999999993
 31
0.0
  0
LINE
  5
3CE2
  8
0
 10
59.30940107675849
 20
56.249999999999993
 30
0.0
 11
58.154700538379217
 21
54.249999999999979
 31
0.0
  0
LINE
  5
3CE3
  8
0
 10
54.69059892324151
 20
56.249999999999993
 30
0.0
 11
55.845299461620748
 21
58.249999999999993
 31
0.0
  0
LINE
  5
3CE4
  8
0
 10
55.845299461620748
 20
54.249999999999979
 30
0.0
 11
54.69059892324151
 21
56.249999999999993
 31
0.0
  0
LINE
  5
3CE5
  8
0
 10
58.154700538379217
 20
58.249999999999993
 30
0.0
 11
59.30940107675849
 21
56.249999999999993
 31
0.0
  0
LINE
  5
3CE6
  8
0
 10
55.845299461620748
 20
58.249999999999993
 30
0.0
 11
58.154700538379217
 21
58.249999999999993
 31
0.0
  0
LINE
  5
3CE7
  8
0
 10
58.154700538379217
 20
54.249999999999979
 30
0.0
 11
55.845299461620748
 21
54.249999999999979
 31
0.0
  0
LINE
  5
3CF1
  8
0
 10
59.30940107675849
 20
93.749999999999986
 30
0.0
 11
58.154700538379217
 21
91.749999999999986
 31
0.0
  0
LINE
  5
3CF2
  8
0
 10
54.69059892324151
 20
93.749999999999986
 30
0.0
 11
55.845299461620748
 21
95.749999999999986
 31
0.0
  0
LINE
  5
3CF3
  8
0
 10
58.154700538379217
 20
95.749999999999986
 30
0.0
 11
59.30940107675849
 21
93.749999999999986
 31
0.0
  0
LINE
  5
3CF4
  8
0
 10
55.845299461620748
 20
91.749999999999986
 30
0.0
 11
54.69059892324151
 21
93.749999999999986
 31
0.0
  0
LINE
  5
3CF5
  8
0
 10
55.845299461620748
 20
95.749999999999986
 30
0.0
 11
58.154700538379217
 21
95.749999999999986
 31
0.0
  0
LINE
  5
3CF6
  8
0
 10
58.154700538379217
 20
91.749999999999986
 30
0.0
 11
55.845299461620748
 21
91.749999999999986
 31
0.0
  0
ARC
  5
3D00
  8
0
 10
50.100000000000023
 20
50.343147772707809
 30
0.0
 40
0.1000000000000236
 50
180.0
 51
265.9636003063406
  0
ARC
  5
3D01
  8
0
 10
56.999999999999773
 20
148.12500000000389
 30
0.0
 40
98.125000000003894
 50
265.9636003063568
 51
274.03639969363991
  0
ARC
  5
3D02
  8
0
 10
63.899999999999999
 20
50.343147772707809
 30
0.0
 40
0.0999999999999953
 50
274.03639969363991
 51
0.0
  0
ARC
  5
3D03
  8
0
 10
63.899999999999999
 20
99.656852227292163
 30
0.0
 40
0.0999999999999943
 50
0.0
 51
85.963600306360135
  0
ARC
  5
3D04
  8
0
 10
56.999999999999737
 20
1.8749999999960629
 30
0.0
 40
98.125000000003894
 50
85.963600306356867
 51
94.036399693643133
  0
ARC
  5
3D05
  8
0
 10
50.100000000000023
 20
99.656852227292163
 30
0.0
 40
0.1000000000000228
 50
94.036399693659448
 51
180.0
  0
ARC
  5
3D06
  8
0
 10
57.0
 20
93.749999999999986
 30
0.0
 40
5.6325757458066761
 50
29.32389771597585
 51
150.67610228402631
  0
CIRCLE
  5
3D07
  8
0
 10
57.0
 20
93.749999999999986
 30
0.0
 40
4.25
  0
ARC
  5
3D08
  8
0
 10
57.0
 20
56.249999999999993
 30
0.0
 40
5.6325757458066716
 50
209.32389771597369
 51
330.67610228402629
  0
CIRCLE
  5
3D09
  8
0
 10
57.0
 20
56.249999999999993
 30
0.0
 40
4.25
  0
LINE
  5
3D0B
  8
0
 10
50.0
 20
50.343147772707859
 30
0.0
 11
50.0
 21
99.656852227292163
 31
0.0
  0
LINE
  5
3D0E
  8
0
 10
63.999999999999972
 20
50.343147772707809
 30
0.0
 11
63.999999999999972
 21
99.656852227292163
 31
0.0
  0
POLYLINE
  5
3D14
  8
0
 66
     1
 10
0.0
 20
0.0
 30
0.0
  0
VERTEX
  5
44CA
  8
0
 10
61.910846092985963
 20
96.508532251624786
 30
0.0
  0
VERTEX
  5
44CB
  8
0
 10
62.081160166233467
 20
96.180587579348796
 30
0.0
  0
VERTEX
  5
44CC
  8
0
 10
62.231553783452817
 20
95.83728401112306
 30
0.0
  0
VERTEX
  5
44CD
  8
0
 10
62.361485568969528
 20
95.47638651919992
 30
0.0
  0
VERTEX
  5
44CE
  8
0
 10
62.468278855524403
 20
95.100494683615736
 30
0.0
  0
VERTEX
  5
44CF
  8
0
 10
62.551853233299568
 20
94.700188552780546
 30
0.0
  0
VERTEX
  5
44D0
  8
0
 10
62.607078655142139
 20
94.285330260025304
 30
0.0
  0
VERTEX
  5
44D1
  8
0
 10
62.631650787636659
 20
93.852105694445683
 30
0.0
  0
VERTEX
  5
44D2
  8
0
 10
62.622077797685222
 20
93.406269336508444
 30
0.0
  0
VERTEX
  5
44D3
  8
0
 10
62.602453640570701
 20
93.16826025950273
 30
0.0
  0
VERTEX
  5
44D4
  8
0
 10
62.572204474198678
 20
92.927536122392084
 30
0.0
  0
VERTEX
  5
44D5
  8
0
 10
62.530650384807529
 20
92.683317489423459
 30
0.0
  0
VERTEX
  5
44D6
  8
0
 10
62.47742468649335
 20
92.437091649793189
 30
0.0
  0
VERTEX
  5
44D7
  8
0
 10
62.410881576437497
 20
92.185307970519077
 30
0.0
  0
VERTEX
  5
44D8
  8
0
 10
62.331264794633881
 20
91.932439761177974
 30
0.0
  0
VERTEX
  5
44D9
  8
0
 10
62.237394178035537
 20
91.677418119290152
 30
0.0
  0
VERTEX
  5
44DA
  8
0
 10
62.129236445517051
 20
91.422588773287117
 30
0.0
  0
VERTEX
  5
44DB
  8
0
 10
61.928472361765699
 20
91.023084212601859
 30
0.0
  0
VERTEX
  5
44DC
  8
0
 10
61.81306122833044
 20
90.824194638931473
 30
0.0
  0
VERTEX
  5
44DD
  8
0
 10
61.68769785819179
 20
90.627277098019448
 30
0.0
  0
VERTEX
  5
44DE
  8
0
 10
61.549463132238849
 20
90.429115563509839
 30
0.0
  0
VERTEX
  5
44DF
  8
0
 10
61.400547971956449
 20
90.234166232774996
 30
0.0
  0
VERTEX
  5
44E0
  8
0
 10
61.239554515599991
 20
90.041623389005764
 30
0.0
  0
VERTEX
  5
44E1
  8
0
 10
61.067529523308188
 20
89.853705207602246
 30
0.0
  0
VERTEX
  5
44E2
  8
0
 10
60.775085103027983
 20
89.569763030727515
 30
0.0
  0
VERTEX
  5
44E3
  8
0
 10
60.455736314342317
 20
89.302102062998117
 30
0.0
  0
VERTEX
  5
44E4
  8
0
 10
60.101749080899417
 20
89.048397914392453
 30
0.0
  0
VERTEX
  5
44E5
  8
0
 10
59.718637220694937
 20
88.816956193737823
 30
0.0
  0
VERTEX
  5
44E6
  8
0
 10
59.324689748861687
 20
88.619529543620075
 30
0.0
  0
VERTEX
  5
44E7
  8
0
 10
59.044281740100502
 20
88.501539885199904
 30
0.0
  0
VERTEX
  5
44E8
  8
0
 10
58.75498399522624
 20
88.397855191358403
 30
0.0
  0
VERTEX
  5
44E9
  8
0
 10
58.458431107621813
 20
88.309513970556438
 30
0.0
  0
VERTEX
  5
44EA
  8
0
 10
58.226144634950487
 20
88.252506881059205
 30
0.0
  0
VERTEX
  5
44EB
  8
0
 10
57.990631045854848
 20
88.205222307139977
 30
0.0
  0
VERTEX
  5
44EC
  8
0
 10
57.586088734868859
 20
88.148037309218154
 30
0.0
  0
VERTEX
  5
44ED
  8
0
 10
57.17703430655385
 20
88.120207074274134
 30
0.0
  0
VERTEX
  5
44EE
  8
0
 10
56.753161158265179
 20
88.122879009205164
 30
0.0
  0
VERTEX
  5
44EF
  8
0
 10
56.331325590295471
 20
88.157256123685258
 30
0.0
  0
VERTEX
  5
44F0
  8
0
 10
55.950077928675341
 20
88.21617224763672
 30
0.0
  0
VERTEX
  5
44F1
  8
0
 10
55.575943996915782
 20
88.30041524221069
 30
0.0
  0
VERTEX
  5
44F2
  8
0
 10
55.201444885596167
 20
88.412323416083765
 30
0.0
  0
VERTEX
  5
44F3
  8
0
 10
54.839253368569189
 20
88.548357612540997
 30
0.0
  0
VERTEX
  5
44F4
  8
0
 10
54.490645643586561
 20
88.707303643851546
 30
0.0
  0
VERTEX
  5
44F5
  8
0
 10
54.15817925108837
 20
88.886877097655756
 30
0.0
  0
VERTEX
  5
44F6
  8
0
 10
53.836026595081528
 20
89.090068756696297
 30
0.0
  0
VERTEX
  5
44F7
  8
0
 10
53.533431545019774
 20
89.310539145438312
 30
0.0
  0
VERTEX
  5
44F8
  8
0
 10
53.230033839225428
 20
89.565140279376834
 30
0.0
  0
VERTEX
  5
44F9
  8
0
 10
52.950952554676377
 20
89.834502034508532
 30
0.0
  0
VERTEX
  5
44FA
  8
0
 10
52.691410238575493
 20
90.122078858979805
 30
0.0
  0
VERTEX
  5
44FB
  8
0
 10
52.457409260849829
 20
90.419717893505606
 30
0.0
  0
VERTEX
  5
44FC
  8
0
 10
52.305628381682432
 20
90.637322923087865
 30
0.0
  0
VERTEX
  5
44FD
  8
0
 10
52.166528242511191
 20
90.858035217744188
 30
0.0
  0
VERTEX
  5
44FE
  8
0
 10
52.038936971723409
 20
91.082839534691729
 30
0.0
  0
VERTEX
  5
44FF
  8
0
 10
51.923671220523431
 20
91.309345240533318
 30
0.0
  0
VERTEX
  5
4500
  8
0
 10
51.818339116191538
 20
91.541768314499507
 30
0.0
  0
VERTEX
  5
4501
  8
0
 10
51.725151301629921
 20
91.774682116328336
 30
0.0
  0
VERTEX
  5
4502
  8
0
 10
51.643270456421192
 20
92.008922720316022
 30
0.0
  0
VERTEX
  5
4503
  8
0
 10
51.572882263821633
 20
92.242584128414464
 30
0.0
  0
VERTEX
  5
4504
  8
0
 10
51.495941263002123
 20
92.55365811630962
 30
0.0
  0
VERTEX
  5
4505
  8
0
 10
51.437875215309383
 20
92.861924883931465
 30
0.0
  0
VERTEX
  5
4506
  8
0
 10
51.397480885124793
 20
93.168893447900857
 30
0.0
  0
VERTEX
  5
4507
  8
0
 10
51.374315333693197
 20
93.471465320776275
 30
0.0
  0
VERTEX
  5
4508
  8
0
 10
51.367480252361581
 20
93.775136224283784
 30
0.0
  0
VERTEX
  5
4509
  8
0
 10
51.376696878350657
 20
94.073065835857776
 30
0.0
  0
VERTEX
  5
450A
  8
0
 10
51.401255897114957
 20
94.366423716116444
 30
0.0
  0
VERTEX
  5
450B
  8
0
 10
51.440303504656328
 20
94.653152485415873
 30
0.0
  0
VERTEX
  5
450C
  8
0
 10
51.487007811918907
 20
94.904482780008649
 30
0.0
  0
VERTEX
  5
450D
  8
0
 10
51.544198145014548
 20
95.150048446086132
 30
0.0
  0
VERTEX
  5
450E
  8
0
 10
51.611613168450951
 20
95.390488186180534
 30
0.0
  0
VERTEX
  5
450F
  8
0
 10
51.688611761889319
 20
95.62485053172496
 30
0.0
  0
VERTEX
  5
4510
  8
0
 10
51.775594895936017
 20
95.855114334060588
 30
0.0
  0
VERTEX
  5
4511
  8
0
 10
51.87148645144017
 20
96.079003717147927
 30
0.0
  0
VERTEX
  5
4512
  8
0
 10
52.089153907014008
 20
96.508532251624715
 30
0.0
  0
SEQEND
  5
4513
  8
0
  0
POLYLINE
  5
3D15
  8
0
 66
     1
 10
0.0
 20
0.0
 30
0.0
  0
VERTEX
  5
4514
  8
0
 10
52.089153907014008
 20
53.49146774837525
 30
0.0
  0
VERTEX
  5
4515
  8
0
 10
51.918839833766519
 20
53.819412420651169
 30
0.0
  0
VERTEX
  5
4516
  8
0
 10
51.768446216547197
 20
54.162715988876911
 30
0.0
  0
VERTEX
  5
4517
  8
0
 10
51.638514431030472
 20
54.523613480800002
 30
0.0
  0
VERTEX
  5
4518
  8
0
 10
51.531721144475632
 20
54.899505316384179
 30
0.0
  0
VERTEX
  5
4519
  8
0
 10
51.448146766700432
 20
55.299811447219312
 30
0.0
  0
VERTEX
  5
451A
  8
0
 10
51.392921344857847
 20
55.714669739974489
 30
0.0
  0
VERTEX
  5
451B
  8
0
 10
51.368349212363341
 20
56.147894305554061
 30
0.0
  0
VERTEX
  5
451C
  8
0
 10
51.377922202314743
 20
56.593730663491307
 30
0.0
  0
VERTEX
  5
451D
  8
0
 10
51.397546359429271
 20
56.831739740497007
 30
0.0
  0
VERTEX
  5
451E
  8
0
 10
51.427795525801287
 20
57.07246387760766
 30
0.0
  0
VERTEX
  5
451F
  8
0
 10
51.469349615192407
 20
57.316682510576278
 30
0.0
  0
VERTEX
  5
4520
  8
0
 10
51.5225753135066
 20
57.562908350206541
 30
0.0
  0
VERTEX
  5
4521
  8
0
 10
51.589118423562411
 20
57.814692029480661
 30
0.0
  0
VERTEX
  5
4522
  8
0
 10
51.668735205366033
 20
58.06756023882177
 30
0.0
  0
VERTEX
  5
4523
  8
0
 10
51.762605821964307
 20
58.322581880709592
 30
0.0
  0
VERTEX
  5
4524
  8
0
 10
51.870763554482828
 20
58.57741122671267
 30
0.0
  0
VERTEX
  5
4525
  8
0
 10
52.071527638234187
 20
58.976915787397942
 30
0.0
  0
VERTEX
  5
4526
  8
0
 10
52.186938771669453
 20
59.175805361068321
 30
0.0
  0
VERTEX
  5
4527
  8
0
 10
52.312302141808061
 20
59.372722901980339
 30
0.0
  0
VERTEX
  5
4528
  8
0
 10
52.450536867761002
 20
59.570884436489997
 30
0.0
  0
VERTEX
  5
4529
  8
0
 10
52.599452028043402
 20
59.765833767224798
 30
0.0
  0
VERTEX
  5
452A
  8
0
 10
52.760445484399867
 20
59.958376610994023
 30
0.0
  0
VERTEX
  5
452B
  8
0
 10
52.932470476691662
 20
60.146294792397597
 30
0.0
  0
VERTEX
  5
452C
  8
0
 10
53.224914896971853
 20
60.430236969272343
 30
0.0
  0
VERTEX
  5
452D
  8
0
 10
53.54426368565754
 20
60.697897937001741
 30
0.0
  0
VERTEX
  5
452E
  8
0
 10
53.898250919100398
 20
60.951602085607412
 30
0.0
  0
VERTEX
  5
452F
  8
0
 10
54.281362779304857
 20
61.183043806262091
 30
0.0
  0
VERTEX
  5
4530
  8
0
 10
54.675310251138143
 20
61.380470456379818
 30
0.0
  0
VERTEX
  5
4531
  8
0
 10
54.955718259899328
 20
61.498460114800068
 30
0.0
  0
VERTEX
  5
4532
  8
0
 10
55.245016004773561
 20
61.602144808641569
 30
0.0
  0
VERTEX
  5
4533
  8
0
 10
55.541568892377988
 20
61.690486029443541
 30
0.0
  0
VERTEX
  5
4534
  8
0
 10
55.773855365049371
 20
61.74749311894071
 30
0.0
  0
VERTEX
  5
4535
  8
0
 10
56.009368954144982
 20
61.794777692859988
 30
0.0
  0
VERTEX
  5
4536
  8
0
 10
56.413911265130992
 20
61.851962690781797
 30
0.0
  0
VERTEX
  5
4537
  8
0
 10
56.822965693446001
 20
61.879792925725823
 30
0.0
  0
VERTEX
  5
4538
  8
0
 10
57.246838841734643
 20
61.877120990794872
 30
0.0
  0
VERTEX
  5
4539
  8
0
 10
57.66867440970438
 20
61.842743876314771
 30
0.0
  0
VERTEX
  5
453A
  8
0
 10
58.049922071324517
 20
61.783827752363251
 30
0.0
  0
VERTEX
  5
453B
  8
0
 10
58.424056003084047
 20
61.699584757789331
 30
0.0
  0
VERTEX
  5
453C
  8
0
 10
58.798555114403683
 20
61.587676583916263
 30
0.0
  0
VERTEX
  5
453D
  8
0
 10
59.160746631430669
 20
61.451642387459053
 30
0.0
  0
VERTEX
  5
453E
  8
0
 10
59.509354356413297
 20
61.292696356148483
 30
0.0
  0
VERTEX
  5
453F
  8
0
 10
59.841820748911481
 20
61.113122902344273
 30
0.0
  0
VERTEX
  5
4540
  8
0
 10
60.163973404918323
 20
60.90993124330371
 30
0.0
  0
VERTEX
  5
4541
  8
0
 10
60.46656845498012
 20
60.689460854561773
 30
0.0
  0
VERTEX
  5
4542
  8
0
 10
60.76996616077443
 20
60.434859720623237
 30
0.0
  0
VERTEX
  5
4543
  8
0
 10
61.049047445323509
 20
60.165497965491546
 30
0.0
  0
VERTEX
  5
4544
  8
0
 10
61.308589761424372
 20
59.877921141020281
 30
0.0
  0
VERTEX
  5
4545
  8
0
 10
61.542590739150057
 20
59.580282106494487
 30
0.0
  0
VERTEX
  5
4546
  8
0
 10
61.694371618317433
 20
59.362677076912277
 30
0.0
  0
VERTEX
  5
4547
  8
0
 10
61.833471757488702
 20
59.141964782255897
 30
0.0
  0
VERTEX
  5
4548
  8
0
 10
61.96106302827647
 20
58.91716046530842
 30
0.0
  0
VERTEX
  5
4549
  8
0
 10
62.076328779476491
 20
58.690654759466817
 30
0.0
  0
VERTEX
  5
454A
  8
0
 10
62.18166088380837
 20
58.45823168550065
 30
0.0
  0
VERTEX
  5
454B
  8
0
 10
62.274848698369993
 20
58.225317883671821
 30
0.0
  0
VERTEX
  5
454C
  8
0
 10
62.356729543578723
 20
57.99107727968412
 30
0.0
  0
VERTEX
  5
454D
  8
0
 10
62.42711773617831
 20
57.757415871585678
 30
0.0
  0
VERTEX
  5
454E
  8
0
 10
62.504058736997791
 20
57.446341883690579
 30
0.0
  0
VERTEX
  5
454F
  8
0
 10
62.56212478469056
 20
57.138075116068748
 30
0.0
  0
VERTEX
  5
4550
  8
0
 10
62.60251911487515
 20
56.831106552099342
 30
0.0
  0
VERTEX
  5
4551
  8
0
 10
62.625684666306768
 20
56.528534679223903
 30
0.0
  0
VERTEX
  5
4552
  8
0
 10
62.632519747638383
 20
56.2248637757164
 30
0.0
  0
VERTEX
  5
4553
  8
0
 10
62.623303121649343
 20
55.92693416414248
 30
0.0
  0
VERTEX
  5
4554
  8
0
 10
62.598744102885028
 20
55.633576283883748
 30
0.0
  0
VERTEX
  5
4555
  8
0
 10
62.559696495343701
 20
55.346847514584319
 30
0.0
  0
VERTEX
  5
4556
  8
0
 10
62.512992188081142
 20
55.095517219991549
 30
0.0
  0
VERTEX
  5
4557
  8
0
 10
62.455801854985481
 20
54.849951553914011
 30
0.0
  0
VERTEX
  5
4558
  8
0
 10
62.388386831549091
 20
54.609511813819587
 30
0.0
  0
VERTEX
  5
4559
  8
0
 10
62.311388238110709
 20
54.375149468275239
 30
0.0
  0
VERTEX
  5
455A
  8
0
 10
62.224405104063997
 20
54.144885665939491
 30
0.0
  0
VERTEX
  5
455B
  8
0
 10
62.12851354855988
 20
53.920996282852151
 30
0.0
  0
VERTEX
  5
455C
  8
0
 10
61.91084609298602
 20
53.491467748375371
 30
0.0
  0
SEQEND
  5
455D
  8
0
  0
LINE
  5
3FF7
  8
2
 10
140.5
 20
52.250000000000099
 30
0.0
 11
140.5
 21
60.249999999999837
 31
0.0
  0
LINE
  5
3FF8
  8
2
 10
144.4422649730802
 20
52.249999999999957
 30
0.0
 11
144.5
 21
52.350000000001337
 31
0.0
  0
ARC
  5
3FF9
  8
2
 10
138.66555596675261
 20
54.249999999999957
 30
0.0
 40
5.7767090063276196
 50
339.74384199965812
 51
20.256158000341749
  0
LINE
  5
3FFA
  8
2
 10
144.4422649730802
 20
52.249999999999787
 30
0.0
 11
140.5
 21
52.250000000000099
 31
0.0
  0
LINE
  5
3FFB
  8
2
 10
144.4422649730802
 20
60.250000000000121
 30
0.0
 11
140.5
 21
60.249999999999837
 31
0.0
  0
ARC
  5
3FFC
  8
2
 10
138.66555596675261
 20
58.24999999999995
 30
0.0
 40
5.7767090063276196
 50
339.74384199965812
 51
20.256158000341749
  0
LINE
  5
3FFD
  8
2
 10
144.4422649730802
 20
60.24999999999995
 30
0.0
 11
144.5
 21
60.14999999999857
 31
0.0
  0
LINE
  5
3FFF
  8
2
 10
140.5
 20
56.25000000000378
 30
0.0
 11
144.0849993831734
 21
56.249999999992681
 31
0.0
  0
LINE
  5
40C9
  8
2
 10
125.09999999999999
 20
96.25
 30
0.0
 11
140.5
 21
96.25
 31
0.0
  0
LINE
  5
40CA
  8
2
 10
140.5
 20
91.249999999999986
 30
0.0
 11
125.09999999999999
 21
91.249999999999986
 31
0.0
  0
ARC
  5
40CB
  8
2
 10
125.09999999999999
 20
96.449999999999974
 30
0.0
 40
0.1999999999999957
 50
249.4439547804117
 51
270.0
  0
ARC
  5
40CC
  8
2
 10
125.09999999999999
 20
91.050000000000111
 30
0.0
 40
0.1999999999998861
 50
90.0
 51
110.5560452195917
  0
LINE
  5
40CD
  8
2
 10
125.09999999999999
 20
91.249999999999986
 30
0.0
 11
125.09999999999999
 21
96.25
 31
0.0
  0
LINE
  5
40CE
  8
2
 10
125.0297753116823
 20
91.237265835513796
 30
0.0
 11
124.62977531168229
 21
91.087265835513776
 31
0.0
  0
LINE
  5
40CF
  8
2
 10
124.62977531168229
 20
96.412734164486196
 30
0.0
 11
125.0297753116823
 21
96.262734164486176
 31
0.0
  0
ARC
  5
40D0
  8
2
 10
124.7
 20
96.600000000000009
 30
0.0
 40
0.1999999999999996
 50
180.0
 51
249.44395478041869
  0
ARC
  5
40D1
  8
2
 10
124.7
 20
90.899999999999963
 30
0.0
 40
0.1999999999999931
 50
110.55604521958131
 51
180.0
  0
ARC
  5
40D2
  8
2
 10
120.0
 20
97.5
 30
0.0
 40
0.5000000000000018
 50
90.0
 51
180.0
  0
ARC
  5
40D3
  8
2
 10
120.0
 20
89.999999999999986
 30
0.0
 40
0.4999999999999983
 50
180.0
 51
270.0
  0
LINE
  5
40D4
  8
2
 10
124.5
 20
89.499999999999986
 30
0.0
 11
124.5
 21
97.999999999999986
 31
0.0
  0
LINE
  5
40D5
  8
2
 10
140.5
 20
95.759499999999974
 30
0.0
 11
126.90000000000001
 21
95.759499999999974
 31
0.0
  0
LINE
  5
40D6
  8
2
 10
126.90000000000001
 20
96.25
 30
0.0
 11
126.90000000000001
 21
91.249999999999986
 31
0.0
  0
LINE
  5
40D7
  8
2
 10
140.5
 20
91.740499999999983
 30
0.0
 11
126.90000000000001
 21
91.740499999999983
 31
0.0
  0
LINE
  5
40D8
  8
2
 10
144.5
 20
96.508532251624786
 30
0.0
 11
144.5
 21
88.117424254193324
 31
0.0
  0
LINE
  5
40D9
  8
2
 10
153.28222687914729
 20
88.117424254193324
 30
0.0
 11
144.5
 21
88.117424254193324
 31
0.0
  0
LINE
  5
40DA
  8
2
 10
119.5
 20
97.999999999999986
 30
0.0
 11
124.5
 21
97.999999999999986
 31
0.0
  0
LINE
  5
40DB
  8
2
 10
124.5
 20
89.499999999999986
 30
0.0
 11
119.5
 21
89.499999999999986
 31
0.0
  0
LINE
  5
40DC
  8
2
 10
119.5
 20
88.117424254193324
 30
0.0
 11
110.7177731208526
 21
88.117424254193324
 31
0.0
  0
LINE
  5
40DD
  8
2
 10
119.5
 20
88.117424254193324
 30
0.0
 11
119.5
 21
96.508532251624715
 31
0.0
  0
LINE
  5
40DE
  8
2
 10
140.5
 20
97.749999999999872
 30
0.0
 11
140.5
 21
89.750000000000128
 31
0.0
  0
LINE
  5
40DF
  8
2
 10
144.4422649730802
 20
97.750000000000014
 30
0.0
 11
144.5
 21
97.649999999998627
 31
0.0
  0
ARC
  5
40E0
  8
2
 10
138.66555596675261
 20
95.750000000000014
 30
0.0
 40
5.7767090063276196
 50
339.74384199965777
 51
20.256158000342189
  0
LINE
  5
40E1
  8
2
 10
144.4422649730802
 20
97.750000000000185
 30
0.0
 11
140.5
 21
97.749999999999872
 31
0.0
  0
LINE
  5
40E2
  8
2
 10
144.4422649730802
 20
89.749999999999844
 30
0.0
 11
140.5
 21
89.750000000000128
 31
0.0
  0
ARC
  5
40E3
  8
2
 10
138.66555596675261
 20
91.750000000000014
 30
0.0
 40
5.7767090063276196
 50
339.74384199965777
 51
20.256158000342189
  0
LINE
  5
40E4
  8
2
 10
144.4422649730802
 20
89.750000000000014
 30
0.0
 11
144.5
 21
89.850000000001387
 31
0.0
  0
LINE
  5
40E5
  8
2
 10
140.5
 20
93.749999999996191
 30
0.0
 11
144.0849993831734
 21
93.750000000007304
 31
0.0
  0
ENDSEC
  0
EOF
