  0
SECTION
  2
HEADER
  9
$ACADVER
  1
AC1009
  9
$INSBASE
 10
0.0
 20
0.0
 30
0.0
  9
$EXTMIN
 10
0.0
 20
-2.960436562073669
 30
0.0
  9
$EXTMAX
 10
144.4999999999971
 20
144.50000000000011
 30
0.0
  9
$LIMMIN
 10
0.0
 20
0.0
  9
$LIMMAX
 10
275.0
 20
175.0
  9
$ORTHOMODE
 70
     1
  9
$REGENMODE
 70
     1
  9
$FILLMODE
 70
     1
  9
$QTEXTMODE
 70
     0
  9
$MIRRTEXT
 70
     0
  9
$DRAGMODE
 70
     2
  9
$LTSCALE
 40
5.0
  9
$OSMODE
 70
    37
  9
$ATTMODE
 70
     1
  9
$TEXTSIZE
 40
4.000000000000048
  9
$TRACEWID
 40
0.05
  9
$TEXTSTYLE
  7
STANDARD
  9
$CLAYER
  8
0
  9
$CELTYPE
  6
BYLAYER
  9
$CECOLOR
 62
   256
  9
$DIMSCALE
 40
1.0
  9
$DIMASZ
 40
3.0
  9
$DIMEXO
 40
2.0
  9
$DIMDLI
 40
0.38
  9
$DIMRND
 40
0.0
  9
$DIMDLE
 40
0.0
  9
$DIMEXE
 40
2.0
  9
$DIMTP
 40
0.0
  9
$DIMTM
 40
0.0
  9
$DIMTXT
 40
3.0
  9
$DIMCEN
 40
0.0
  9
$DIMTSZ
 40
0.0
  9
$DIMTOL
 70
     0
  9
$DIMLIM
 70
     0
  9
$DIMTIH
 70
     0
  9
$DIMTOH
 70
     0
  9
$DIMSE1
 70
     0
  9
$DIMSE2
 70
     0
  9
$DIMTAD
 70
     1
  9
$DIMZIN
 70
     0
  9
$DIMBLK
  1

  9
$DIMASO
 70
     0
  9
$DIMSHO
 70
     0
  9
$DIMPOST
  1

  9
$DIMAPOST
  1

  9
$DIMALT
 70
     0
  9
$DIMALTD
 70
     2
  9
$DIMALTF
 40
25.399999999999999
  9
$DIMLFAC
 40
1.0
  9
$DIMTOFL
 70
     0
  9
$DIMTVP
 40
1.6000000000000001
  9
$DIMTIX
 70
     1
  9
$DIMSOXD
 70
     0
  9
$DIMSAH
 70
     0
  9
$DIMBLK1
  1

  9
$DIMBLK2
  1

  9
$DIMSTYLE
  2
STANDARD
  9
$DIMCLRD
 70
     4
  9
$DIMCLRE
 70
     4
  9
$DIMCLRT
 70
     4
  9
$DIMTFAC
 40
1.0
  9
$DIMGAP
 40
1.1999999999999991
  9
$LUNITS
 70
     2
  9
$LUPREC
 70
     1
  9
$SKETCHINC
 40
0.1
  9
$FILLETRAD
 40
22.0
  9
$AUNITS
 70
     0
  9
$AUPREC
 70
     1
  9
$MENU
  1
E:\r13\win\SUPPORT\ACAD
  9
$ELEVATION
 40
0.0
  9
$PELEVATION
 40
0.0
  9
$THICKNESS
 40
0.0
  9
$LIMCHECK
 70
     0
  9
$BLIPMODE
 70
     0
  9
$CHAMFERA
 40
1.1999999999999991
  9
$CHAMFERB
 40
1.1999999999999991
  9
$SKPOLY
 70
     0
  9
$TDCREATE
 40
2449954.6020138888
  9
$TDUPDATE
 40
2457164.3889970598
  9
$TDINDWG
 40
0.4446640046
  9
$TDUSRTIMER
 40
0.4446640046
  9
$USRTIMER
 70
     1
  9
$ANGBASE
 50
0.0
  9
$ANGDIR
 70
     0
  9
$PDMODE
 70
     0
  9
$PDSIZE
 40
0.0
  9
$PLINEWID
 40
0.0
  9
$COORDS
 70
     1
  9
$SPLFRAME
 70
     0
  9
$SPLINETYPE
 70
     6
  9
$SPLINESEGS
 70
     8
  9
$ATTDIA
 70
     0
  9
$ATTREQ
 70
     1
  9
$HANDLING
 70
     1
  9
$HANDSEED
  5
283F
  9
$SURFTAB1
 70
     6
  9
$SURFTAB2
 70
     6
  9
$SURFTYPE
 70
     6
  9
$SURFU
 70
     6
  9
$SURFV
 70
     6
  9
$UCSNAME
  2

  9
$UCSORG
 10
0.0
 20
0.0
 30
0.0
  9
$UCSXDIR
 10
1.0
 20
0.0
 30
0.0
  9
$UCSYDIR
 10
0.0
 20
1.0
 30
0.0
  9
$PUCSNAME
  2

  9
$PUCSORG
 10
0.0
 20
0.0
 30
0.0
  9
$PUCSXDIR
 10
1.0
 20
0.0
 30
0.0
  9
$PUCSYDIR
 10
0.0
 20
1.0
 30
0.0
  9
$USERI1
 70
     4
  9
$USERI2
 70
     1
  9
$USERI3
 70
     1
  9
$USERI4
 70
     0
  9
$USERI5
 70
     0
  9
$USERR1
 40
1.0
  9
$USERR2
 40
3.0
  9
$USERR3
 40
3.0
  9
$USERR4
 40
3.0
  9
$USERR5
 40
10.0
  9
$WORLDVIEW
 70
     1
  9
$SHADEDGE
 70
     3
  9
$SHADEDIF
 70
    70
  9
$TILEMODE
 70
     1
  9
$MAXACTVP
 70
    16
  9
$PLIMCHECK
 70
     0
  9
$PEXTMIN
 10
1.0000000000000000E+020
 20
1.0000000000000000E+020
 30
1.0000000000000000E+020
  9
$PEXTMAX
 10
-1.0000000000000000E+020
 20
-1.0000000000000000E+020
 30
-1.0000000000000000E+020
  9
$PLIMMIN
 10
0.0
 20
0.0
  9
$PLIMMAX
 10
12.0
 20
9.0
  9
$UNITMODE
 70
     0
  9
$VISRETAIN
 70
     0
  9
$PLINEGEN
 70
     0
  9
$PSLTSCALE
 70
     0
  0
ENDSEC
  0
SECTION
  2
TABLES
  0
TABLE
  2
VPORT
 70
     1
  0
VPORT
  2
*ACTIVE
 70
     0
 10
0.0
 20
0.0
 11
1.0
 21
1.0
 12
245.19230769230771
 22
135.0
 13
0.0
 23
0.0
 14
5.0
 24
5.0
 15
10.0
 25
10.0
 16
0.0
 26
0.0
 36
1.0
 17
0.0
 27
0.0
 37
0.0
 40
270.0
 41
1.816239316239316
 42
50.0
 43
0.0
 44
0.0
 50
0.0
 51
0.0
 71
     0
 72
   500
 73
     1
 74
     0
 75
     0
 76
     0
 77
     0
 78
     2
  0
ENDTAB
  0
TABLE
  2
LTYPE
 70
     4
  0
LTYPE
  2
CONTINUOUS
 70
     0
  3
Solid Line
 72
    65
 73
     0
 40
0.0
  0
LTYPE
  2
CENTER
 70
     0
  3
____ _ ____ _ ____ _ ____ _ ____ _ ____ _ ____
 72
    65
 73
     4
 40
2.0
 49
1.25
 49
-0.25
 49
0.25
 49
-0.25
  0
LTYPE
  2
HIDDEN
 70
     0
  3
_ _ _ _ _ _ _ _ _ _ _ _ _ _ _ _ _ _ _ _ _ _ _
 72
    65
 73
     2
 40
0.375
 49
0.25
 49
-0.125
  0
LTYPE
  2
PHANTOM2
 70
     0
  3
___ _ _ ___ _ _ ___ _ _ ___ _ _
 72
    65
 73
     6
 40
1.25
 49
0.625
 49
-0.125
 49
0.125
 49
-0.125
 49
0.125
 49
-0.125
  0
ENDTAB
  0
TABLE
  2
LAYER
 70
     4
  0
LAYER
  2
0
 70
     0
 62
     7
  6
CONTINUOUS
  0
LAYER
  2
1
 70
     0
 62
     1
  6
CENTER
  0
LAYER
  2
2
 70
     0
 62
     2
  6
HIDDEN
  0
LAYER
  2
DEFPOINTS
 70
     0
 62
     7
  6
CONTINUOUS
  0
ENDTAB
  0
TABLE
  2
STYLE
 70
     2
  0
STYLE
  2
STANDARD
 70
     0
 40
0.0
 41
1.0
 50
0.0
 71
     0
 42
4.000000000000048
  3
SIMPLEX
  4
BIGFONT
  0
STYLE
  2
STANDARD1
 70
     0
 40
0.0
 41
1.0
 50
0.0
 71
     0
 42
3.0
  3
txt
  4

  0
ENDTAB
  0
TABLE
  2
VIEW
 70
     1
  0
VIEW
  2
ALL
 70
     0
 40
270.0
 10
220.78595317725751
 20
135.0
 41
441.57190635451502
 11
0.0
 21
0.0
 31
1.0
 12
0.0
 22
0.0
 32
0.0
 42
50.0
 43
0.0
 44
0.0
 50
0.0
 71
     0
  0
ENDTAB
  0
TABLE
  2
UCS
 70
     0
  0
ENDTAB
  0
TABLE
  2
APPID
 70
     6
  0
APPID
  2
ACAD
 70
     0
  0
APPID
  2
ACAD_MLEADERVER
 70
     0
  0
APPID
  2
ACAD_NAV_VCDISPLAY
 70
     0
  0
APPID
  2
ACAD_EXEMPT_FROM_CAD_STANDARDS
 70
     0
  0
APPID
  2
ACAD_DSTYLE_DIMJAG
 70
     0
  0
APPID
  2
ACAD_DSTYLE_DIMTALN
 70
     0
  0
ENDTAB
  0
TABLE
  2
DIMSTYLE
 70
     1
  0
DIMSTYLE
  2
STANDARD
 70
     0
  3

  4

  5

  6

  7

 40
1.0
 41
0.18
 42
0.0625
 43
0.38
 44
0.18
 45
0.0
 46
0.0
 47
0.0
 48
0.0
140
0.18
141
0.09
142
0.0
143
25.399999999999999
144
1.0
145
0.0
146
1.0
147
0.09
 71
     0
 72
     0
 73
     1
 74
     1
 75
     0
 76
     0
 77
     0
 78
     0
170
     0
171
     2
172
     0
173
     0
174
     0
175
     0
176
     0
177
     0
178
     0
  0
ENDTAB
  0
ENDSEC
  0
SECTION
  2
BLOCKS
  0
BLOCK
  8
0
  2
$MODEL_SPACE
 70
     0
 10
0.0
 20
0.0
 30
0.0
  3
$MODEL_SPACE
  1

  0
ENDBLK
  5
B2D
  8
0
  0
BLOCK
 67
     1
  8
0
  2
$PAPER_SPACE
 70
     0
 10
0.0
 20
0.0
 30
0.0
  3
$PAPER_SPACE
  1

  0
ENDBLK
  5
B2B
 67
     1
  8
0
  0
ENDSEC
  0
SECTION
  2
ENTITIES
  0
TEXT
  5
180E
  8
0
 62
     3
 10
0.0
 20
0.0
 30
0.0
 40
10.0
  1
ESCSS12
  7
STANDARD1
  0
LINE
  5
1A6D
  8
2
 10
50.000000000000007
 20
73.500009945704477
 30
0.0
 11
63.000000000000007
 21
73.500009945704477
 31
0.0
  0
LINE
  5
1A6E
  8
2
 10
50.000000000000007
 20
61.500009945704463
 30
0.0
 11
63.000000000000007
 21
61.500009945704463
 31
0.0
  0
LINE
  5
1A73
  8
1
 10
47.0
 20
67.500009945704463
 30
0.0
 11
66.000000000000014
 21
67.500009945704448
 31
0.0
  0
LINE
  5
1A74
  8
1
 10
56.500000000000021
 20
47.00000994570437
 30
0.0
 11
56.500000000000021
 21
88.000009945704434
 31
0.0
  0
LINE
  5
1A75
  8
1
 10
62.000000000000007
 20
79.250009945704477
 30
0.0
 11
51.000000000000007
 21
79.250009945704477
 31
0.0
  0
LINE
  5
1A77
  8
1
 10
62.000000000000007
 20
55.750009945704491
 30
0.0
 11
51.000000000000007
 21
55.750009945704477
 31
0.0
  0
LINE
  5
1A78
  8
0
 10
58.23205080756891
 20
55.750009945704463
 30
0.0
 11
57.366025403784427
 21
54.250009945704463
 31
0.0
  0
LINE
  5
1A79
  8
0
 10
54.767949192431111
 20
55.750009945704463
 30
0.0
 11
55.633974596215587
 21
57.250009945704463
 31
0.0
  0
LINE
  5
1A7A
  8
0
 10
55.633974596215587
 20
54.250009945704463
 30
0.0
 11
54.767949192431111
 21
55.750009945704463
 31
0.0
  0
LINE
  5
1A7B
  8
0
 10
57.366025403784427
 20
57.250009945704463
 30
0.0
 11
58.23205080756891
 21
55.750009945704463
 31
0.0
  0
LINE
  5
1A7C
  8
0
 10
55.633974596215587
 20
57.250009945704463
 30
0.0
 11
57.366025403784427
 21
57.250009945704463
 31
0.0
  0
LINE
  5
1A7D
  8
0
 10
57.366025403784427
 20
54.250009945704463
 30
0.0
 11
55.633974596215587
 21
54.250009945704463
 31
0.0
  0
LINE
  5
1A88
  8
0
 10
58.23205080756891
 20
79.250009945704477
 30
0.0
 11
57.366025403784427
 21
77.750009945704477
 31
0.0
  0
LINE
  5
1A89
  8
0
 10
54.767949192431111
 20
79.250009945704477
 30
0.0
 11
55.633974596215587
 21
80.750009945704477
 31
0.0
  0
LINE
  5
1A8A
  8
0
 10
55.633974596215587
 20
77.750009945704477
 30
0.0
 11
54.767949192431111
 21
79.250009945704477
 31
0.0
  0
LINE
  5
1A8B
  8
0
 10
57.366025403784427
 20
80.750009945704477
 30
0.0
 11
58.23205080756891
 21
79.250009945704477
 31
0.0
  0
LINE
  5
1A8C
  8
0
 10
55.633974596215587
 20
80.750009945704477
 30
0.0
 11
57.366025403784427
 21
80.750009945704477
 31
0.0
  0
LINE
  5
1A8D
  8
0
 10
57.366025403784427
 20
77.750009945704477
 30
0.0
 11
55.633974596215587
 21
77.750009945704477
 31
0.0
  0
ARC
  5
1A98
  8
0
 10
50.100000000000037
 20
50.342653399390443
 30
0.0
 40
0.0999999999999988
 50
180.0
 51
265.65756548656339
  0
ARC
  5
1A99
  8
0
 10
56.500000000000021
 20
134.6250099457053
 30
0.0
 40
84.625000000000824
 50
265.65756548656339
 51
274.34243448827658
  0
ARC
  5
1A9A
  8
0
 10
62.899999999999991
 20
50.342653399390443
 30
0.0
 40
0.1000000000000094
 50
274.3424132225278
 51
0.0
  0
ARC
  5
1A9B
  8
0
 10
62.899999999999991
 20
84.657366492018511
 30
0.0
 40
0.1000000000000068
 50
0.0
 51
85.657586777472176
  0
ARC
  5
1A9C
  8
0
 10
56.500000000000021
 20
0.3750099457035532
 30
0.0
 40
84.625000000000895
 50
85.657565511720151
 51
94.342434513436586
  0
ARC
  5
1A9D
  8
0
 10
50.100000000000037
 20
84.657366492018511
 30
0.0
 40
0.0999999999999966
 50
94.342434513436586
 51
180.0
  0
ARC
  5
1A9E
  8
0
 10
56.500000000000021
 20
79.250009945704477
 30
0.0
 40
4.5499233127030454
 50
47.234427376263191
 51
132.76557262357139
  0
CIRCLE
  5
1A9F
  8
0
 10
56.500000000000021
 20
79.250009945704477
 30
0.0
 40
3.5
  0
ARC
  5
1AA0
  8
0
 10
56.500000000000021
 20
55.750009945704463
 30
0.0
 40
4.549923312703041
 50
227.23442737643589
 51
312.76557262357142
  0
CIRCLE
  5
1AA1
  8
0
 10
56.500000000000021
 20
55.750009945704463
 30
0.0
 40
3.5
  0
LINE
  5
1AA3
  8
0
 10
63.000000000000007
 20
50.342653399390443
 30
0.0
 11
63.000000000000007
 21
84.657366492018511
 31
0.0
  0
LINE
  5
1AA6
  8
0
 10
50.000000000000007
 20
50.342653399390443
 30
0.0
 11
50.000000000000007
 21
84.657366492018511
 31
0.0
  0
POLYLINE
  5
1AAC
  8
0
 66
     1
 10
0.0
 20
0.0
 30
0.0
  0
VERTEX
  5
261D
  8
0
 10
59.589399315166027
 20
82.590281494984623
 30
0.0
  0
VERTEX
  5
261E
  8
0
 10
59.793196428783652
 20
82.38955215356961
 30
0.0
  0
VERTEX
  5
261F
  8
0
 10
59.982653052659103
 20
82.177966548231751
 30
0.0
  0
VERTEX
  5
2620
  8
0
 10
60.159184739286509
 20
81.954119355768256
 30
0.0
  0
VERTEX
  5
2621
  8
0
 10
60.321375971248152
 20
81.719602591839788
 30
0.0
  0
VERTEX
  5
2622
  8
0
 10
60.472105116149699
 20
81.469065236958926
 30
0.0
  0
VERTEX
  5
2623
  8
0
 10
60.607209342480033
 20
81.207721254484085
 30
0.0
  0
VERTEX
  5
2624
  8
0
 10
60.72697377724343
 20
80.933608904432248
 30
0.0
  0
VERTEX
  5
2625
  8
0
 10
60.829503693657678
 20
80.649009559029281
 30
0.0
  0
VERTEX
  5
2626
  8
0
 10
60.892952225621698
 20
80.434819176244304
 30
0.0
  0
VERTEX
  5
2627
  8
0
 10
60.946328959043527
 20
80.215391186174912
 30
0.0
  0
VERTEX
  5
2628
  8
0
 10
60.989392512636257
 20
79.989708532703474
 30
0.0
  0
VERTEX
  5
2629
  8
0
 10
61.0213429368102
 20
79.759185945959047
 30
0.0
  0
VERTEX
  5
262A
  8
0
 10
61.041923664236222
 20
79.519683676364281
 30
0.0
  0
VERTEX
  5
262B
  8
0
 10
61.049849991593433
 20
79.27584026657334
 30
0.0
  0
VERTEX
  5
262C
  8
0
 10
61.044415063219631
 20
79.026225583150648
 30
0.0
  0
VERTEX
  5
262D
  8
0
 10
61.02486923482094
 20
78.773186541025751
 30
0.0
  0
VERTEX
  5
262E
  8
0
 10
60.96806598195856
 20
78.390830958330099
 30
0.0
  0
VERTEX
  5
262F
  8
0
 10
60.909847645673111
 20
78.129792743894853
 30
0.0
  0
VERTEX
  5
2630
  8
0
 10
60.83487092902574
 20
77.867786200642996
 30
0.0
  0
VERTEX
  5
2631
  8
0
 10
60.742619489063557
 20
77.606239273592081
 30
0.0
  0
VERTEX
  5
2632
  8
0
 10
60.660182363225779
 20
77.407548535768825
 30
0.0
  0
VERTEX
  5
2633
  8
0
 10
60.567095572579852
 20
77.210270806750572
 30
0.0
  0
VERTEX
  5
2634
  8
0
 10
60.39554708248626
 20
76.899155828662373
 30
0.0
  0
VERTEX
  5
2635
  8
0
 10
60.192189655144162
 20
76.591196709871298
 30
0.0
  0
VERTEX
  5
2636
  8
0
 10
59.959519337201421
 20
76.294755623821487
 30
0.0
  0
VERTEX
  5
2637
  8
0
 10
59.692780771223291
 20
76.008412639069121
 30
0.0
  0
VERTEX
  5
2638
  8
0
 10
59.406941034926852
 20
75.749796242094789
 30
0.0
  0
VERTEX
  5
2639
  8
0
 10
59.197085750101692
 20
75.585698872738675
 30
0.0
  0
VERTEX
  5
263A
  8
0
 10
58.975475598867497
 20
75.432488537995795
 30
0.0
  0
VERTEX
  5
263B
  8
0
 10
58.743251495529151
 20
75.291522244664492
 30
0.0
  0
VERTEX
  5
263C
  8
0
 10
58.557932061300292
 20
75.192093879734642
 30
0.0
  0
VERTEX
  5
263D
  8
0
 10
58.367085479955179
 20
75.100817980752851
 30
0.0
  0
VERTEX
  5
263E
  8
0
 10
58.033705799009581
 20
74.966372627540949
 30
0.0
  0
VERTEX
  5
263F
  8
0
 10
57.680991586874953
 20
74.856068968000343
 30
0.0
  0
VERTEX
  5
2640
  8
0
 10
57.318451544856721
 20
74.774304501844227
 30
0.0
  0
VERTEX
  5
2641
  8
0
 10
56.941079798755148
 20
74.721516734645292
 30
0.0
  0
VERTEX
  5
2642
  8
0
 10
56.60049160466464
 20
74.701196519230422
 30
0.0
  0
VERTEX
  5
2643
  8
0
 10
56.252885074348129
 20
74.706831680538897
 30
0.0
  0
VERTEX
  5
2644
  8
0
 10
55.907089472772789
 20
74.738883782740089
 30
0.0
  0
VERTEX
  5
2645
  8
0
 10
55.559279374018971
 20
74.798398231355094
 30
0.0
  0
VERTEX
  5
2646
  8
0
 10
55.235485677963887
 20
74.879334290746286
 30
0.0
  0
VERTEX
  5
2647
  8
0
 10
54.914884435097932
 20
74.985155952136807
 30
0.0
  0
VERTEX
  5
2648
  8
0
 10
54.605137887170621
 20
75.113429265378983
 30
0.0
  0
VERTEX
  5
2649
  8
0
 10
54.303216687231803
 20
75.265546967055826
 30
0.0
  0
VERTEX
  5
264A
  8
0
 10
54.018213741496211
 20
75.436541823563999
 30
0.0
  0
VERTEX
  5
264B
  8
0
 10
53.745369428651898
 20
75.628737679216073
 30
0.0
  0
VERTEX
  5
264C
  8
0
 10
53.490556519806901
 20
75.837525207130014
 30
0.0
  0
VERTEX
  5
264D
  8
0
 10
53.251329616856673
 20
76.064426342474775
 30
0.0
  0
VERTEX
  5
264E
  8
0
 10
53.023859578938882
 20
76.314324348685403
 30
0.0
  0
VERTEX
  5
264F
  8
0
 10
52.816249142988873
 20
76.579500424541806
 30
0.0
  0
VERTEX
  5
2650
  8
0
 10
52.632075942457973
 20
76.85397871957926
 30
0.0
  0
VERTEX
  5
2651
  8
0
 10
52.469249916247421
 20
77.13935698659273
 30
0.0
  0
VERTEX
  5
2652
  8
0
 10
52.317161552198471
 20
77.459572940090155
 30
0.0
  0
VERTEX
  5
2653
  8
0
 10
52.191600985654311
 20
77.787346200676296
 30
0.0
  0
VERTEX
  5
2654
  8
0
 10
52.093635797485732
 20
78.116097838757838
 30
0.0
  0
VERTEX
  5
2655
  8
0
 10
52.021382321006932
 20
78.447647286497812
 30
0.0
  0
VERTEX
  5
2656
  8
0
 10
51.984855569384997
 20
78.688532360259927
 30
0.0
  0
VERTEX
  5
2657
  8
0
 10
51.961546220166852
 20
78.927148613555659
 30
0.0
  0
VERTEX
  5
2658
  8
0
 10
51.950876787086159
 20
79.164744274646836
 30
0.0
  0
VERTEX
  5
2659
  8
0
 10
51.952516721456689
 20
79.398999820687521
 30
0.0
  0
VERTEX
  5
265A
  8
0
 10
51.966340349931507
 20
79.634362034398777
 30
0.0
  0
VERTEX
  5
265B
  8
0
 10
51.991889957539009
 20
79.86543337436521
 30
0.0
  0
VERTEX
  5
265C
  8
0
 10
52.028898416006783
 20
80.093248072933903
 30
0.0
  0
VERTEX
  5
265D
  8
0
 10
52.076743655757262
 20
80.31612694894315
 30
0.0
  0
VERTEX
  5
265E
  8
0
 10
52.151590119498572
 20
80.589090245915116
 30
0.0
  0
VERTEX
  5
265F
  8
0
 10
52.24200271549843
 20
80.853525233020235
 30
0.0
  0
VERTEX
  5
2660
  8
0
 10
52.348066489991673
 20
81.110993853115787
 30
0.0
  0
VERTEX
  5
2661
  8
0
 10
52.468524194155933
 20
81.359276400748143
 30
0.0
  0
VERTEX
  5
2662
  8
0
 10
52.60586056811691
 20
81.60319992850512
 30
0.0
  0
VERTEX
  5
2663
  8
0
 10
52.757224200666442
 20
81.837176632913014
 30
0.0
  0
VERTEX
  5
2664
  8
0
 10
52.923447763923051
 20
82.062503017843682
 30
0.0
  0
VERTEX
  5
2665
  8
0
 10
53.103479460866332
 20
82.277459429795286
 30
0.0
  0
VERTEX
  5
2666
  8
0
 10
53.252789864206321
 20
82.437085864609998
 30
0.0
  0
VERTEX
  5
2667
  8
0
 10
53.410600684843658
 20
82.590281494993604
 30
0.0
  0
SEQEND
  5
2668
  8
0
  0
POLYLINE
  5
1AAD
  8
0
 66
     1
 10
0.0
 20
0.0
 30
0.0
  0
VERTEX
  5
2669
  8
0
 10
53.410600684844113
 20
52.409738396414987
 30
0.0
  0
VERTEX
  5
266A
  8
0
 10
53.20680357122275
 20
52.610467737832842
 30
0.0
  0
VERTEX
  5
266B
  8
0
 10
53.017346947343938
 20
52.8220533431736
 30
0.0
  0
VERTEX
  5
266C
  8
0
 10
52.8408152607159
 20
53.0459005356375
 30
0.0
  0
VERTEX
  5
266D
  8
0
 10
52.678624028753582
 20
53.280417299566373
 30
0.0
  0
VERTEX
  5
266E
  8
0
 10
52.527894883851509
 20
53.530954654447847
 30
0.0
  0
VERTEX
  5
266F
  8
0
 10
52.392790657520678
 20
53.79229863692337
 30
0.0
  0
VERTEX
  5
2670
  8
0
 10
52.273026222756883
 20
54.066410986975903
 30
0.0
  0
VERTEX
  5
2671
  8
0
 10
52.170496306342343
 20
54.351010332379659
 30
0.0
  0
VERTEX
  5
2672
  8
0
 10
52.10704777437833
 20
54.565200715164643
 30
0.0
  0
VERTEX
  5
2673
  8
0
 10
52.053671040956502
 20
54.784628705234027
 30
0.0
  0
VERTEX
  5
2674
  8
0
 10
52.010607487363771
 20
55.010311358705472
 30
0.0
  0
VERTEX
  5
2675
  8
0
 10
51.978657063189829
 20
55.240833945449893
 30
0.0
  0
VERTEX
  5
2676
  8
0
 10
51.958076335763799
 20
55.480336215044723
 30
0.0
  0
VERTEX
  5
2677
  8
0
 10
51.950150008406588
 20
55.7241796248356
 30
0.0
  0
VERTEX
  5
2678
  8
0
 10
51.95558493678039
 20
55.973794308258292
 30
0.0
  0
VERTEX
  5
2679
  8
0
 10
51.975130765179088
 20
56.226833350383188
 30
0.0
  0
VERTEX
  5
267A
  8
0
 10
52.031934018041468
 20
56.609188933078897
 30
0.0
  0
VERTEX
  5
267B
  8
0
 10
52.090152354326911
 20
56.870227147514079
 30
0.0
  0
VERTEX
  5
267C
  8
0
 10
52.165129070974281
 20
57.132233690766
 30
0.0
  0
VERTEX
  5
267D
  8
0
 10
52.257380510936471
 20
57.393780617816851
 30
0.0
  0
VERTEX
  5
267E
  8
0
 10
52.339817636774242
 20
57.592471355640107
 30
0.0
  0
VERTEX
  5
267F
  8
0
 10
52.432904427420191
 20
57.789749084658368
 30
0.0
  0
VERTEX
  5
2680
  8
0
 10
52.604452917513768
 20
58.10086406274656
 30
0.0
  0
VERTEX
  5
2681
  8
0
 10
52.807810344855859
 20
58.408823181537642
 30
0.0
  0
VERTEX
  5
2682
  8
0
 10
53.040480662798601
 20
58.705264267587452
 30
0.0
  0
VERTEX
  5
2683
  8
0
 10
53.307219228776731
 20
58.991607252339819
 30
0.0
  0
VERTEX
  5
2684
  8
0
 10
53.59305896507319
 20
59.250223649314151
 30
0.0
  0
VERTEX
  5
2685
  8
0
 10
53.802914249898343
 20
59.414321018670258
 30
0.0
  0
VERTEX
  5
2686
  8
0
 10
54.024524401132517
 20
59.567531353413152
 30
0.0
  0
VERTEX
  5
2687
  8
0
 10
54.25674850447087
 20
59.708497646744441
 30
0.0
  0
VERTEX
  5
2688
  8
0
 10
54.44206793869968
 20
59.80792601167429
 30
0.0
  0
VERTEX
  5
2689
  8
0
 10
54.632914520044793
 20
59.899201910656089
 30
0.0
  0
VERTEX
  5
268A
  8
0
 10
54.96629420099044
 20
60.033647263867991
 30
0.0
  0
VERTEX
  5
268B
  8
0
 10
55.319008413125019
 20
60.143950923408582
 30
0.0
  0
VERTEX
  5
268C
  8
0
 10
55.68154845514325
 20
60.225715389564712
 30
0.0
  0
VERTEX
  5
268D
  8
0
 10
56.058920201244867
 20
60.278503156763591
 30
0.0
  0
VERTEX
  5
268E
  8
0
 10
56.399508395335388
 20
60.298823372178518
 30
0.0
  0
VERTEX
  5
268F
  8
0
 10
56.7471149256519
 20
60.293188210870042
 30
0.0
  0
VERTEX
  5
2690
  8
0
 10
57.092910527227232
 20
60.26113610866885
 30
0.0
  0
VERTEX
  5
2691
  8
0
 10
57.440720625981058
 20
60.201621660053839
 30
0.0
  0
VERTEX
  5
2692
  8
0
 10
57.764514322036142
 20
60.12068560066264
 30
0.0
  0
VERTEX
  5
2693
  8
0
 10
58.08511556490204
 20
60.014863939272132
 30
0.0
  0
VERTEX
  5
2694
  8
0
 10
58.394862112829422
 20
59.886590626030021
 30
0.0
  0
VERTEX
  5
2695
  8
0
 10
58.696783312768233
 20
59.734472924353113
 30
0.0
  0
VERTEX
  5
2696
  8
0
 10
58.98178625850381
 20
59.56347806784494
 30
0.0
  0
VERTEX
  5
2697
  8
0
 10
59.25463057134813
 20
59.371282212192931
 30
0.0
  0
VERTEX
  5
2698
  8
0
 10
59.50944348019312
 20
59.162494684278911
 30
0.0
  0
VERTEX
  5
2699
  8
0
 10
59.748670383143363
 20
58.935593548934158
 30
0.0
  0
VERTEX
  5
269A
  8
0
 10
59.976140421061139
 20
58.685695542723543
 30
0.0
  0
VERTEX
  5
269B
  8
0
 10
60.183750857011098
 20
58.420519466867127
 30
0.0
  0
VERTEX
  5
269C
  8
0
 10
60.367924057542048
 20
58.146041171829729
 30
0.0
  0
VERTEX
  5
269D
  8
0
 10
60.530750083752551
 20
57.860662904816273
 30
0.0
  0
VERTEX
  5
269E
  8
0
 10
60.682838447801558
 20
57.540446951318771
 30
0.0
  0
VERTEX
  5
269F
  8
0
 10
60.80839901434571
 20
57.2126736907327
 30
0.0
  0
VERTEX
  5
26A0
  8
0
 10
60.906364202514297
 20
56.883922052651101
 30
0.0
  0
VERTEX
  5
26A1
  8
0
 10
60.978617678993103
 20
56.552372604911177
 30
0.0
  0
VERTEX
  5
26A2
  8
0
 10
61.015144430615017
 20
56.311487531149062
 30
0.0
  0
VERTEX
  5
26A3
  8
0
 10
61.038453779833183
 20
56.072871277853331
 30
0.0
  0
VERTEX
  5
26A4
  8
0
 10
61.049123212913862
 20
55.835275616762097
 30
0.0
  0
VERTEX
  5
26A5
  8
0
 10
61.047483278543339
 20
55.601020070721418
 30
0.0
  0
VERTEX
  5
26A6
  8
0
 10
61.033659650068508
 20
55.365657857010163
 30
0.0
  0
VERTEX
  5
26A7
  8
0
 10
61.008110042461013
 20
55.134586517043729
 30
0.0
  0
VERTEX
  5
26A8
  8
0
 10
60.971101583993239
 20
54.906771818475029
 30
0.0
  0
VERTEX
  5
26A9
  8
0
 10
60.923256344242773
 20
54.683892942465789
 30
0.0
  0
VERTEX
  5
26AA
  8
0
 10
60.84840988050145
 20
54.410929645493823
 30
0.0
  0
VERTEX
  5
26AB
  8
0
 10
60.757997284501599
 20
54.146494658388647
 30
0.0
  0
VERTEX
  5
26AC
  8
0
 10
60.651933510008362
 20
53.889026038293153
 30
0.0
  0
VERTEX
  5
26AD
  8
0
 10
60.531475805844089
 20
53.640743490660789
 30
0.0
  0
VERTEX
  5
26AE
  8
0
 10
60.394139431883119
 20
53.39681996290382
 30
0.0
  0
VERTEX
  5
26AF
  8
0
 10
60.242775799333579
 20
53.162843258495933
 30
0.0
  0
VERTEX
  5
26B0
  8
0
 10
60.076552236076978
 20
52.937516873565251
 30
0.0
  0
VERTEX
  5
26B1
  8
0
 10
59.896520539133711
 20
52.722560461613703
 30
0.0
  0
VERTEX
  5
26B2
  8
0
 10
59.747210135793708
 20
52.562934026798942
 30
0.0
  0
VERTEX
  5
26B3
  8
0
 10
59.589399315156371
 20
52.409738396415328
 30
0.0
  0
SEQEND
  5
26B4
  8
0
  0
LINE
  5
1B04
  8
2
 10
119.84999999999719
 20
77.250000000000028
 30
0.0
 11
129.54999999999711
 21
77.250000000000028
 31
0.0
  0
LINE
  5
1B05
  8
2
 10
129.54999999999711
 20
81.250000000000028
 30
0.0
 11
119.84999999999719
 21
81.250000000000028
 31
0.0
  0
ARC
  5
1B07
  8
2
 10
119.8499999999971
 20
77.050000000000153
 30
0.0
 40
0.1999999999998856
 50
90.0
 51
110.5560452195915
  0
ARC
  5
1B08
  8
2
 10
119.8499999999971
 20
81.449999999999903
 30
0.0
 40
0.1999999999998855
 50
249.44395478040849
 51
270.0
  0
LINE
  5
1B09
  8
2
 10
119.84999999999719
 20
81.250000000000028
 30
0.0
 11
119.84999999999719
 21
77.250000000000028
 31
0.0
  0
LINE
  5
1B0A
  8
2
 10
119.7797753116795
 20
81.262734164486204
 30
0.0
 11
119.3797753116795
 21
81.412734164486238
 31
0.0
  0
LINE
  5
1B0B
  8
2
 10
119.3797753116795
 20
77.087265835513804
 30
0.0
 11
119.7797753116795
 21
77.237265835513853
 31
0.0
  0
ARC
  5
1B0D
  8
2
 10
119.4499999999971
 20
76.900000000000006
 30
0.0
 40
0.1999999999999973
 50
110.55604521958119
 51
180.0
  0
ARC
  5
1B0E
  8
2
 10
119.4499999999971
 20
81.600000000000051
 30
0.0
 40
0.1999999999999975
 50
180.0
 51
249.44395478041881
  0
LINE
  5
1B12
  8
2
 10
119.2499999999971
 20
82.750000000000028
 30
0.0
 11
119.2499999999971
 21
75.750000000000014
 31
0.0
  0
LINE
  5
1B16
  8
2
 10
129.54999999999711
 20
77.679500000000004
 30
0.0
 11
121.3499999999971
 21
77.679500000000047
 31
0.0
  0
LINE
  5
1B17
  8
2
 10
121.3499999999971
 20
77.250000000000028
 30
0.0
 11
121.3499999999971
 21
81.250000000000028
 31
0.0
  0
LINE
  5
1B18
  8
2
 10
129.54999999999711
 20
80.820499999999967
 30
0.0
 11
121.3499999999971
 21
80.820499999999996
 31
0.0
  0
LINE
  5
1B3F
  8
2
 10
132.7499999999971
 20
52.409728450719882
 30
0.0
 11
132.7499999999971
 21
60.299923312703037
 31
0.0
  0
LINE
  5
1B40
  8
2
 10
139.95020049080739
 20
60.299923312703037
 30
0.0
 11
132.7499999999971
 21
60.299923312703037
 31
0.0
  0
LINE
  5
1B41
  8
2
 10
132.7499999999971
 20
82.590271549289156
 30
0.0
 11
132.7499999999971
 21
74.700076687296956
 31
0.0
  0
LINE
  5
1B42
  8
2
 10
132.7499999999971
 20
74.700076687296956
 30
0.0
 11
139.95020049080739
 21
74.700076687296956
 31
0.0
  0
LINE
  5
1B4A
  8
2
 10
119.2499999999971
 20
82.750000000000028
 30
0.0
 11
115.2499999999971
 21
82.750000000000028
 31
0.0
  0
LINE
  5
1B4B
  8
2
 10
115.2499999999971
 20
75.750000000000014
 30
0.0
 11
119.2499999999971
 21
75.750000000000014
 31
0.0
  0
LINE
  5
1B4D
  8
2
 10
115.2499999999971
 20
60.2999233127031
 30
0.0
 11
108.0497995091869
 21
60.2999233127031
 31
0.0
  0
LINE
  5
1B4E
  8
2
 10
115.2499999999971
 20
60.2999233127031
 30
0.0
 11
115.2499999999971
 21
52.409728450710901
 31
0.0
  0
LINE
  5
1B4F
  8
2
 10
108.0497995091869
 20
74.700076687296956
 30
0.0
 11
115.2499999999971
 21
74.700076687296956
 31
0.0
  0
LINE
  5
1B50
  8
2
 10
115.2499999999971
 20
74.700076687296956
 30
0.0
 11
115.2499999999971
 21
82.590271549289497
 31
0.0
  0
LINE
  5
1B51
  8
1
 10
123.9999999999972
 20
47.0
 30
0.0
 11
123.9999999999972
 21
88.000000000000043
 31
0.0
  0
LINE
  5
1B52
  8
1
 10
144.4999999999971
 20
67.500000000000028
 30
0.0
 11
103.4999999999972
 21
67.500000000000028
 31
0.0
  0
LINE
  5
1B53
  8
1
 10
113.2499999999971
 20
55.750000000000021
 30
0.0
 11
134.7499999999971
 21
55.750000000000021
 31
0.0
  0
LINE
  5
1B54
  8
1
 10
113.2499999999971
 20
79.250000000000028
 30
0.0
 11
134.7499999999971
 21
79.250000000000028
 31
0.0
  0
LINE
  5
1B55
  8
0
 10
132.7499999999971
 20
83.799923312703058
 30
0.0
 11
130.3688696014257
 21
83.799923312703044
 31
0.0
  0
LINE
  5
1B56
  8
0
 10
132.7499999999971
 20
83.799923312703058
 30
0.0
 11
132.7499999999971
 21
82.590271549289156
 31
0.0
  0
LINE
  5
1B57
  8
0
 10
130.3688696014257
 20
51.200076687296963
 30
0.0
 11
132.7499999999971
 21
51.200076687296949
 31
0.0
  0
LINE
  5
1B58
  8
0
 10
132.7499999999971
 20
51.200076687296949
 30
0.0
 11
132.7499999999971
 21
52.409728450719882
 31
0.0
  0
POLYLINE
  5
1B59
  8
0
 66
     1
 10
0.0
 20
0.0
 30
0.0
  0
VERTEX
  5
26B5
  8
0
 10
132.75000000000369
 20
52.40972845071488
 30
0.0
  0
VERTEX
  5
26B6
  8
0
 10
133.39699317059089
 20
52.822043397472747
 30
0.0
  0
VERTEX
  5
26B7
  8
0
 10
134.0518302217624
 20
53.280407353864661
 30
0.0
  0
VERTEX
  5
26B8
  8
0
 10
134.717652980824
 20
53.792288691220421
 30
0.0
  0
VERTEX
  5
26B9
  8
0
 10
135.37924721310549
 20
54.351000386675217
 30
0.0
  0
VERTEX
  5
26BA
  8
0
 10
135.85291607639559
 20
54.784618759529529
 30
0.0
  0
VERTEX
  5
26BB
  8
0
 10
136.3185544238398
 20
55.240823999745352
 30
0.0
  0
VERTEX
  5
26BC
  8
0
 10
136.77931215453671
 20
55.724169679131172
 30
0.0
  0
VERTEX
  5
26BD
  8
0
 10
137.2266060761321
 20
56.226823404678747
 30
0.0
  0
VERTEX
  5
26BE
  8
0
 10
137.54705502356529
 20
56.609178987374349
 30
0.0
  0
VERTEX
  5
26BF
  8
0
 10
137.85628736238459
 20
56.997418175310621
 30
0.0
  0
VERTEX
  5
26C0
  8
0
 10
138.1563005219443
 20
57.393770672112417
 30
0.0
  0
VERTEX
  5
26C1
  8
0
 10
138.44118323725181
 20
57.789739138953877
 30
0.0
  0
VERTEX
  5
26C2
  8
0
 10
138.65517900112729
 20
58.100854117042132
 30
0.0
  0
VERTEX
  5
26C3
  8
0
 10
138.85689471574179
 20
58.405751988980931
 30
0.0
  0
VERTEX
  5
26C4
  8
0
 10
139.04763910709289
 20
58.705254321882961
 30
0.0
  0
VERTEX
  5
26C5
  8
0
 10
139.22340071432461
 20
58.991597306635327
 30
0.0
  0
VERTEX
  5
26C6
  8
0
 10
139.37678529963091
 20
59.250213703609717
 30
0.0
  0
VERTEX
  5
26C7
  8
0
 10
139.51415967697699
 20
59.489229298926631
 30
0.0
  0
VERTEX
  5
26C8
  8
0
 10
139.63657283543171
 20
59.708487701040021
 30
0.0
  0
VERTEX
  5
26C9
  8
0
 10
139.74030386745179
 20
59.899191964951598
 30
0.0
  0
VERTEX
  5
26CA
  8
0
 10
139.8119305598882
 20
60.033637318163557
 30
0.0
  0
VERTEX
  5
26CB
  8
0
 10
139.86917463574019
 20
60.142776414879023
 30
0.0
  0
VERTEX
  5
26CC
  8
0
 10
139.91213772703011
 20
60.225705443860221
 30
0.0
  0
VERTEX
  5
26CD
  8
0
 10
139.93924742742311
 20
60.2784932110591
 30
0.0
  0
VERTEX
  5
26CE
  8
0
 10
139.94893778298371
 20
60.29712671259432
 30
0.0
  0
VERTEX
  5
26CF
  8
0
 10
139.94893778298371
 20
60.29712671259432
 30
0.0
  0
SEQEND
  5
26D0
  8
0
  0
POLYLINE
  5
1B5A
  8
0
 66
     1
 10
0.0
 20
0.0
 30
0.0
  0
VERTEX
  5
26D1
  8
0
 10
132.7499999999971
 20
82.590271549289099
 30
0.0
  0
VERTEX
  5
26D2
  8
0
 10
132.32913189528759
 20
82.838144366598186
 30
0.0
  0
VERTEX
  5
26D3
  8
0
 10
131.91574575394679
 20
83.066742610616785
 30
0.0
  0
VERTEX
  5
26D4
  8
0
 10
131.51122973965269
 20
83.276691093408786
 30
0.0
  0
VERTEX
  5
26D5
  8
0
 10
131.12877119917391
 20
83.463097602654926
 30
0.0
  0
VERTEX
  5
26D6
  8
0
 10
130.88333739743189
 20
83.576691266545765
 30
0.0
  0
VERTEX
  5
26D7
  8
0
 10
130.66627442138011
 20
83.673307343218454
 30
0.0
  0
VERTEX
  5
26D8
  8
0
 10
130.49688978519751
 20
83.746229887448052
 30
0.0
  0
VERTEX
  5
26D9
  8
0
 10
130.39058162702571
 20
83.790902625507385
 30
0.0
  0
VERTEX
  5
26DA
  8
0
 10
130.36963566999179
 20
83.79962396595495
 30
0.0
  0
SEQEND
  5
26DB
  8
0
  0
ARC
  5
1B5B
  8
0
 10
123.9999999999971
 20
67.500000000000483
 30
0.0
 40
17.50000000000048
 50
270.0
 51
291.34507877198507
  0
ARC
  5
1B5C
  8
0
 10
123.9999999999971
 20
67.500000000000028
 30
0.0
 40
17.50000000000005
 50
335.69507121034019
 51
24.304863664300971
  0
ARC
  5
1B5D
  8
0
 10
123.9999999999972
 20
67.500000000000199
 30
0.0
 40
17.499999999999851
 50
68.655226733142499
 51
90.0
  0
POLYLINE
  5
1B5E
  8
0
 66
     1
 10
0.0
 20
0.0
 30
0.0
  0
VERTEX
  5
26DC
  8
0
 10
130.36972258064321
 20
51.200409997622401
 30
0.0
  0
VERTEX
  5
26DD
  8
0
 10
130.36972258064321
 20
51.200409997622401
 30
0.0
  0
VERTEX
  5
26DE
  8
0
 10
130.39528184174929
 20
51.211054766678188
 30
0.0
  0
VERTEX
  5
26DF
  8
0
 10
130.46506874185559
 20
51.240310174689931
 30
0.0
  0
VERTEX
  5
26E0
  8
0
 10
130.57411090266311
 20
51.286748075856188
 30
0.0
  0
VERTEX
  5
26E1
  8
0
 10
130.827781170739
 20
51.398238940370987
 30
0.0
  0
VERTEX
  5
26E2
  8
0
 10
131.1447356948259
 20
51.544452963810407
 30
0.0
  0
VERTEX
  5
26E3
  8
0
 10
131.51226709879671
 20
51.723830317876462
 30
0.0
  0
VERTEX
  5
26E4
  8
0
 10
131.906281284627
 20
51.928191782097798
 30
0.0
  0
VERTEX
  5
26E5
  8
0
 10
132.32257945453719
 20
52.158118799828713
 30
0.0
  0
VERTEX
  5
26E6
  8
0
 10
132.75000000000369
 20
52.40972845071488
 30
0.0
  0
SEQEND
  5
26E7
  8
0
  0
POLYLINE
  5
1B5F
  8
0
 66
     1
 10
0.0
 20
0.0
 30
0.0
  0
VERTEX
  5
26E8
  8
0
 10
139.94894597013331
 20
74.702855159010014
 30
0.0
  0
VERTEX
  5
26E9
  8
0
 10
139.94687772984389
 20
74.706584068352555
 30
0.0
  0
VERTEX
  5
26EA
  8
0
 10
139.9303487655649
 20
74.738873837035641
 30
0.0
  0
VERTEX
  5
26EB
  8
0
 10
139.89970270380161
 20
74.798388285650645
 30
0.0
  0
VERTEX
  5
26EC
  8
0
 10
139.85764733652249
 20
74.879324345041852
 30
0.0
  0
VERTEX
  5
26ED
  8
0
 10
139.80264515275729
 20
74.983922722419393
 30
0.0
  0
VERTEX
  5
26EE
  8
0
 10
139.7335217455892
 20
75.113419319674463
 30
0.0
  0
VERTEX
  5
26EF
  8
0
 10
139.650850402289
 20
75.265537021351321
 30
0.0
  0
VERTEX
  5
26F0
  8
0
 10
139.5559895164491
 20
75.436531877859494
 30
0.0
  0
VERTEX
  5
26F1
  8
0
 10
139.44797408732961
 20
75.626828087778932
 30
0.0
  0
VERTEX
  5
26F2
  8
0
 10
139.3253131857889
 20
75.83751526142558
 30
0.0
  0
VERTEX
  5
26F3
  8
0
 10
139.1895153425933
 20
76.064416396770326
 30
0.0
  0
VERTEX
  5
26F4
  8
0
 10
139.0353947005994
 20
76.314314402980955
 30
0.0
  0
VERTEX
  5
26F5
  8
0
 10
138.86794525255169
 20
76.577201482844004
 30
0.0
  0
VERTEX
  5
26F6
  8
0
 10
138.68555926953121
 20
76.853968773874755
 30
0.0
  0
VERTEX
  5
26F7
  8
0
 10
138.49070474727401
 20
77.139347040888225
 30
0.0
  0
VERTEX
  5
26F8
  8
0
 10
138.2635017986581
 20
77.45956299438572
 30
0.0
  0
VERTEX
  5
26F9
  8
0
 10
138.0229899904509
 20
77.78485256821628
 30
0.0
  0
VERTEX
  5
26FA
  8
0
 10
137.76749780619821
 20
78.116087893053333
 30
0.0
  0
VERTEX
  5
26FB
  8
0
 10
137.50046301641521
 20
78.44763734079325
 30
0.0
  0
VERTEX
  5
26FC
  8
0
 10
137.0928530215007
 20
78.927138667851096
 30
0.0
  0
VERTEX
  5
26FD
  8
0
 10
136.66489109979821
 20
79.398989874983016
 30
0.0
  0
VERTEX
  5
26FE
  8
0
 10
136.21290532960981
 20
79.865423428660762
 30
0.0
  0
VERTEX
  5
26FF
  8
0
 10
135.7457132863174
 20
80.316117003238645
 30
0.0
  0
VERTEX
  5
2700
  8
0
 10
135.14421122560299
 20
80.853515287315787
 30
0.0
  0
VERTEX
  5
2701
  8
0
 10
134.5269684196137
 20
81.359266455043638
 30
0.0
  0
VERTEX
  5
2702
  8
0
 10
133.8896023143293
 20
81.837166687208509
 30
0.0
  0
VERTEX
  5
2703
  8
0
 10
133.2463516454159
 20
82.277449484090795
 30
0.0
  0
VERTEX
  5
2704
  8
0
 10
132.7499999999971
 20
82.590271549289099
 30
0.0
  0
SEQEND
  5
2705
  8
0
  0
LINE
  5
1B62
  8
0
 10
123.9999999999972
 20
50.000000000000028
 30
0.0
 11
123.9999999999972
 21
61.500000000000028
 31
0.0
  0
LINE
  5
1B64
  8
0
 10
123.9999999999972
 20
85.000000000000057
 30
0.0
 11
123.9999999999972
 21
73.500000000000028
 31
0.0
  0
LINE
  5
1B65
  8
0
 10
115.2499999999971
 20
82.590271549289497
 30
0.0
 11
115.2499999999971
 21
83.799923312703115
 31
0.0
  0
LINE
  5
1B66
  8
0
 10
117.6311303985688
 20
83.799923312703115
 30
0.0
 11
115.2499999999971
 21
83.799923312703115
 31
0.0
  0
LINE
  5
1B67
  8
0
 10
115.2499999999971
 20
52.409728450710901
 30
0.0
 11
115.2499999999971
 21
51.200076687296949
 31
0.0
  0
LINE
  5
1B68
  8
0
 10
115.2499999999971
 20
51.200076687296949
 30
0.0
 11
117.6311303985687
 21
51.200076687296949
 31
0.0
  0
POLYLINE
  5
1B69
  8
0
 66
     1
 10
0.0
 20
0.0
 30
0.0
  0
VERTEX
  5
2706
  8
0
 10
115.2499999999971
 20
52.409728450710901
 30
0.0
  0
VERTEX
  5
2707
  8
0
 10
115.6708681047066
 20
52.161855633401871
 30
0.0
  0
VERTEX
  5
2708
  8
0
 10
116.08425424604749
 20
51.933257389383208
 30
0.0
  0
VERTEX
  5
2709
  8
0
 10
116.4887702603416
 20
51.7233089065912
 30
0.0
  0
VERTEX
  5
270A
  8
0
 10
116.8712288008204
 20
51.536902397345131
 30
0.0
  0
VERTEX
  5
270B
  8
0
 10
117.1166626025624
 20
51.423308733454263
 30
0.0
  0
VERTEX
  5
270C
  8
0
 10
117.33372557861421
 20
51.326692656781603
 30
0.0
  0
VERTEX
  5
270D
  8
0
 10
117.50311021479681
 20
51.253770112551962
 30
0.0
  0
VERTEX
  5
270E
  8
0
 10
117.60941837296851
 20
51.2090973744927
 30
0.0
  0
VERTEX
  5
270F
  8
0
 10
117.63036433000249
 20
51.200376034045121
 30
0.0
  0
SEQEND
  5
2710
  8
0
  0
POLYLINE
  5
1B6A
  8
0
 66
     1
 10
0.0
 20
0.0
 30
0.0
  0
VERTEX
  5
2711
  8
0
 10
115.2499999999974
 20
82.590271549289284
 30
0.0
  0
VERTEX
  5
2712
  8
0
 10
114.6030068294087
 20
82.177956602530884
 30
0.0
  0
VERTEX
  5
2713
  8
0
 10
113.9481697782356
 20
81.719592646138125
 30
0.0
  0
VERTEX
  5
2714
  8
0
 10
113.28234701917221
 20
81.207711308781114
 30
0.0
  0
VERTEX
  5
2715
  8
0
 10
112.6207527868888
 20
80.648999613324847
 30
0.0
  0
VERTEX
  5
2716
  8
0
 10
112.1470839235986
 20
80.215381240470464
 30
0.0
  0
VERTEX
  5
2717
  8
0
 10
111.6814455761545
 20
79.759176000254598
 30
0.0
  0
VERTEX
  5
2718
  8
0
 10
111.2206878454576
 20
79.275830320868891
 30
0.0
  0
VERTEX
  5
2719
  8
0
 10
110.7733939238622
 20
78.773176595321303
 30
0.0
  0
VERTEX
  5
271A
  8
0
 10
110.452944976429
 20
78.390821012625594
 30
0.0
  0
VERTEX
  5
271B
  8
0
 10
110.1437126376097
 20
78.002581824689372
 30
0.0
  0
VERTEX
  5
271C
  8
0
 10
109.84369947805
 20
77.606229327887633
 30
0.0
  0
VERTEX
  5
271D
  8
0
 10
109.5588167627425
 20
77.210260861046123
 30
0.0
  0
VERTEX
  5
271E
  8
0
 10
109.34482099886699
 20
76.899145882957868
 30
0.0
  0
VERTEX
  5
271F
  8
0
 10
109.1431052842524
 20
76.594248011019118
 30
0.0
  0
VERTEX
  5
2720
  8
0
 10
108.9523608929014
 20
76.294745678117039
 30
0.0
  0
VERTEX
  5
2721
  8
0
 10
108.7765992856696
 20
76.008402693364673
 30
0.0
  0
VERTEX
  5
2722
  8
0
 10
108.62321470036341
 20
75.74978629639034
 30
0.0
  0
VERTEX
  5
2723
  8
0
 10
108.4858403230173
 20
75.510770701073426
 30
0.0
  0
VERTEX
  5
2724
  8
0
 10
108.36342716456259
 20
75.291512298960043
 30
0.0
  0
VERTEX
  5
2725
  8
0
 10
108.2596961325425
 20
75.100808035048402
 30
0.0
  0
VERTEX
  5
2726
  8
0
 10
108.1880694401061
 20
74.9663626818365
 30
0.0
  0
VERTEX
  5
2727
  8
0
 10
108.13082536425409
 20
74.857223585121034
 30
0.0
  0
VERTEX
  5
2728
  8
0
 10
108.0878622729642
 20
74.774294556139779
 30
0.0
  0
VERTEX
  5
2729
  8
0
 10
108.0607525725712
 20
74.7215067889409
 30
0.0
  0
VERTEX
  5
272A
  8
0
 10
108.0510622170105
 20
74.702873287405723
 30
0.0
  0
VERTEX
  5
272B
  8
0
 10
108.0510622170105
 20
74.702873287405723
 30
0.0
  0
SEQEND
  5
272C
  8
0
  0
ARC
  5
1B6B
  8
0
 10
123.9999999999972
 20
67.499999999999844
 30
0.0
 40
17.500000000000171
 50
90.0
 51
111.3450787719851
  0
ARC
  5
1B6C
  8
0
 10
123.9999999999972
 20
67.500000000000028
 30
0.0
 40
17.500000000000039
 50
155.6950712103401
 51
204.304863664301
  0
ARC
  5
1B6D
  8
0
 10
123.9999999999971
 20
67.499999999999801
 30
0.0
 40
17.499999999999769
 50
248.65522673314251
 51
270.0
  0
POLYLINE
  5
1B6E
  8
0
 66
     1
 10
0.0
 20
0.0
 30
0.0
  0
VERTEX
  5
272D
  8
0
 10
108.05105402986101
 20
60.297144840990029
 30
0.0
  0
VERTEX
  5
272E
  8
0
 10
108.0531222701504
 20
60.293415931647502
 30
0.0
  0
VERTEX
  5
272F
  8
0
 10
108.0696512344294
 20
60.261126162964409
 30
0.0
  0
VERTEX
  5
2730
  8
0
 10
108.10029729619269
 20
60.201611714349411
 30
0.0
  0
VERTEX
  5
2731
  8
0
 10
108.1423526634717
 20
60.120675654958198
 30
0.0
  0
VERTEX
  5
2732
  8
0
 10
108.19735484723699
 20
60.016077277580592
 30
0.0
  0
VERTEX
  5
2733
  8
0
 10
108.2664782544051
 20
59.886580680325523
 30
0.0
  0
VERTEX
  5
2734
  8
0
 10
108.34914959770531
 20
59.734462978648672
 30
0.0
  0
VERTEX
  5
2735
  8
0
 10
108.4440104835452
 20
59.563468122140499
 30
0.0
  0
VERTEX
  5
2736
  8
0
 10
108.5520259126646
 20
59.373171912221061
 30
0.0
  0
VERTEX
  5
2737
  8
0
 10
108.6746868142054
 20
59.16248473857447
 30
0.0
  0
VERTEX
  5
2738
  8
0
 10
108.81048465740101
 20
58.93558360322973
 30
0.0
  0
VERTEX
  5
2739
  8
0
 10
108.9646052993949
 20
58.685685597019102
 30
0.0
  0
VERTEX
  5
273A
  8
0
 10
109.1320547474426
 20
58.422798517155989
 30
0.0
  0
VERTEX
  5
273B
  8
0
 10
109.3144407304631
 20
58.146031226125238
 30
0.0
  0
VERTEX
  5
273C
  8
0
 10
109.50929525272031
 20
57.860652959111782
 30
0.0
  0
VERTEX
  5
273D
  8
0
 10
109.7364982013362
 20
57.540437005614329
 30
0.0
  0
VERTEX
  5
273E
  8
0
 10
109.97701000954341
 20
57.21514743178372
 30
0.0
  0
VERTEX
  5
273F
  8
0
 10
110.23250219379609
 20
56.883912106946667
 30
0.0
  0
VERTEX
  5
2740
  8
0
 10
110.49953698357911
 20
56.552362659206693
 30
0.0
  0
VERTEX
  5
2741
  8
0
 10
110.9071469784936
 20
56.07286133214884
 30
0.0
  0
VERTEX
  5
2742
  8
0
 10
111.3351089001961
 20
55.601010125016977
 30
0.0
  0
VERTEX
  5
2743
  8
0
 10
111.7870946703845
 20
55.134576571339302
 30
0.0
  0
VERTEX
  5
2744
  8
0
 10
112.2542867136769
 20
54.683882996761348
 30
0.0
  0
VERTEX
  5
2745
  8
0
 10
112.8557887743913
 20
54.146484712684213
 30
0.0
  0
VERTEX
  5
2746
  8
0
 10
113.47303158038061
 20
53.640733544956362
 30
0.0
  0
VERTEX
  5
2747
  8
0
 10
114.11039768566491
 20
53.162833312791491
 30
0.0
  0
VERTEX
  5
2748
  8
0
 10
114.7536483545784
 20
52.722550515909212
 30
0.0
  0
VERTEX
  5
2749
  8
0
 10
115.2499999999971
 20
52.409728450710901
 30
0.0
  0
SEQEND
  5
274A
  8
0
  0
POLYLINE
  5
1B6F
  8
0
 66
     1
 10
0.0
 20
0.0
 30
0.0
  0
VERTEX
  5
274B
  8
0
 10
117.6302774193511
 20
83.799590002377656
 30
0.0
  0
VERTEX
  5
274C
  8
0
 10
117.6302774193511
 20
83.799590002377656
 30
0.0
  0
VERTEX
  5
274D
  8
0
 10
117.60471815824501
 20
83.788945233321826
 30
0.0
  0
VERTEX
  5
274E
  8
0
 10
117.5349312581387
 20
83.759689825310076
 30
0.0
  0
VERTEX
  5
274F
  8
0
 10
117.42588909733119
 20
83.713251924143876
 30
0.0
  0
VERTEX
  5
2750
  8
0
 10
117.1722188292552
 20
83.601761059629027
 30
0.0
  0
VERTEX
  5
2751
  8
0
 10
116.8552643051684
 20
83.455547036189628
 30
0.0
  0
VERTEX
  5
2752
  8
0
 10
116.48773290119929
 20
83.27616968212439
 30
0.0
  0
VERTEX
  5
2753
  8
0
 10
116.0937187153709
 20
83.071808217904191
 30
0.0
  0
VERTEX
  5
2754
  8
0
 10
115.6774205454624
 20
82.841881200174413
 30
0.0
  0
VERTEX
  5
2755
  8
0
 10
115.2499999999974
 20
82.590271549289284
 30
0.0
  0
SEQEND
  5
2756
  8
0
  0
LINE
  5
1BAD
  8
1
 10
123.9999999999972
 20
125.5
 30
0.0
 11
123.9999999999972
 21
144.50000000000011
 31
0.0
  0
LINE
  5
1BAE
  8
1
 10
103.4999999999972
 20
135.0
 30
0.0
 11
144.4999999999971
 21
135.0
 31
0.0
  0
POLYLINE
  5
1BAF
  8
0
 66
     1
 10
0.0
 20
0.0
 30
0.0
  0
VERTEX
  5
2757
  8
0
 10
136.80288125368679
 20
139.54992330850479
 30
0.0
  0
VERTEX
  5
2758
  8
0
 10
137.00528417331509
 20
139.5444150632197
 30
0.0
  0
VERTEX
  5
2759
  8
0
 10
137.22660607613221
 20
139.52486923482101
 30
0.0
  0
VERTEX
  5
275A
  8
0
 10
137.54705502356529
 20
139.46806598195849
 30
0.0
  0
VERTEX
  5
275B
  8
0
 10
137.75667505189659
 20
139.4098476456731
 30
0.0
  0
VERTEX
  5
275C
  8
0
 10
137.9600322489668
 20
139.3348709290257
 30
0.0
  0
VERTEX
  5
275D
  8
0
 10
138.15630052194439
 20
139.24261948906349
 30
0.0
  0
VERTEX
  5
275E
  8
0
 10
138.30104556065689
 20
139.1601823632258
 30
0.0
  0
VERTEX
  5
275F
  8
0
 10
138.44118323725189
 20
139.0670955725798
 30
0.0
  0
VERTEX
  5
2760
  8
0
 10
138.65517900112729
 20
138.8955470824863
 30
0.0
  0
VERTEX
  5
2761
  8
0
 10
138.8588682143812
 20
138.6921896551442
 30
0.0
  0
VERTEX
  5
2762
  8
0
 10
139.047639107093
 20
138.45951933720141
 30
0.0
  0
VERTEX
  5
2763
  8
0
 10
139.2234007143247
 20
138.19278077122331
 30
0.0
  0
VERTEX
  5
2764
  8
0
 10
139.376785299631
 20
137.90694103492689
 30
0.0
  0
VERTEX
  5
2765
  8
0
 10
139.47154339902809
 20
137.69708575010171
 30
0.0
  0
VERTEX
  5
2766
  8
0
 10
139.55825941479441
 20
137.47547559886749
 30
0.0
  0
VERTEX
  5
2767
  8
0
 10
139.63657283543171
 20
137.24325149552911
 30
0.0
  0
VERTEX
  5
2768
  8
0
 10
139.6909701868671
 20
137.05793206130039
 30
0.0
  0
VERTEX
  5
2769
  8
0
 10
139.74030386745179
 20
136.86708547995519
 30
0.0
  0
VERTEX
  5
276A
  8
0
 10
139.8119305598882
 20
136.5337057990096
 30
0.0
  0
VERTEX
  5
276B
  8
0
 10
139.86978659069911
 20
136.180991586875
 30
0.0
  0
VERTEX
  5
276C
  8
0
 10
139.91213772703011
 20
135.81845154485671
 30
0.0
  0
VERTEX
  5
276D
  8
0
 10
139.9392474274232
 20
135.4410797987552
 30
0.0
  0
VERTEX
  5
276E
  8
0
 10
139.94963396467
 20
135.10049160466471
 30
0.0
  0
VERTEX
  5
276F
  8
0
 10
139.94676203432491
 20
134.75288507434809
 30
0.0
  0
VERTEX
  5
2770
  8
0
 10
139.93034876556499
 20
134.40708947277281
 30
0.0
  0
VERTEX
  5
2771
  8
0
 10
139.89970270380161
 20
134.05927937401901
 30
0.0
  0
VERTEX
  5
2772
  8
0
 10
139.8576473365226
 20
133.73548567796391
 30
0.0
  0
VERTEX
  5
2773
  8
0
 10
139.8020001061347
 20
133.414884435098
 30
0.0
  0
VERTEX
  5
2774
  8
0
 10
139.7335217455892
 20
133.1051378871706
 30
0.0
  0
VERTEX
  5
2775
  8
0
 10
139.650850402289
 20
132.80321668723181
 30
0.0
  0
VERTEX
  5
2776
  8
0
 10
139.55598951644919
 20
132.5182137414962
 30
0.0
  0
VERTEX
  5
2777
  8
0
 10
139.4468801786476
 20
132.24536942865191
 30
0.0
  0
VERTEX
  5
2778
  8
0
 10
139.32531318578901
 20
131.99055651980689
 30
0.0
  0
VERTEX
  5
2779
  8
0
 10
139.18951534259341
 20
131.75132961685671
 30
0.0
  0
VERTEX
  5
277A
  8
0
 10
139.03539470059951
 20
131.5238595789389
 30
0.0
  0
VERTEX
  5
277B
  8
0
 10
138.86645466594021
 20
131.31624914298891
 30
0.0
  0
VERTEX
  5
277C
  8
0
 10
138.68555926953121
 20
131.13207594245799
 30
0.0
  0
VERTEX
  5
277D
  8
0
 10
138.49070474727409
 20
130.96924991624741
 30
0.0
  0
VERTEX
  5
277E
  8
0
 10
138.26350179865821
 20
130.8171615521984
 30
0.0
  0
VERTEX
  5
277F
  8
0
 10
138.02110126357309
 20
130.6916009856543
 30
0.0
  0
VERTEX
  5
2780
  8
0
 10
137.76749780619821
 20
130.59363579748569
 30
0.0
  0
VERTEX
  5
2781
  8
0
 10
137.5004630164153
 20
130.52138232100691
 30
0.0
  0
VERTEX
  5
2782
  8
0
 10
137.2989689767536
 20
130.48485556938499
 30
0.0
  0
VERTEX
  5
2783
  8
0
 10
137.09285302150079
 20
130.46154622016689
 30
0.0
  0
VERTEX
  5
2784
  8
0
 10
136.8808484342714
 20
130.4508767870862
 30
0.0
  0
VERTEX
  5
2785
  8
0
 10
136.8026957613057
 20
130.4500767046664
 30
0.0
  0
SEQEND
  5
2786
  8
0
  0
POLYLINE
  5
1BB0
  8
0
 66
     1
 10
0.0
 20
0.0
 30
0.0
  0
VERTEX
  5
2787
  8
0
 10
136.8026957613057
 20
130.4500767046664
 30
0.0
  0
VERTEX
  5
2788
  8
0
 10
136.66489109979821
 20
130.4525167214567
 30
0.0
  0
VERTEX
  5
2789
  8
0
 10
136.4406059247014
 20
130.4663403499315
 30
0.0
  0
VERTEX
  5
278A
  8
0
 10
136.2129053296099
 20
130.491889957539
 30
0.0
  0
VERTEX
  5
278B
  8
0
 10
135.98070945917991
 20
130.5288984160068
 30
0.0
  0
VERTEX
  5
278C
  8
0
 10
135.74571328631751
 20
130.57674365575721
 30
0.0
  0
VERTEX
  5
278D
  8
0
 10
135.4466400122173
 20
130.65159011949859
 30
0.0
  0
VERTEX
  5
278E
  8
0
 10
135.14421122560299
 20
130.74200271549839
 30
0.0
  0
VERTEX
  5
278F
  8
0
 10
134.83671630446599
 20
130.8480664899916
 30
0.0
  0
VERTEX
  5
2790
  8
0
 10
134.5269684196137
 20
130.96852419415589
 30
0.0
  0
VERTEX
  5
2791
  8
0
 10
134.2088398323275
 20
131.1058605681169
 30
0.0
  0
VERTEX
  5
2792
  8
0
 10
133.88960231432941
 20
131.25722420066651
 30
0.0
  0
VERTEX
  5
2793
  8
0
 10
133.56780878174251
 20
131.42344776392309
 30
0.0
  0
VERTEX
  5
2794
  8
0
 10
133.24635164541601
 20
131.60347946086631
 30
0.0
  0
VERTEX
  5
2795
  8
0
 10
132.99757057897571
 20
131.75278986420631
 30
0.0
  0
VERTEX
  5
2796
  8
0
 10
132.74999999999719
 20
131.9106006848437
 30
0.0
  0
SEQEND
  5
2797
  8
0
  0
LINE
  5
1BB1
  8
0
 10
132.74999999999719
 20
138.0893993151559
 30
0.0
 11
132.74999999999719
 21
131.9106006848437
 31
0.0
  0
LINE
  5
1BB2
  8
0
 10
123.9999999999972
 20
128.5
 30
0.0
 11
141.15735654631121
 21
128.5
 31
0.0
  0
ARC
  5
1BB3
  8
0
 10
141.15735654631121
 20
128.59999999999999
 30
0.0
 40
0.0999999999999996
 50
270.0
 51
355.65756548656168
  0
LINE
  5
1BB4
  8
0
 10
123.9999999999972
 20
141.5
 30
0.0
 11
123.9999999999972
 21
128.5
 31
0.0
  0
LINE
  5
1BB5
  8
0
 10
123.9999999999972
 20
141.5
 30
0.0
 11
141.15735654631121
 21
141.5
 31
0.0
  0
ARC
  5
1BB6
  8
0
 10
141.15735654631121
 20
141.40000000000001
 30
0.0
 40
0.1000000000000094
 50
4.3424132225262158
 51
90.0
  0
POLYLINE
  5
1BB9
  8
0
 66
     1
 10
0.0
 20
0.0
 30
0.0
  0
VERTEX
  5
2798
  8
0
 10
132.7499999999969
 20
138.08939931515619
 30
0.0
  0
VERTEX
  5
2799
  8
0
 10
133.0725929649428
 20
138.29319642877729
 30
0.0
  0
VERTEX
  5
279A
  8
0
 10
133.3969931705856
 20
138.4826530526561
 30
0.0
  0
VERTEX
  5
279B
  8
0
 10
133.72443708915151
 20
138.6591847392842
 30
0.0
  0
VERTEX
  5
279C
  8
0
 10
134.05183022175871
 20
138.8213759712464
 30
0.0
  0
VERTEX
  5
279D
  8
0
 10
134.3855453478167
 20
138.9721051161485
 30
0.0
  0
VERTEX
  5
279E
  8
0
 10
134.71765298082221
 20
139.10720934247931
 30
0.0
  0
VERTEX
  5
279F
  8
0
 10
135.04998963129361
 20
139.2269737772431
 30
0.0
  0
VERTEX
  5
27A0
  8
0
 10
135.3792472131056
 20
139.3295036936577
 30
0.0
  0
VERTEX
  5
27A1
  8
0
 10
135.617239771469
 20
139.39295222562171
 30
0.0
  0
VERTEX
  5
27A2
  8
0
 10
135.85291607639579
 20
139.44632895904351
 30
0.0
  0
VERTEX
  5
27A3
  8
0
 10
136.08721479315579
 20
139.48939251263619
 30
0.0
  0
VERTEX
  5
27A4
  8
0
 10
136.31855442383991
 20
139.5213429368101
 30
0.0
  0
VERTEX
  5
27A5
  8
0
 10
136.55082404529449
 20
139.54192366423621
 30
0.0
  0
VERTEX
  5
27A6
  8
0
 10
136.7793121545368
 20
139.54984999159331
 30
0.0
  0
VERTEX
  5
27A7
  8
0
 10
136.80288125368679
 20
139.54992330850479
 30
0.0
  0
SEQEND
  5
27A8
  8
0
  0
POLYLINE
  5
1BBA
  8
0
 66
     1
 10
0.0
 20
0.0
 30
0.0
  0
VERTEX
  5
27A9
  8
0
 10
132.74999999999719
 20
131.9106006848437
 30
0.0
  0
VERTEX
  5
27AA
  8
0
 10
132.3291318952877
 20
132.20231843199969
 30
0.0
  0
VERTEX
  5
27AB
  8
0
 10
131.91574575394679
 20
132.52325253693871
 30
0.0
  0
VERTEX
  5
27AC
  8
0
 10
131.7110804822949
 20
132.6980204264166
 30
0.0
  0
VERTEX
  5
27AD
  8
0
 10
131.51122973965269
 20
132.88161358819019
 30
0.0
  0
VERTEX
  5
27AE
  8
0
 10
131.31597174410689
 20
133.07638775798199
 30
0.0
  0
VERTEX
  5
27AF
  8
0
 10
131.12877119917391
 20
133.2819747551377
 30
0.0
  0
VERTEX
  5
27B0
  8
0
 10
131.0029282286539
 20
133.43394951608201
 30
0.0
  0
VERTEX
  5
27B1
  8
0
 10
130.88333739743189
 20
133.59232644570011
 30
0.0
  0
VERTEX
  5
27B2
  8
0
 10
130.77006653597621
 20
133.75950140865089
 30
0.0
  0
VERTEX
  5
27B3
  8
0
 10
130.66627442138019
 20
133.93409461071431
 30
0.0
  0
VERTEX
  5
27B4
  8
0
 10
130.57472806764599
 20
134.11483168220289
 30
0.0
  0
VERTEX
  5
27B5
  8
0
 10
130.49688978519751
 20
134.30306460077171
 30
0.0
  0
VERTEX
  5
27B6
  8
0
 10
130.43359937781739
 20
134.50529223031191
 30
0.0
  0
VERTEX
  5
27B7
  8
0
 10
130.3905816270258
 20
134.7136339804743
 30
0.0
  0
VERTEX
  5
27B8
  8
0
 10
130.3739687420547
 20
134.86156879633651
 30
0.0
  0
VERTEX
  5
27B9
  8
0
 10
130.3688987344695
 20
135.01048478721879
 30
0.0
  0
VERTEX
  5
27BA
  8
0
 10
130.37600125208249
 20
135.16379297010249
 30
0.0
  0
VERTEX
  5
27BB
  8
0
 10
130.39528184174941
 20
135.31587706530189
 30
0.0
  0
VERTEX
  5
27BC
  8
0
 10
130.4251260651597
 20
135.46124156237221
 30
0.0
  0
VERTEX
  5
27BD
  8
0
 10
130.46506874185559
 20
135.6037382139416
 30
0.0
  0
VERTEX
  5
27BE
  8
0
 10
130.5153449398162
 20
135.7457515533479
 30
0.0
  0
VERTEX
  5
27BF
  8
0
 10
130.57411090266311
 20
135.8838463741539
 30
0.0
  0
VERTEX
  5
27C0
  8
0
 10
130.69222671677329
 20
136.11201858287549
 30
0.0
  0
VERTEX
  5
27C1
  8
0
 10
130.82778117073909
 20
136.32814827160789
 30
0.0
  0
VERTEX
  5
27C2
  8
0
 10
130.98071777595979
 20
136.53780943753259
 30
0.0
  0
VERTEX
  5
27C3
  8
0
 10
131.1447356948259
 20
136.73642629497351
 30
0.0
  0
VERTEX
  5
27C4
  8
0
 10
131.32484390137
 20
136.9328493942437
 30
0.0
  0
VERTEX
  5
27C5
  8
0
 10
131.51226709879509
 20
137.11937722980619
 30
0.0
  0
VERTEX
  5
27C6
  8
0
 10
131.70697818882931
 20
137.2983471392912
 30
0.0
  0
VERTEX
  5
27C7
  8
0
 10
131.90628128462339
 20
137.46892367177259
 30
0.0
  0
VERTEX
  5
27C8
  8
0
 10
132.32257945453199
 20
137.7928823096079
 30
0.0
  0
VERTEX
  5
27C9
  8
0
 10
132.74999999999719
 20
138.0893993151559
 30
0.0
  0
SEQEND
  5
27CA
  8
0
  0
ARC
  5
1BBB
  8
0
 10
56.874999999997542
 20
135.0
 30
0.0
 40
84.624999999999631
 50
355.65756548656168
 51
4.3424344882782311
  0
POLYLINE
  5
1BBC
  8
0
 66
     1
 10
0.0
 20
0.0
 30
0.0
  0
VERTEX
  5
27CB
  8
0
 10
111.19711874630759
 20
130.45007669149521
 30
0.0
  0
VERTEX
  5
27CC
  8
0
 10
110.9947158266793
 20
130.45558493678041
 30
0.0
  0
VERTEX
  5
27CD
  8
0
 10
110.7733939238622
 20
130.4751307651791
 30
0.0
  0
VERTEX
  5
27CE
  8
0
 10
110.45294497642909
 20
130.53193401804151
 30
0.0
  0
VERTEX
  5
27CF
  8
0
 10
110.24332494809779
 20
130.5901523543269
 30
0.0
  0
VERTEX
  5
27D0
  8
0
 10
110.0399677510276
 20
130.6651290709743
 30
0.0
  0
VERTEX
  5
27D1
  8
0
 10
109.84369947805
 20
130.75738051093651
 30
0.0
  0
VERTEX
  5
27D2
  8
0
 10
109.6989544393375
 20
130.83981763677431
 30
0.0
  0
VERTEX
  5
27D3
  8
0
 10
109.5588167627425
 20
130.9329044274202
 30
0.0
  0
VERTEX
  5
27D4
  8
0
 10
109.34482099886711
 20
131.10445291751381
 30
0.0
  0
VERTEX
  5
27D5
  8
0
 10
109.1411317856132
 20
131.30781034485591
 30
0.0
  0
VERTEX
  5
27D6
  8
0
 10
108.9523608929014
 20
131.54048066279859
 30
0.0
  0
VERTEX
  5
27D7
  8
0
 10
108.7765992856697
 20
131.8072192287768
 30
0.0
  0
VERTEX
  5
27D8
  8
0
 10
108.62321470036341
 20
132.0930589650732
 30
0.0
  0
VERTEX
  5
27D9
  8
0
 10
108.52845660096629
 20
132.30291424989829
 30
0.0
  0
VERTEX
  5
27DA
  8
0
 10
108.4417405851999
 20
132.52452440113251
 30
0.0
  0
VERTEX
  5
27DB
  8
0
 10
108.36342716456269
 20
132.75674850447089
 30
0.0
  0
VERTEX
  5
27DC
  8
0
 10
108.3090298131273
 20
132.94206793869969
 30
0.0
  0
VERTEX
  5
27DD
  8
0
 10
108.2596961325426
 20
133.13291452004481
 30
0.0
  0
VERTEX
  5
27DE
  8
0
 10
108.1880694401062
 20
133.46629420099049
 30
0.0
  0
VERTEX
  5
27DF
  8
0
 10
108.13021340929519
 20
133.819008413125
 30
0.0
  0
VERTEX
  5
27E0
  8
0
 10
108.0878622729643
 20
134.18154845514329
 30
0.0
  0
VERTEX
  5
27E1
  8
0
 10
108.0607525725712
 20
134.55892020124489
 30
0.0
  0
VERTEX
  5
27E2
  8
0
 10
108.0503660353244
 20
134.8995083953354
 30
0.0
  0
VERTEX
  5
27E3
  8
0
 10
108.0532379656695
 20
135.24711492565191
 30
0.0
  0
VERTEX
  5
27E4
  8
0
 10
108.0696512344294
 20
135.5929105272273
 30
0.0
  0
VERTEX
  5
27E5
  8
0
 10
108.10029729619269
 20
135.9407206259811
 30
0.0
  0
VERTEX
  5
27E6
  8
0
 10
108.1423526634718
 20
136.26451432203621
 30
0.0
  0
VERTEX
  5
27E7
  8
0
 10
108.1979998938597
 20
136.58511556490211
 30
0.0
  0
VERTEX
  5
27E8
  8
0
 10
108.2664782544052
 20
136.8948621128294
 30
0.0
  0
VERTEX
  5
27E9
  8
0
 10
108.34914959770541
 20
137.1967833127683
 30
0.0
  0
VERTEX
  5
27EA
  8
0
 10
108.4440104835452
 20
137.4817862585038
 30
0.0
  0
VERTEX
  5
27EB
  8
0
 10
108.5531198213468
 20
137.7546305713482
 30
0.0
  0
VERTEX
  5
27EC
  8
0
 10
108.6746868142054
 20
138.00944348019311
 30
0.0
  0
VERTEX
  5
27ED
  8
0
 10
108.81048465740101
 20
138.24867038314341
 30
0.0
  0
VERTEX
  5
27EE
  8
0
 10
108.9646052993949
 20
138.47614042106119
 30
0.0
  0
VERTEX
  5
27EF
  8
0
 10
109.1335453340542
 20
138.68375085701109
 30
0.0
  0
VERTEX
  5
27F0
  8
0
 10
109.3144407304631
 20
138.8679240575421
 30
0.0
  0
VERTEX
  5
27F1
  8
0
 10
109.50929525272031
 20
139.03075008375259
 30
0.0
  0
VERTEX
  5
27F2
  8
0
 10
109.7364982013362
 20
139.1828384478016
 30
0.0
  0
VERTEX
  5
27F3
  8
0
 10
109.9788987364213
 20
139.3083990143457
 30
0.0
  0
VERTEX
  5
27F4
  8
0
 10
110.23250219379619
 20
139.40636420251431
 30
0.0
  0
VERTEX
  5
27F5
  8
0
 10
110.49953698357911
 20
139.47861767899309
 30
0.0
  0
VERTEX
  5
27F6
  8
0
 10
110.7010310232408
 20
139.51514443061509
 30
0.0
  0
VERTEX
  5
27F7
  8
0
 10
110.9071469784936
 20
139.53845377983311
 30
0.0
  0
VERTEX
  5
27F8
  8
0
 10
111.119151565723
 20
139.5491232129138
 30
0.0
  0
VERTEX
  5
27F9
  8
0
 10
111.1973042386887
 20
139.54992329533371
 30
0.0
  0
SEQEND
  5
27FA
  8
0
  0
POLYLINE
  5
1BBD
  8
0
 66
     1
 10
0.0
 20
0.0
 30
0.0
  0
VERTEX
  5
27FB
  8
0
 10
111.1973042386887
 20
139.54992329533371
 30
0.0
  0
VERTEX
  5
27FC
  8
0
 10
111.3351089001962
 20
139.5474832785433
 30
0.0
  0
VERTEX
  5
27FD
  8
0
 10
111.559394075293
 20
139.5336596500685
 30
0.0
  0
VERTEX
  5
27FE
  8
0
 10
111.7870946703845
 20
139.508110042461
 30
0.0
  0
VERTEX
  5
27FF
  8
0
 10
112.0192905408145
 20
139.47110158399329
 30
0.0
  0
VERTEX
  5
2800
  8
0
 10
112.2542867136769
 20
139.42325634424279
 30
0.0
  0
VERTEX
  5
2801
  8
0
 10
112.5533599877772
 20
139.34840988050149
 30
0.0
  0
VERTEX
  5
2802
  8
0
 10
112.8557887743914
 20
139.25799728450161
 30
0.0
  0
VERTEX
  5
2803
  8
0
 10
113.16328369552851
 20
139.1519335100084
 30
0.0
  0
VERTEX
  5
2804
  8
0
 10
113.47303158038071
 20
139.03147580584411
 30
0.0
  0
VERTEX
  5
2805
  8
0
 10
113.7911601676669
 20
138.8941394318831
 30
0.0
  0
VERTEX
  5
2806
  8
0
 10
114.11039768566501
 20
138.7427757993336
 30
0.0
  0
VERTEX
  5
2807
  8
0
 10
114.4321912182519
 20
138.57655223607699
 30
0.0
  0
VERTEX
  5
2808
  8
0
 10
114.7536483545784
 20
138.39652053913369
 30
0.0
  0
VERTEX
  5
2809
  8
0
 10
115.0024294210187
 20
138.24721013579369
 30
0.0
  0
VERTEX
  5
280A
  8
0
 10
115.2499999999972
 20
138.08939931515641
 30
0.0
  0
SEQEND
  5
280B
  8
0
  0
LINE
  5
1BBE
  8
0
 10
115.2499999999972
 20
131.9106006848441
 30
0.0
 11
115.2499999999972
 21
138.08939931515641
 31
0.0
  0
LINE
  5
1BBF
  8
0
 10
123.9999999999972
 20
141.5
 30
0.0
 11
106.84264345368319
 21
141.5
 31
0.0
  0
ARC
  5
1BC0
  8
0
 10
106.84264345368319
 20
141.40000000000001
 30
0.0
 40
0.0999999999999996
 50
90.0
 51
175.65756548656171
  0
LINE
  5
1BC2
  8
0
 10
123.9999999999972
 20
128.5
 30
0.0
 11
106.84264345368319
 21
128.5
 31
0.0
  0
ARC
  5
1BC3
  8
0
 10
106.84264345368319
 20
128.60000000000011
 30
0.0
 40
0.1000000000000094
 50
184.3424132225262
 51
270.0
  0
POLYLINE
  5
1BC6
  8
0
 66
     1
 10
0.0
 20
0.0
 30
0.0
  0
VERTEX
  5
280C
  8
0
 10
115.2499999999975
 20
131.9106006848439
 30
0.0
  0
VERTEX
  5
280D
  8
0
 10
114.9274070350516
 20
131.70680357122279
 30
0.0
  0
VERTEX
  5
280E
  8
0
 10
114.6030068294088
 20
131.51734694734401
 30
0.0
  0
VERTEX
  5
280F
  8
0
 10
114.27556291084289
 20
131.34081526071591
 30
0.0
  0
VERTEX
  5
2810
  8
0
 10
113.94816977823569
 20
131.1786240287536
 30
0.0
  0
VERTEX
  5
2811
  8
0
 10
113.6144546521778
 20
131.0278948838515
 30
0.0
  0
VERTEX
  5
2812
  8
0
 10
113.28234701917221
 20
130.89279065752069
 30
0.0
  0
VERTEX
  5
2813
  8
0
 10
112.9500103687008
 20
130.7730262227569
 30
0.0
  0
VERTEX
  5
2814
  8
0
 10
112.6207527868889
 20
130.67049630634239
 30
0.0
  0
VERTEX
  5
2815
  8
0
 10
112.3827602285254
 20
130.60704777437829
 30
0.0
  0
VERTEX
  5
2816
  8
0
 10
112.1470839235987
 20
130.55367104095649
 30
0.0
  0
VERTEX
  5
2817
  8
0
 10
111.91278520683861
 20
130.51060748736381
 30
0.0
  0
VERTEX
  5
2818
  8
0
 10
111.6814455761545
 20
130.4786570631899
 30
0.0
  0
VERTEX
  5
2819
  8
0
 10
111.4491759546999
 20
130.45807633576379
 30
0.0
  0
VERTEX
  5
281A
  8
0
 10
111.2206878454577
 20
130.45015000840661
 30
0.0
  0
VERTEX
  5
281B
  8
0
 10
111.19711874630759
 20
130.45007669149521
 30
0.0
  0
SEQEND
  5
281C
  8
0
  0
POLYLINE
  5
1BC7
  8
0
 66
     1
 10
0.0
 20
0.0
 30
0.0
  0
VERTEX
  5
281D
  8
0
 10
115.2499999999972
 20
138.08939931515641
 30
0.0
  0
VERTEX
  5
281E
  8
0
 10
115.6708681047067
 20
137.7976815680004
 30
0.0
  0
VERTEX
  5
281F
  8
0
 10
116.08425424604761
 20
137.47674746306129
 30
0.0
  0
VERTEX
  5
2820
  8
0
 10
116.2889195176995
 20
137.3019795735834
 30
0.0
  0
VERTEX
  5
2821
  8
0
 10
116.4887702603417
 20
137.11838641180989
 30
0.0
  0
VERTEX
  5
2822
  8
0
 10
116.6840282558875
 20
136.92361224201809
 30
0.0
  0
VERTEX
  5
2823
  8
0
 10
116.8712288008205
 20
136.7180252448623
 30
0.0
  0
VERTEX
  5
2824
  8
0
 10
116.9970717713405
 20
136.56605048391799
 30
0.0
  0
VERTEX
  5
2825
  8
0
 10
117.1166626025625
 20
136.40767355429989
 30
0.0
  0
VERTEX
  5
2826
  8
0
 10
117.2299334640182
 20
136.24049859134919
 30
0.0
  0
VERTEX
  5
2827
  8
0
 10
117.33372557861421
 20
136.06590538928569
 30
0.0
  0
VERTEX
  5
2828
  8
0
 10
117.42527193234839
 20
135.88516831779719
 30
0.0
  0
VERTEX
  5
2829
  8
0
 10
117.50311021479691
 20
135.69693539922841
 30
0.0
  0
VERTEX
  5
282A
  8
0
 10
117.566400622177
 20
135.4947077696882
 30
0.0
  0
VERTEX
  5
282B
  8
0
 10
117.60941837296861
 20
135.28636601952579
 30
0.0
  0
VERTEX
  5
282C
  8
0
 10
117.6260312579397
 20
135.1384312036636
 30
0.0
  0
VERTEX
  5
282D
  8
0
 10
117.6311012655249
 20
134.9895152127813
 30
0.0
  0
VERTEX
  5
282E
  8
0
 10
117.6239987479118
 20
134.83620702989751
 30
0.0
  0
VERTEX
  5
282F
  8
0
 10
117.60471815824501
 20
134.68412293469811
 30
0.0
  0
VERTEX
  5
2830
  8
0
 10
117.5748739348347
 20
134.53875843762779
 30
0.0
  0
VERTEX
  5
2831
  8
0
 10
117.5349312581388
 20
134.3962617860584
 30
0.0
  0
VERTEX
  5
2832
  8
0
 10
117.4846550601782
 20
134.25424844665221
 30
0.0
  0
VERTEX
  5
2833
  8
0
 10
117.42588909733129
 20
134.1161536258461
 30
0.0
  0
VERTEX
  5
2834
  8
0
 10
117.3077732832211
 20
133.88798141712451
 30
0.0
  0
VERTEX
  5
2835
  8
0
 10
117.1722188292553
 20
133.67185172839211
 30
0.0
  0
VERTEX
  5
2836
  8
0
 10
117.0192822240345
 20
133.46219056246741
 30
0.0
  0
VERTEX
  5
2837
  8
0
 10
116.8552643051685
 20
133.26357370502649
 30
0.0
  0
VERTEX
  5
2838
  8
0
 10
116.6751560986244
 20
133.0671506057563
 30
0.0
  0
VERTEX
  5
2839
  8
0
 10
116.48773290119929
 20
132.88062277019381
 30
0.0
  0
VERTEX
  5
283A
  8
0
 10
116.2930218111652
 20
132.7016528607088
 30
0.0
  0
VERTEX
  5
283B
  8
0
 10
116.093718715371
 20
132.53107632822741
 30
0.0
  0
VERTEX
  5
283C
  8
0
 10
115.6774205454624
 20
132.2071176903921
 30
0.0
  0
VERTEX
  5
283D
  8
0
 10
115.2499999999972
 20
131.9106006848441
 30
0.0
  0
SEQEND
  5
283E
  8
0
  0
ARC
  5
1BC8
  8
0
 10
191.12499999999679
 20
135.0
 30
0.0
 40
84.624999999999631
 50
175.65756548656171
 51
184.3424344882782
  0
ARC
  5
1BCF
  8
0
 10
123.9999999999972
 20
67.500000000000028
 30
0.0
 40
6.0
 50
90.0
 51
270.0
  0
LINE
  5
1E8C
  8
2
 10
119.84999999999719
 20
57.750000000000028
 30
0.0
 11
129.54999999999711
 21
57.750000000000021
 31
0.0
  0
LINE
  5
1E8D
  8
2
 10
129.54999999999711
 20
53.750000000000028
 30
0.0
 11
119.84999999999719
 21
53.750000000000028
 31
0.0
  0
ARC
  5
1E8F
  8
2
 10
119.8499999999971
 20
57.94999999999991
 30
0.0
 40
0.1999999999998856
 50
249.44395478040721
 51
270.0
  0
ARC
  5
1E90
  8
2
 10
119.8499999999971
 20
53.550000000000153
 30
0.0
 40
0.1999999999998855
 50
90.0
 51
110.5560452195928
  0
LINE
  5
1E91
  8
2
 10
119.84999999999719
 20
53.750000000000028
 30
0.0
 11
119.84999999999719
 21
57.750000000000028
 31
0.0
  0
LINE
  5
1E92
  8
2
 10
119.7797753116795
 20
53.737265835513853
 30
0.0
 11
119.3797753116795
 21
53.587265835513819
 31
0.0
  0
LINE
  5
1E93
  8
2
 10
119.3797753116795
 20
57.912734164486238
 30
0.0
 11
119.7797753116795
 21
57.762734164486211
 31
0.0
  0
ARC
  5
1E94
  8
2
 10
119.4499999999971
 20
58.100000000000051
 30
0.0
 40
0.1999999999999973
 50
180.0
 51
249.44395478041881
  0
ARC
  5
1E95
  8
2
 10
119.4499999999971
 20
53.399999999999999
 30
0.0
 40
0.1999999999999975
 50
110.55604521958119
 51
180.0
  0
LINE
  5
1E96
  8
2
 10
119.2499999999971
 20
52.250000000000028
 30
0.0
 11
119.2499999999971
 21
59.250000000000028
 31
0.0
  0
LINE
  5
1E97
  8
2
 10
129.54999999999711
 20
57.320500000000052
 30
0.0
 11
121.3499999999971
 21
57.320500000000003
 31
0.0
  0
LINE
  5
1E98
  8
2
 10
121.3499999999971
 20
57.750000000000028
 30
0.0
 11
121.3499999999971
 21
53.750000000000028
 31
0.0
  0
LINE
  5
1E99
  8
2
 10
129.54999999999711
 20
54.179500000000097
 30
0.0
 11
121.3499999999971
 21
54.17950000000004
 31
0.0
  0
LINE
  5
1E9A
  8
2
 10
119.2499999999971
 20
52.250000000000028
 30
0.0
 11
115.2499999999971
 21
52.250000000000028
 31
0.0
  0
LINE
  5
1E9B
  8
2
 10
115.2499999999971
 20
59.250000000000028
 30
0.0
 11
119.2499999999971
 21
59.250000000000028
 31
0.0
  0
LINE
  5
2295
  8
2
 10
129.54999999999711
 20
52.25000000284831
 30
0.0
 11
129.54999999999711
 21
59.249999997151178
 31
0.0
  0
LINE
  5
2297
  8
2
 10
129.54999999999711
 20
59.249999997151178
 30
0.0
 11
132.69226497472269
 21
59.249999997151193
 31
0.0
  0
LINE
  5
2298
  8
2
 10
132.69226497472241
 20
52.250000002848289
 30
0.0
 11
129.54999999999711
 21
52.25000000284831
 31
0.0
  0
LINE
  5
2299
  8
2
 10
132.7499999999971
 20
52.350000000000378
 30
0.0
 11
132.69226497472241
 21
52.250000002848289
 31
0.0
  0
ARC
  5
229A
  8
2
 10
127.6376445983273
 20
54.000000001424482
 30
0.0
 40
5.054620376395234
 50
339.74384199953857
 51
20.256158000455809
  0
ARC
  5
229B
  8
2
 10
127.6376445983273
 20
57.499999998575611
 30
0.0
 40
5.054620376395234
 50
339.7438419995442
 51
20.25615800046133
  0
LINE
  5
229C
  8
2
 10
132.7499999999971
 20
59.1499999999997
 30
0.0
 11
132.69226497472269
 21
59.249999997151193
 31
0.0
  0
LINE
  5
229D
  8
2
 10
132.3796575838067
 20
55.750000000000043
 30
0.0
 11
129.54999999999711
 21
55.750000000000021
 31
0.0
  0
LINE
  5
229E
  8
2
 10
129.54999999999711
 20
75.75000000284831
 30
0.0
 11
129.54999999999711
 21
82.749999997151178
 31
0.0
  0
LINE
  5
229F
  8
2
 10
129.54999999999711
 20
82.749999997151178
 30
0.0
 11
132.69226497472269
 21
82.749999997151178
 31
0.0
  0
LINE
  5
22A0
  8
2
 10
132.69226497472241
 20
75.750000002848296
 30
0.0
 11
129.54999999999711
 21
75.75000000284831
 31
0.0
  0
LINE
  5
22A1
  8
2
 10
132.7499999999971
 20
75.850000000000378
 30
0.0
 11
132.69226497472241
 21
75.750000002848296
 31
0.0
  0
ARC
  5
22A2
  8
2
 10
127.6376445983273
 20
77.500000001424482
 30
0.0
 40
5.054620376395234
 50
339.74384199953869
 51
20.256158000455869
  0
ARC
  5
22A3
  8
2
 10
127.6376445983273
 20
80.999999998575603
 30
0.0
 40
5.054620376395234
 50
339.7438419995442
 51
20.256158000461301
  0
LINE
  5
22A4
  8
2
 10
132.7499999999971
 20
82.649999999999693
 30
0.0
 11
132.69226497472269
 21
82.749999997151178
 31
0.0
  0
LINE
  5
22A5
  8
2
 10
132.3796575838067
 20
79.250000000000043
 30
0.0
 11
129.54999999999711
 21
79.250000000000028
 31
0.0
  0
ARC
  5
23C3
  8
2
 10
115.64999999999711
 20
76.150000000000034
 30
0.0
 40
0.399999999999995
 50
180.0
 51
270.0
  0
ARC
  5
23C4
  8
2
 10
115.64999999999711
 20
82.350000000000037
 30
0.0
 40
0.399999999999995
 50
90.0
 51
180.0
  0
ARC
  5
23C5
  8
2
 10
115.64999999999711
 20
52.650000000000041
 30
0.0
 40
0.399999999999995
 50
180.0
 51
270.0
  0
ARC
  5
23C6
  8
2
 10
115.64999999999711
 20
58.850000000000037
 30
0.0
 40
0.399999999999995
 50
90.0
 51
180.0
  0
ARC
  5
2459
  8
0
 10
123.9999999999972
 20
67.500000000000028
 30
0.0
 40
6.0
 50
270.0
 51
90.0
  0
ENDSEC
  0
EOF
