  0
SECTION
  2
HEADER
  9
$ACADVER
  1
AC1009
  9
$INSBASE
 10
0.0
 20
0.0
 30
0.0
  9
$EXTMIN
 10
0.0
 20
-2.960436562073669
 30
0.0
  9
$EXTMAX
 10
177.7563393692013
 20
59.865853526504338
 30
0.0
  9
$LIMMIN
 10
0.0
 20
0.0
  9
$LIMMAX
 10
375.0
 20
270.0
  9
$ORTHOMODE
 70
     0
  9
$REGENMODE
 70
     1
  9
$FILLMODE
 70
     1
  9
$QTEXTMODE
 70
     0
  9
$MIRRTEXT
 70
     0
  9
$DRAGMODE
 70
     2
  9
$LTSCALE
 40
10.0
  9
$OSMODE
 70
  3071
  9
$ATTMODE
 70
     1
  9
$TEXTSIZE
 40
2.0
  9
$TRACEWID
 40
0.05
  9
$TEXTSTYLE
  7
STANDARD
  9
$CLAYER
  8
0
  9
$CELTYPE
  6
BYLAYER
  9
$CECOLOR
 62
   256
  9
$DIMSCALE
 40
1.0
  9
$DIMASZ
 40
2.5
  9
$DIMEXO
 40
2.0
  9
$DIMDLI
 40
0.38
  9
$DIMRND
 40
0.0
  9
$DIMDLE
 40
0.0
  9
$DIMEXE
 40
2.0
  9
$DIMTP
 40
0.0
  9
$DIMTM
 40
0.0
  9
$DIMTXT
 40
3.0
  9
$DIMCEN
 40
0.09
  9
$DIMTSZ
 40
0.0
  9
$DIMTOL
 70
     0
  9
$DIMLIM
 70
     0
  9
$DIMTIH
 70
     0
  9
$DIMTOH
 70
     0
  9
$DIMSE1
 70
     0
  9
$DIMSE2
 70
     0
  9
$DIMTAD
 70
     1
  9
$DIMZIN
 70
     0
  9
$DIMBLK
  1

  9
$DIMASO
 70
     1
  9
$DIMSHO
 70
     0
  9
$DIMPOST
  1

  9
$DIMAPOST
  1

  9
$DIMALT
 70
     0
  9
$DIMALTD
 70
     2
  9
$DIMALTF
 40
25.399999999999999
  9
$DIMLFAC
 40
1.0
  9
$DIMTOFL
 70
     0
  9
$DIMTVP
 40
1.6000000000000001
  9
$DIMTIX
 70
     1
  9
$DIMSOXD
 70
     0
  9
$DIMSAH
 70
     0
  9
$DIMBLK1
  1

  9
$DIMBLK2
  1

  9
$DIMSTYLE
  2
STANDARD
  9
$DIMCLRD
 70
     0
  9
$DIMCLRE
 70
     0
  9
$DIMCLRT
 70
     0
  9
$DIMTFAC
 40
1.0
  9
$DIMGAP
 40
0.09
  9
$LUNITS
 70
     2
  9
$LUPREC
 70
     4
  9
$SKETCHINC
 40
0.1
  9
$FILLETRAD
 40
2.5
  9
$AUNITS
 70
     0
  9
$AUPREC
 70
     0
  9
$MENU
  1
E:\r13\win\SUPPORT\ACAD
  9
$ELEVATION
 40
0.0
  9
$PELEVATION
 40
0.0
  9
$THICKNESS
 40
0.0
  9
$LIMCHECK
 70
     0
  9
$BLIPMODE
 70
     0
  9
$CHAMFERA
 40
0.0
  9
$CHAMFERB
 40
0.0
  9
$SKPOLY
 70
     0
  9
$TDCREATE
 40
2448650.5678784722
  9
$TDUPDATE
 40
2456598.68634478
  9
$TDINDWG
 40
0.0201137269
  9
$TDUSRTIMER
 40
0.0201137269
  9
$USRTIMER
 70
     1
  9
$ANGBASE
 50
0.0
  9
$ANGDIR
 70
     0
  9
$PDMODE
 70
     0
  9
$PDSIZE
 40
0.0
  9
$PLINEWID
 40
0.0
  9
$COORDS
 70
     1
  9
$SPLFRAME
 70
     0
  9
$SPLINETYPE
 70
     6
  9
$SPLINESEGS
 70
     8
  9
$ATTDIA
 70
     0
  9
$ATTREQ
 70
     1
  9
$HANDLING
 70
     1
  9
$HANDSEED
  5
DCE
  9
$SURFTAB1
 70
     6
  9
$SURFTAB2
 70
     6
  9
$SURFTYPE
 70
     6
  9
$SURFU
 70
     6
  9
$SURFV
 70
     6
  9
$UCSNAME
  2

  9
$UCSORG
 10
0.0
 20
0.0
 30
0.0
  9
$UCSXDIR
 10
1.0
 20
0.0
 30
0.0
  9
$UCSYDIR
 10
0.0
 20
1.0
 30
0.0
  9
$PUCSNAME
  2

  9
$PUCSORG
 10
0.0
 20
0.0
 30
0.0
  9
$PUCSXDIR
 10
1.0
 20
0.0
 30
0.0
  9
$PUCSYDIR
 10
0.0
 20
1.0
 30
0.0
  9
$USERI1
 70
     0
  9
$USERI2
 70
     1
  9
$USERI3
 70
     1
  9
$USERI4
 70
     0
  9
$USERI5
 70
     0
  9
$USERR1
 40
0.0
  9
$USERR2
 40
0.0
  9
$USERR3
 40
0.0
  9
$USERR4
 40
0.0
  9
$USERR5
 40
0.0
  9
$WORLDVIEW
 70
     1
  9
$SHADEDGE
 70
     3
  9
$SHADEDIF
 70
    70
  9
$TILEMODE
 70
     1
  9
$MAXACTVP
 70
    16
  9
$PLIMCHECK
 70
     0
  9
$PEXTMIN
 10
1.0000000000000000E+020
 20
1.0000000000000000E+020
 30
1.0000000000000000E+020
  9
$PEXTMAX
 10
-1.0000000000000000E+020
 20
-1.0000000000000000E+020
 30
-1.0000000000000000E+020
  9
$PLIMMIN
 10
0.0
 20
0.0
  9
$PLIMMAX
 10
12.0
 20
9.0
  9
$UNITMODE
 70
     0
  9
$VISRETAIN
 70
     0
  9
$PLINEGEN
 70
     1
  9
$PSLTSCALE
 70
     0
  0
ENDSEC
  0
SECTION
  2
TABLES
  0
TABLE
  2
VPORT
 70
     1
  0
VPORT
  2
*ACTIVE
 70
     0
 10
0.0
 20
0.0
 11
1.0
 21
1.0
 12
187.49427839065231
 22
169.9063198933564
 13
0.0
 23
0.0
 14
10.0
 24
10.0
 15
10.0
 25
10.0
 16
0.0
 26
0.0
 36
1.0
 17
0.0
 27
0.0
 37
0.0
 40
348.89937369551939
 41
1.831871345029239
 42
50.0
 43
0.0
 44
0.0
 50
0.0
 51
0.0
 71
     0
 72
   500
 73
     1
 74
     0
 75
     0
 76
     0
 77
     0
 78
     2
  0
ENDTAB
  0
TABLE
  2
LTYPE
 70
     3
  0
LTYPE
  2
CONTINUOUS
 70
     0
  3
Solid Line
 72
    65
 73
     0
 40
0.0
  0
LTYPE
  2
CENTER
 70
     0
  3
____ _ ____ _ ____ _ ____ _ ____ _ ____ _ ____
 72
    65
 73
     4
 40
2.0
 49
1.25
 49
-0.25
 49
0.25
 49
-0.25
  0
LTYPE
  2
PHANTOM2
 70
     0
  3
___ _ _ ___ _ _ ___ _ _ ___ _ _
 72
    65
 73
     6
 40
1.25
 49
0.625
 49
-0.125
 49
0.125
 49
-0.125
 49
0.125
 49
-0.125
  0
ENDTAB
  0
TABLE
  2
LAYER
 70
     3
  0
LAYER
  2
0
 70
     0
 62
     7
  6
CONTINUOUS
  0
LAYER
  2
1
 70
     0
 62
     1
  6
CENTER
  0
LAYER
  2
3
 70
     0
 62
     3
  6
CONTINUOUS
  0
ENDTAB
  0
TABLE
  2
STYLE
 70
     3
  0
STYLE
  2
STANDARD
 70
     0
 40
0.0
 41
1.0
 50
0.0
 71
     0
 42
2.0
  3
TXT
  4
BIGFONT
  0
STYLE
  2
07500
 70
     0
 40
0.0
 41
0.75
 50
0.0
 71
     0
 42
0.2
  3
simplex.shx
  4
BIGFONT.shx
  0
STYLE
  2
STANDARD1
 70
     0
 40
0.0
 41
1.0
 50
0.0
 71
     0
 42
3.0
  3
txt
  4

  0
ENDTAB
  0
TABLE
  2
VIEW
 70
     1
  0
VIEW
  2
ALL
 70
     0
 40
270.0
 10
220.99159663865549
 20
135.0
 41
0.0
 11
0.0
 21
0.0
 31
1.0
 12
0.0
 22
0.0
 32
0.0
 42
0.0
 43
0.0
 44
0.0
 50
0.0
 71
     0
  0
ENDTAB
  0
TABLE
  2
UCS
 70
     0
  0
ENDTAB
  0
TABLE
  2
APPID
 70
     3
  0
APPID
  2
ACAD
 70
     0
  0
APPID
  2
ACAD_MLEADERVER
 70
     0
  0
APPID
  2
ACAD_NAV_VCDISPLAY
 70
     0
  0
ENDTAB
  0
TABLE
  2
DIMSTYLE
 70
     1
  0
DIMSTYLE
  2
STANDARD
 70
     0
  3

  4

  5

  6

  7

 40
1.0
 41
0.18
 42
0.0625
 43
0.38
 44
0.18
 45
0.0
 46
0.0
 47
0.0
 48
0.0
140
0.18
141
0.09
142
0.0
143
25.399999999999999
144
1.0
145
0.0
146
1.0
147
0.09
 71
     0
 72
     0
 73
     1
 74
     1
 75
     0
 76
     0
 77
     0
 78
     0
170
     0
171
     2
172
     0
173
     0
174
     0
175
     0
176
     0
177
     0
178
     0
  0
ENDTAB
  0
ENDSEC
  0
SECTION
  2
BLOCKS
  0
BLOCK
  8
0
  2
$MODEL_SPACE
 70
     0
 10
0.0
 20
0.0
 30
0.0
  3
$MODEL_SPACE
  1

  0
ENDBLK
  5
217
  8
0
  0
BLOCK
 67
     1
  8
0
  2
$PAPER_SPACE
 70
     0
 10
0.0
 20
0.0
 30
0.0
  3
$PAPER_SPACE
  1

  0
ENDBLK
  5
215
 67
     1
  8
0
  0
ENDSEC
  0
SECTION
  2
ENTITIES
  0
LINE
  5
C09
  8
3
 10
128.25358506101901
 20
55.865853526504161
 30
0.0
 11
128.25358506101901
 21
59.865853526504168
 31
0.0
  0
LINE
  5
C0A
  8
3
 10
38.253585061019059
 20
55.865853526504161
 30
0.0
 11
38.253585061019059
 21
59.865853526504168
 31
0.0
  0
LINE
  5
C0B
  8
0
 10
177.7563393692013
 20
59.865853526504338
 30
0.0
 11
177.75633936920121
 21
47.865853526504281
 31
0.0
  0
LINE
  5
C0C
  8
0
 10
177.25633936920121
 20
59.865853526504338
 30
0.0
 11
177.25633936920121
 21
47.865853526504281
 31
0.0
  0
LINE
  5
C0D
  8
0
 10
177.25633936920121
 20
47.865853526504281
 30
0.0
 11
177.75633936920121
 21
47.865853526504281
 31
0.0
  0
LINE
  5
C0E
  8
0
 10
177.25633936920121
 20
59.865853526504338
 30
0.0
 11
177.75633936920121
 21
59.865853526504338
 31
0.0
  0
CIRCLE
  5
C0F
  8
0
 10
38.253585061019059
 20
53.865853526504168
 30
0.0
 40
1.75
  0
CIRCLE
  5
C10
  8
0
 10
128.25358506101901
 20
53.865853526504168
 30
0.0
 40
1.75
  0
LINE
  5
C11
  8
0
 10
83.253585061019066
 20
54.365853526504218
 30
0.0
 11
83.253585061019066
 21
59.865853526504168
 31
0.0
  0
LINE
  5
C12
  8
1
 10
130.853585061019
 20
53.865853526504168
 30
0.0
 11
125.6535850610189
 21
53.865853526504168
 31
0.0
  0
LINE
  5
C13
  8
1
 10
128.25358506101901
 20
56.465853526504191
 30
0.0
 11
128.25358506101901
 21
51.265853526504202
 31
0.0
  0
LINE
  5
C14
  8
1
 10
40.853585061019089
 20
53.865853526504168
 30
0.0
 11
35.653585061019051
 21
53.865853526504168
 31
0.0
  0
LINE
  5
C15
  8
1
 10
38.253585061019059
 20
56.465853526504191
 30
0.0
 11
38.253585061019059
 21
51.265853526504202
 31
0.0
  0
TEXT
  5
C16
  8
3
 10
121.128585061019
 20
48.865853526504218
 30
0.0
 40
3.5
  1
40
 41
0.75
  7
07500
 72
     1
 11
123.253585061019
 21
48.865853526504218
 31
0.0
  0
TEXT
  5
C17
  8
3
 10
111.128585061019
 20
48.865853526504218
 30
0.0
 40
3.5
  1
30
 41
0.75
  7
07500
 72
     1
 11
113.25358506101909
 21
48.865853526504218
 31
0.0
  0
TEXT
  5
C18
  8
3
 10
101.128585061019
 20
48.865853526504218
 30
0.0
 40
3.5
  1
20
 41
0.75
  7
07500
 72
     1
 11
103.253585061019
 21
48.865853526504218
 31
0.0
  0
TEXT
  5
C19
  8
3
 10
91.378585061019066
 20
48.865853526504218
 30
0.0
 40
3.5
  1
10
 41
0.75
  7
07500
 72
     1
 11
93.253585061019066
 21
48.865853526504218
 31
0.0
  0
TEXT
  5
C1A
  8
0
 10
82.203585061019069
 20
48.865853526504218
 30
0.0
 40
4.2000000000000002
  1
0
 41
0.75
  7
07500
 72
     1
 11
83.253585061019066
 21
48.865853526504218
 31
0.0
  0
TEXT
  5
C1B
  8
3
 10
71.378585061019066
 20
48.865853526504218
 30
0.0
 40
3.5
  1
10
 41
0.75
  7
07500
 72
     1
 11
73.253585061019066
 21
48.865853526504218
 31
0.0
  0
TEXT
  5
C1C
  8
3
 10
61.128585061019074
 20
48.865853526504218
 30
0.0
 40
3.5
  1
20
 41
0.75
  7
07500
 72
     1
 11
63.253585061019059
 21
48.865853526504218
 31
0.0
  0
TEXT
  5
C1D
  8
3
 10
51.128585061019074
 20
48.865853526504218
 30
0.0
 40
3.5
  1
30
 41
0.75
  7
07500
 72
     1
 11
53.253585061019059
 21
48.865853526504218
 31
0.0
  0
TEXT
  5
C1E
  8
3
 10
41.128585061019074
 20
48.865853526504218
 30
0.0
 40
3.5
  1
40
 41
0.75
  7
07500
 72
     1
 11
43.253585061019059
 21
48.865853526504218
 31
0.0
  0
LINE
  5
C1F
  8
3
 10
132.25358506101901
 20
56.865853526504168
 30
0.0
 11
132.25358506101901
 21
59.865853526504168
 31
0.0
  0
LINE
  5
C20
  8
3
 10
131.25358506101901
 20
56.865853526504168
 30
0.0
 11
131.25358506101901
 21
59.865853526504168
 31
0.0
  0
LINE
  5
C21
  8
3
 10
130.25358506101901
 20
56.865853526504168
 30
0.0
 11
130.25358506101901
 21
59.865853526504168
 31
0.0
  0
LINE
  5
C22
  8
3
 10
129.25358506101901
 20
56.865853526504168
 30
0.0
 11
129.25358506101901
 21
59.865853526504168
 31
0.0
  0
LINE
  5
C23
  8
3
 10
127.253585061019
 20
56.865853526504168
 30
0.0
 11
127.253585061019
 21
59.865853526504168
 31
0.0
  0
LINE
  5
C24
  8
3
 10
126.253585061019
 20
56.865853526504168
 30
0.0
 11
126.253585061019
 21
59.865853526504168
 31
0.0
  0
LINE
  5
C25
  8
3
 10
125.253585061019
 20
56.865853526504168
 30
0.0
 11
125.253585061019
 21
59.865853526504168
 31
0.0
  0
LINE
  5
C26
  8
3
 10
124.253585061019
 20
56.865853526504168
 30
0.0
 11
124.253585061019
 21
59.865853526504168
 31
0.0
  0
LINE
  5
C27
  8
3
 10
122.253585061019
 20
56.865853526504168
 30
0.0
 11
122.253585061019
 21
59.865853526504168
 31
0.0
  0
LINE
  5
C28
  8
3
 10
121.253585061019
 20
56.865853526504168
 30
0.0
 11
121.253585061019
 21
59.865853526504168
 31
0.0
  0
LINE
  5
C29
  8
3
 10
120.253585061019
 20
56.865853526504168
 30
0.0
 11
120.253585061019
 21
59.865853526504168
 31
0.0
  0
LINE
  5
C2A
  8
3
 10
119.253585061019
 20
56.865853526504168
 30
0.0
 11
119.253585061019
 21
59.865853526504168
 31
0.0
  0
LINE
  5
C2B
  8
3
 10
117.253585061019
 20
56.865853526504168
 30
0.0
 11
117.253585061019
 21
59.865853526504168
 31
0.0
  0
LINE
  5
C2C
  8
3
 10
116.253585061019
 20
56.865853526504168
 30
0.0
 11
116.253585061019
 21
59.865853526504168
 31
0.0
  0
LINE
  5
C2D
  8
3
 10
115.253585061019
 20
56.865853526504168
 30
0.0
 11
115.253585061019
 21
59.865853526504168
 31
0.0
  0
LINE
  5
C2E
  8
3
 10
114.253585061019
 20
56.865853526504168
 30
0.0
 11
114.253585061019
 21
59.865853526504168
 31
0.0
  0
LINE
  5
C2F
  8
3
 10
112.25358506101909
 20
56.865853526504168
 30
0.0
 11
112.25358506101909
 21
59.865853526504168
 31
0.0
  0
LINE
  5
C30
  8
3
 10
111.25358506101909
 20
56.865853526504168
 30
0.0
 11
111.25358506101909
 21
59.865853526504168
 31
0.0
  0
LINE
  5
C31
  8
3
 10
110.253585061019
 20
56.865853526504168
 30
0.0
 11
110.253585061019
 21
59.865853526504168
 31
0.0
  0
LINE
  5
C32
  8
3
 10
109.253585061019
 20
56.865853526504168
 30
0.0
 11
109.253585061019
 21
59.865853526504168
 31
0.0
  0
LINE
  5
C33
  8
3
 10
107.253585061019
 20
56.865853526504168
 30
0.0
 11
107.253585061019
 21
59.865853526504168
 31
0.0
  0
LINE
  5
C34
  8
3
 10
106.253585061019
 20
56.865853526504168
 30
0.0
 11
106.253585061019
 21
59.865853526504168
 31
0.0
  0
LINE
  5
C35
  8
3
 10
105.253585061019
 20
56.865853526504168
 30
0.0
 11
105.253585061019
 21
59.865853526504168
 31
0.0
  0
LINE
  5
C36
  8
3
 10
104.253585061019
 20
56.865853526504168
 30
0.0
 11
104.253585061019
 21
59.865853526504168
 31
0.0
  0
LINE
  5
C37
  8
3
 10
102.253585061019
 20
56.865853526504168
 30
0.0
 11
102.253585061019
 21
59.865853526504168
 31
0.0
  0
LINE
  5
C38
  8
3
 10
101.253585061019
 20
56.865853526504168
 30
0.0
 11
101.253585061019
 21
59.865853526504168
 31
0.0
  0
LINE
  5
C39
  8
3
 10
100.253585061019
 20
56.865853526504168
 30
0.0
 11
100.253585061019
 21
59.865853526504168
 31
0.0
  0
LINE
  5
C3A
  8
3
 10
99.253585061019081
 20
56.865853526504168
 30
0.0
 11
99.253585061019081
 21
59.865853526504168
 31
0.0
  0
LINE
  5
C3B
  8
3
 10
97.253585061019066
 20
56.865853526504168
 30
0.0
 11
97.253585061019066
 21
59.865853526504168
 31
0.0
  0
LINE
  5
C3C
  8
3
 10
96.253585061019066
 20
56.865853526504168
 30
0.0
 11
96.253585061019066
 21
59.865853526504168
 31
0.0
  0
LINE
  5
C3D
  8
3
 10
95.253585061019066
 20
56.865853526504168
 30
0.0
 11
95.253585061019066
 21
59.865853526504168
 31
0.0
  0
LINE
  5
C3E
  8
3
 10
94.253585061019066
 20
56.865853526504168
 30
0.0
 11
94.253585061019066
 21
59.865853526504168
 31
0.0
  0
LINE
  5
C3F
  8
3
 10
92.253585061019066
 20
56.865853526504168
 30
0.0
 11
92.253585061019066
 21
59.865853526504168
 31
0.0
  0
LINE
  5
C40
  8
3
 10
91.253585061019066
 20
56.865853526504168
 30
0.0
 11
91.253585061019066
 21
59.865853526504168
 31
0.0
  0
LINE
  5
C41
  8
3
 10
90.253585061019066
 20
56.865853526504168
 30
0.0
 11
90.253585061019066
 21
59.865853526504168
 31
0.0
  0
LINE
  5
C42
  8
3
 10
89.253585061019066
 20
56.865853526504168
 30
0.0
 11
89.253585061019066
 21
59.865853526504168
 31
0.0
  0
LINE
  5
C43
  8
3
 10
87.253585061019066
 20
56.865853526504168
 30
0.0
 11
87.253585061019066
 21
59.865853526504168
 31
0.0
  0
LINE
  5
C44
  8
3
 10
86.253585061019066
 20
56.865853526504168
 30
0.0
 11
86.253585061019066
 21
59.865853526504168
 31
0.0
  0
LINE
  5
C45
  8
3
 10
85.253585061019066
 20
56.865853526504168
 30
0.0
 11
85.253585061019066
 21
59.865853526504168
 31
0.0
  0
LINE
  5
C46
  8
3
 10
84.253585061019066
 20
56.865853526504168
 30
0.0
 11
84.253585061019066
 21
59.865853526504168
 31
0.0
  0
LINE
  5
C47
  8
3
 10
82.253585061019066
 20
56.865853526504168
 30
0.0
 11
82.253585061019066
 21
59.865853526504168
 31
0.0
  0
LINE
  5
C48
  8
3
 10
81.253585061019066
 20
56.865853526504168
 30
0.0
 11
81.253585061019066
 21
59.865853526504168
 31
0.0
  0
LINE
  5
C49
  8
3
 10
80.253585061019066
 20
56.865853526504168
 30
0.0
 11
80.253585061019066
 21
59.865853526504168
 31
0.0
  0
LINE
  5
C4A
  8
3
 10
79.253585061019066
 20
56.865853526504168
 30
0.0
 11
79.253585061019066
 21
59.865853526504168
 31
0.0
  0
LINE
  5
C4B
  8
3
 10
77.253585061019066
 20
56.865853526504168
 30
0.0
 11
77.253585061019066
 21
59.865853526504168
 31
0.0
  0
LINE
  5
C4C
  8
3
 10
76.253585061019066
 20
56.865853526504168
 30
0.0
 11
76.253585061019066
 21
59.865853526504168
 31
0.0
  0
LINE
  5
C4D
  8
3
 10
75.253585061019066
 20
56.865853526504168
 30
0.0
 11
75.253585061019066
 21
59.865853526504168
 31
0.0
  0
LINE
  5
C4E
  8
3
 10
74.253585061019066
 20
56.865853526504168
 30
0.0
 11
74.253585061019066
 21
59.865853526504168
 31
0.0
  0
LINE
  5
C4F
  8
3
 10
72.253585061019066
 20
56.865853526504168
 30
0.0
 11
72.253585061019066
 21
59.865853526504168
 31
0.0
  0
LINE
  5
C50
  8
3
 10
71.253585061019066
 20
56.865853526504168
 30
0.0
 11
71.253585061019066
 21
59.865853526504168
 31
0.0
  0
LINE
  5
C51
  8
3
 10
70.253585061019066
 20
56.865853526504168
 30
0.0
 11
70.253585061019066
 21
59.865853526504168
 31
0.0
  0
LINE
  5
C52
  8
3
 10
69.253585061019066
 20
56.865853526504168
 30
0.0
 11
69.253585061019066
 21
59.865853526504168
 31
0.0
  0
LINE
  5
C53
  8
3
 10
67.253585061019066
 20
56.865853526504168
 30
0.0
 11
67.253585061019066
 21
59.865853526504168
 31
0.0
  0
LINE
  5
C54
  8
3
 10
66.253585061019066
 20
56.865853526504168
 30
0.0
 11
66.253585061019066
 21
59.865853526504168
 31
0.0
  0
LINE
  5
C55
  8
3
 10
65.253585061019066
 20
56.865853526504168
 30
0.0
 11
65.253585061019066
 21
59.865853526504168
 31
0.0
  0
LINE
  5
C56
  8
3
 10
64.253585061019066
 20
56.865853526504168
 30
0.0
 11
64.253585061019066
 21
59.865853526504168
 31
0.0
  0
LINE
  5
C57
  8
3
 10
62.253585061019059
 20
56.865853526504168
 30
0.0
 11
62.253585061019059
 21
59.865853526504168
 31
0.0
  0
LINE
  5
C58
  8
3
 10
61.253585061019074
 20
56.865853526504168
 30
0.0
 11
61.253585061019074
 21
59.865853526504168
 31
0.0
  0
LINE
  5
C59
  8
3
 10
60.253585061019059
 20
56.865853526504168
 30
0.0
 11
60.253585061019059
 21
59.865853526504168
 31
0.0
  0
LINE
  5
C5A
  8
3
 10
59.253585061019074
 20
56.865853526504168
 30
0.0
 11
59.253585061019074
 21
59.865853526504168
 31
0.0
  0
LINE
  5
C5B
  8
3
 10
57.253585061019059
 20
56.865853526504168
 30
0.0
 11
57.253585061019059
 21
59.865853526504168
 31
0.0
  0
LINE
  5
C5C
  8
3
 10
56.253585061019074
 20
56.865853526504168
 30
0.0
 11
56.253585061019074
 21
59.865853526504168
 31
0.0
  0
LINE
  5
C5D
  8
3
 10
55.253585061019059
 20
56.865853526504168
 30
0.0
 11
55.253585061019059
 21
59.865853526504168
 31
0.0
  0
LINE
  5
C5E
  8
3
 10
54.253585061019074
 20
56.865853526504168
 30
0.0
 11
54.253585061019074
 21
59.865853526504168
 31
0.0
  0
LINE
  5
C5F
  8
3
 10
52.253585061019059
 20
56.865853526504168
 30
0.0
 11
52.253585061019059
 21
59.865853526504168
 31
0.0
  0
LINE
  5
C60
  8
3
 10
51.253585061019074
 20
56.865853526504168
 30
0.0
 11
51.253585061019074
 21
59.865853526504168
 31
0.0
  0
LINE
  5
C61
  8
3
 10
50.253585061019059
 20
56.865853526504168
 30
0.0
 11
50.253585061019059
 21
59.865853526504168
 31
0.0
  0
LINE
  5
C62
  8
3
 10
49.253585061019074
 20
56.865853526504168
 30
0.0
 11
49.253585061019074
 21
59.865853526504168
 31
0.0
  0
LINE
  5
C63
  8
3
 10
47.253585061019059
 20
56.865853526504168
 30
0.0
 11
47.253585061019059
 21
59.865853526504168
 31
0.0
  0
LINE
  5
C64
  8
3
 10
46.253585061019059
 20
56.865853526504168
 30
0.0
 11
46.253585061019059
 21
59.865853526504168
 31
0.0
  0
LINE
  5
C65
  8
3
 10
45.253585061019059
 20
56.865853526504168
 30
0.0
 11
45.253585061019059
 21
59.865853526504168
 31
0.0
  0
LINE
  5
C66
  8
3
 10
44.253585061019074
 20
56.865853526504168
 30
0.0
 11
44.253585061019074
 21
59.865853526504168
 31
0.0
  0
LINE
  5
C67
  8
3
 10
39.253585061019074
 20
56.865853526504168
 30
0.0
 11
39.253585061019074
 21
59.865853526504168
 31
0.0
  0
LINE
  5
C68
  8
3
 10
40.253585061019059
 20
56.865853526504168
 30
0.0
 11
40.253585061019059
 21
59.865853526504168
 31
0.0
  0
LINE
  5
C69
  8
3
 10
41.253585061019059
 20
56.865853526504168
 30
0.0
 11
41.253585061019059
 21
59.865853526504168
 31
0.0
  0
LINE
  5
C6A
  8
3
 10
42.253585061019059
 20
56.865853526504168
 30
0.0
 11
42.253585061019059
 21
59.865853526504168
 31
0.0
  0
LINE
  5
C6B
  8
3
 10
37.253585061019074
 20
56.865853526504168
 30
0.0
 11
37.253585061019074
 21
59.865853526504168
 31
0.0
  0
LINE
  5
C6C
  8
3
 10
36.253585061019074
 20
56.865853526504168
 30
0.0
 11
36.253585061019074
 21
59.865853526504168
 31
0.0
  0
LINE
  5
C6D
  8
3
 10
35.253585061019074
 20
56.865853526504168
 30
0.0
 11
35.253585061019074
 21
59.865853526504168
 31
0.0
  0
LINE
  5
C6E
  8
3
 10
34.253585061019074
 20
56.865853526504168
 30
0.0
 11
34.253585061019074
 21
59.865853526504168
 31
0.0
  0
LINE
  5
C6F
  8
3
 10
118.253585061019
 20
55.865853526504161
 30
0.0
 11
118.253585061019
 21
59.865853526504168
 31
0.0
  0
LINE
  5
C70
  8
3
 10
108.253585061019
 20
55.865853526504161
 30
0.0
 11
108.253585061019
 21
59.865853526504168
 31
0.0
  0
LINE
  5
C71
  8
3
 10
98.253585061019066
 20
55.865853526504161
 30
0.0
 11
98.253585061019066
 21
59.865853526504168
 31
0.0
  0
LINE
  5
C72
  8
3
 10
88.253585061019066
 20
55.865853526504161
 30
0.0
 11
88.253585061019066
 21
59.865853526504168
 31
0.0
  0
LINE
  5
C73
  8
3
 10
78.253585061019066
 20
55.865853526504161
 30
0.0
 11
78.253585061019066
 21
59.865853526504168
 31
0.0
  0
LINE
  5
C74
  8
3
 10
68.253585061019066
 20
55.865853526504161
 30
0.0
 11
68.253585061019066
 21
59.865853526504168
 31
0.0
  0
LINE
  5
C75
  8
3
 10
58.253585061019059
 20
55.865853526504161
 30
0.0
 11
58.253585061019059
 21
59.865853526504168
 31
0.0
  0
LINE
  5
C76
  8
3
 10
48.253585061019059
 20
55.865853526504161
 30
0.0
 11
48.253585061019059
 21
59.865853526504168
 31
0.0
  0
LINE
  5
C77
  8
3
 10
123.253585061019
 20
54.365853526504218
 30
0.0
 11
123.253585061019
 21
59.865853526504168
 31
0.0
  0
LINE
  5
C78
  8
3
 10
113.25358506101909
 20
54.365853526504218
 30
0.0
 11
113.25358506101909
 21
59.865853526504168
 31
0.0
  0
LINE
  5
C79
  8
3
 10
103.253585061019
 20
54.365853526504218
 30
0.0
 11
103.253585061019
 21
59.865853526504168
 31
0.0
  0
LINE
  5
C7A
  8
3
 10
93.253585061019066
 20
54.365853526504218
 30
0.0
 11
93.253585061019066
 21
59.865853526504168
 31
0.0
  0
LINE
  5
C7B
  8
3
 10
73.253585061018953
 20
54.365853526504218
 30
0.0
 11
73.253585061019066
 21
59.865853526504168
 31
0.0
  0
LINE
  5
C7C
  8
3
 10
63.253585061018953
 20
54.365853526504218
 30
0.0
 11
63.253585061019059
 21
59.865853526504168
 31
0.0
  0
LINE
  5
C7D
  8
3
 10
53.253585061019059
 20
54.365853526504218
 30
0.0
 11
53.253585061019059
 21
59.865853526504168
 31
0.0
  0
LINE
  5
C7E
  8
3
 10
43.253585061019059
 20
54.365853526504218
 30
0.0
 11
43.253585061019059
 21
59.865853526504168
 31
0.0
  0
LINE
  5
C7F
  8
0
 10
133.25358506101901
 20
59.865853526504168
 30
0.0
 11
133.25358506101901
 21
47.865853526504161
 31
0.0
  0
LINE
  5
C80
  8
0
 10
33.253585061019074
 20
59.865853526504168
 30
0.0
 11
133.25358506101901
 21
59.865853526504168
 31
0.0
  0
LINE
  5
C81
  8
0
 10
33.253585061019074
 20
47.865853526504218
 30
0.0
 11
33.253585061019074
 21
59.865853526504168
 31
0.0
  0
LINE
  5
C82
  8
0
 10
33.253585061019074
 20
47.865853526504218
 30
0.0
 11
133.25358506101901
 21
47.865853526504218
 31
0.0
  0
TEXT
  5
D39
  8
0
 62
     3
 10
0.0
 20
0.0
 30
0.0
 40
10.0
  1
ES2N-U5050-SUS
  7
STANDARD1
  0
ENDSEC
  0
EOF
