  0
SECTION
  2
HEADER
  9
$ACADVER
  1
AC1009
  9
$INSBASE
 10
0.0
 20
0.0
 30
0.0
  9
$EXTMIN
 10
0.0
 20
-2.960436562073669
 30
0.0
  9
$EXTMAX
 10
127.7563393692013
 20
59.865853526504331
 30
0.0
  9
$LIMMIN
 10
0.0
 20
0.0
  9
$LIMMAX
 10
375.0
 20
270.0
  9
$ORTHOMODE
 70
     0
  9
$REGENMODE
 70
     1
  9
$FILLMODE
 70
     1
  9
$QTEXTMODE
 70
     0
  9
$MIRRTEXT
 70
     0
  9
$DRAGMODE
 70
     2
  9
$LTSCALE
 40
10.0
  9
$OSMODE
 70
  3071
  9
$ATTMODE
 70
     1
  9
$TEXTSIZE
 40
2.0
  9
$TRACEWID
 40
0.05
  9
$TEXTSTYLE
  7
STANDARD
  9
$CLAYER
  8
0
  9
$CELTYPE
  6
BYLAYER
  9
$CECOLOR
 62
   256
  9
$DIMSCALE
 40
1.0
  9
$DIMASZ
 40
2.5
  9
$DIMEXO
 40
2.0
  9
$DIMDLI
 40
0.38
  9
$DIMRND
 40
0.0
  9
$DIMDLE
 40
0.0
  9
$DIMEXE
 40
2.0
  9
$DIMTP
 40
0.0
  9
$DIMTM
 40
0.0
  9
$DIMTXT
 40
3.0
  9
$DIMCEN
 40
0.09
  9
$DIMTSZ
 40
0.0
  9
$DIMTOL
 70
     0
  9
$DIMLIM
 70
     0
  9
$DIMTIH
 70
     0
  9
$DIMTOH
 70
     0
  9
$DIMSE1
 70
     0
  9
$DIMSE2
 70
     0
  9
$DIMTAD
 70
     1
  9
$DIMZIN
 70
     0
  9
$DIMBLK
  1

  9
$DIMASO
 70
     1
  9
$DIMSHO
 70
     0
  9
$DIMPOST
  1

  9
$DIMAPOST
  1

  9
$DIMALT
 70
     0
  9
$DIMALTD
 70
     2
  9
$DIMALTF
 40
25.399999999999999
  9
$DIMLFAC
 40
1.0
  9
$DIMTOFL
 70
     0
  9
$DIMTVP
 40
1.6000000000000001
  9
$DIMTIX
 70
     1
  9
$DIMSOXD
 70
     0
  9
$DIMSAH
 70
     0
  9
$DIMBLK1
  1

  9
$DIMBLK2
  1

  9
$DIMSTYLE
  2
STANDARD
  9
$DIMCLRD
 70
     0
  9
$DIMCLRE
 70
     0
  9
$DIMCLRT
 70
     0
  9
$DIMTFAC
 40
1.0
  9
$DIMGAP
 40
0.09
  9
$LUNITS
 70
     2
  9
$LUPREC
 70
     4
  9
$SKETCHINC
 40
0.1
  9
$FILLETRAD
 40
2.5
  9
$AUNITS
 70
     0
  9
$AUPREC
 70
     0
  9
$MENU
  1
E:\r13\win\SUPPORT\ACAD
  9
$ELEVATION
 40
0.0
  9
$PELEVATION
 40
0.0
  9
$THICKNESS
 40
0.0
  9
$LIMCHECK
 70
     0
  9
$BLIPMODE
 70
     0
  9
$CHAMFERA
 40
0.0
  9
$CHAMFERB
 40
0.0
  9
$SKPOLY
 70
     0
  9
$TDCREATE
 40
2448650.5678784722
  9
$TDUPDATE
 40
2456598.685403611
  9
$TDINDWG
 40
0.0189142708
  9
$TDUSRTIMER
 40
0.0189142708
  9
$USRTIMER
 70
     1
  9
$ANGBASE
 50
0.0
  9
$ANGDIR
 70
     0
  9
$PDMODE
 70
     0
  9
$PDSIZE
 40
0.0
  9
$PLINEWID
 40
0.0
  9
$COORDS
 70
     1
  9
$SPLFRAME
 70
     0
  9
$SPLINETYPE
 70
     6
  9
$SPLINESEGS
 70
     8
  9
$ATTDIA
 70
     0
  9
$ATTREQ
 70
     1
  9
$HANDLING
 70
     1
  9
$HANDSEED
  5
791
  9
$SURFTAB1
 70
     6
  9
$SURFTAB2
 70
     6
  9
$SURFTYPE
 70
     6
  9
$SURFU
 70
     6
  9
$SURFV
 70
     6
  9
$UCSNAME
  2

  9
$UCSORG
 10
0.0
 20
0.0
 30
0.0
  9
$UCSXDIR
 10
1.0
 20
0.0
 30
0.0
  9
$UCSYDIR
 10
0.0
 20
1.0
 30
0.0
  9
$PUCSNAME
  2

  9
$PUCSORG
 10
0.0
 20
0.0
 30
0.0
  9
$PUCSXDIR
 10
1.0
 20
0.0
 30
0.0
  9
$PUCSYDIR
 10
0.0
 20
1.0
 30
0.0
  9
$USERI1
 70
     0
  9
$USERI2
 70
     1
  9
$USERI3
 70
     1
  9
$USERI4
 70
     0
  9
$USERI5
 70
     0
  9
$USERR1
 40
0.0
  9
$USERR2
 40
0.0
  9
$USERR3
 40
0.0
  9
$USERR4
 40
0.0
  9
$USERR5
 40
0.0
  9
$WORLDVIEW
 70
     1
  9
$SHADEDGE
 70
     3
  9
$SHADEDIF
 70
    70
  9
$TILEMODE
 70
     1
  9
$MAXACTVP
 70
    16
  9
$PLIMCHECK
 70
     0
  9
$PEXTMIN
 10
1.0000000000000000E+020
 20
1.0000000000000000E+020
 30
1.0000000000000000E+020
  9
$PEXTMAX
 10
-1.0000000000000000E+020
 20
-1.0000000000000000E+020
 30
-1.0000000000000000E+020
  9
$PLIMMIN
 10
0.0
 20
0.0
  9
$PLIMMAX
 10
12.0
 20
9.0
  9
$UNITMODE
 70
     0
  9
$VISRETAIN
 70
     0
  9
$PLINEGEN
 70
     1
  9
$PSLTSCALE
 70
     0
  0
ENDSEC
  0
SECTION
  2
TABLES
  0
TABLE
  2
VPORT
 70
     1
  0
VPORT
  2
*ACTIVE
 70
     0
 10
0.0
 20
0.0
 11
1.0
 21
1.0
 12
187.49427839065231
 22
169.9063198933564
 13
0.0
 23
0.0
 14
10.0
 24
10.0
 15
10.0
 25
10.0
 16
0.0
 26
0.0
 36
1.0
 17
0.0
 27
0.0
 37
0.0
 40
348.89937369551939
 41
1.831871345029239
 42
50.0
 43
0.0
 44
0.0
 50
0.0
 51
0.0
 71
     0
 72
   500
 73
     1
 74
     0
 75
     0
 76
     0
 77
     0
 78
     2
  0
ENDTAB
  0
TABLE
  2
LTYPE
 70
     3
  0
LTYPE
  2
CONTINUOUS
 70
     0
  3
Solid Line
 72
    65
 73
     0
 40
0.0
  0
LTYPE
  2
CENTER
 70
     0
  3
____ _ ____ _ ____ _ ____ _ ____ _ ____ _ ____
 72
    65
 73
     4
 40
2.0
 49
1.25
 49
-0.25
 49
0.25
 49
-0.25
  0
LTYPE
  2
PHANTOM2
 70
     0
  3
___ _ _ ___ _ _ ___ _ _ ___ _ _
 72
    65
 73
     6
 40
1.25
 49
0.625
 49
-0.125
 49
0.125
 49
-0.125
 49
0.125
 49
-0.125
  0
ENDTAB
  0
TABLE
  2
LAYER
 70
     3
  0
LAYER
  2
0
 70
     0
 62
     7
  6
CONTINUOUS
  0
LAYER
  2
1
 70
     0
 62
     1
  6
CENTER
  0
LAYER
  2
3
 70
     0
 62
     3
  6
CONTINUOUS
  0
ENDTAB
  0
TABLE
  2
STYLE
 70
     3
  0
STYLE
  2
STANDARD
 70
     0
 40
0.0
 41
1.0
 50
0.0
 71
     0
 42
2.0
  3
TXT
  4
BIGFONT
  0
STYLE
  2
07500
 70
     0
 40
0.0
 41
0.75
 50
0.0
 71
     0
 42
0.2
  3
simplex.shx
  4
BIGFONT.shx
  0
STYLE
  2
STANDARD1
 70
     0
 40
0.0
 41
1.0
 50
0.0
 71
     0
 42
3.0
  3
txt
  4

  0
ENDTAB
  0
TABLE
  2
VIEW
 70
     1
  0
VIEW
  2
ALL
 70
     0
 40
270.0
 10
220.99159663865549
 20
135.0
 41
0.0
 11
0.0
 21
0.0
 31
1.0
 12
0.0
 22
0.0
 32
0.0
 42
0.0
 43
0.0
 44
0.0
 50
0.0
 71
     0
  0
ENDTAB
  0
TABLE
  2
UCS
 70
     0
  0
ENDTAB
  0
TABLE
  2
APPID
 70
     3
  0
APPID
  2
ACAD
 70
     0
  0
APPID
  2
ACAD_MLEADERVER
 70
     0
  0
APPID
  2
ACAD_NAV_VCDISPLAY
 70
     0
  0
ENDTAB
  0
TABLE
  2
DIMSTYLE
 70
     1
  0
DIMSTYLE
  2
STANDARD
 70
     0
  3

  4

  5

  6

  7

 40
1.0
 41
0.18
 42
0.0625
 43
0.38
 44
0.18
 45
0.0
 46
0.0
 47
0.0
 48
0.0
140
0.18
141
0.09
142
0.0
143
25.399999999999999
144
1.0
145
0.0
146
1.0
147
0.09
 71
     0
 72
     0
 73
     1
 74
     1
 75
     0
 76
     0
 77
     0
 78
     0
170
     0
171
     2
172
     0
173
     0
174
     0
175
     0
176
     0
177
     0
178
     0
  0
ENDTAB
  0
ENDSEC
  0
SECTION
  2
BLOCKS
  0
BLOCK
  8
0
  2
$MODEL_SPACE
 70
     0
 10
0.0
 20
0.0
 30
0.0
  3
$MODEL_SPACE
  1

  0
ENDBLK
  5
217
  8
0
  0
BLOCK
 67
     1
  8
0
  2
$PAPER_SPACE
 70
     0
 10
0.0
 20
0.0
 30
0.0
  3
$PAPER_SPACE
  1

  0
ENDBLK
  5
215
 67
     1
  8
0
  0
ENDSEC
  0
SECTION
  2
ENTITIES
  0
LINE
  5
54F
  8
3
 10
38.253585061019123
 20
55.865853526504203
 30
0.0
 11
38.253585061019123
 21
59.865853526504189
 31
0.0
  0
LINE
  5
550
  8
0
 10
127.7563393692013
 20
59.865853526504331
 30
0.0
 11
127.7563393692013
 21
47.865853526504253
 31
0.0
  0
LINE
  5
551
  8
0
 10
127.2563393692013
 20
59.865853526504331
 30
0.0
 11
127.2563393692013
 21
47.865853526504253
 31
0.0
  0
LINE
  5
552
  8
0
 10
127.2563393692013
 20
47.865853526504253
 30
0.0
 11
127.7563393692013
 21
47.865853526504253
 31
0.0
  0
LINE
  5
553
  8
0
 10
127.2563393692013
 20
59.865853526504331
 30
0.0
 11
127.7563393692013
 21
59.865853526504331
 31
0.0
  0
CIRCLE
  5
554
  8
0
 10
38.253585061019123
 20
53.865853526504168
 30
0.0
 40
1.75
  0
CIRCLE
  5
555
  8
0
 10
78.253585061019024
 20
53.865853526504168
 30
0.0
 40
1.75
  0
LINE
  5
556
  8
1
 10
80.853585061019004
 20
53.865853526504182
 30
0.0
 11
75.653585061019015
 21
53.865853526504182
 31
0.0
  0
LINE
  5
557
  8
1
 10
78.253585061019024
 20
56.465853526504183
 30
0.0
 11
78.253585061019024
 21
51.265853526504188
 31
0.0
  0
LINE
  5
558
  8
1
 10
40.853585061019089
 20
53.865853526504182
 30
0.0
 11
35.653585061019101
 21
53.865853526504182
 31
0.0
  0
LINE
  5
559
  8
1
 10
38.253585061019123
 20
56.465853526504183
 30
0.0
 11
38.253585061019123
 21
51.265853526504188
 31
0.0
  0
TEXT
  5
55A
  8
3
 10
71.128585061019038
 20
48.865853526504218
 30
0.0
 40
3.5
  1
40
 41
0.75
  7
07500
 72
     1
 11
73.253585061019024
 21
48.865853526504218
 31
0.0
  0
TEXT
  5
55B
  8
3
 10
61.128585061019038
 20
48.865853526504218
 30
0.0
 40
3.5
  1
30
 41
0.75
  7
07500
 72
     1
 11
63.253585061019031
 21
48.865853526504218
 31
0.0
  0
TEXT
  5
55C
  8
3
 10
51.128585061019038
 20
48.865853526504218
 30
0.0
 40
3.5
  1
20
 41
0.75
  7
07500
 72
     1
 11
53.253585061019031
 21
48.865853526504218
 31
0.0
  0
TEXT
  5
55D
  8
3
 10
41.378585061019031
 20
48.865853526504218
 30
0.0
 40
3.5
  1
10
 41
0.75
  7
07500
 72
     1
 11
43.253585061019031
 21
48.865853526504218
 31
0.0
  0
LINE
  5
55E
  8
3
 10
82.253585061019024
 20
56.865853526504189
 30
0.0
 11
82.253585061019024
 21
59.865853526504189
 31
0.0
  0
LINE
  5
55F
  8
3
 10
81.253585061019024
 20
56.865853526504189
 30
0.0
 11
81.253585061019024
 21
59.865853526504189
 31
0.0
  0
LINE
  5
560
  8
3
 10
80.253585061019038
 20
56.865853526504189
 30
0.0
 11
80.253585061019038
 21
59.865853526504189
 31
0.0
  0
LINE
  5
561
  8
3
 10
79.253585061019038
 20
56.865853526504189
 30
0.0
 11
79.253585061019038
 21
59.865853526504189
 31
0.0
  0
LINE
  5
562
  8
3
 10
77.253585061019038
 20
56.865853526504189
 30
0.0
 11
77.253585061019038
 21
59.865853526504189
 31
0.0
  0
LINE
  5
563
  8
3
 10
76.253585061019024
 20
56.865853526504189
 30
0.0
 11
76.253585061019024
 21
59.865853526504189
 31
0.0
  0
LINE
  5
564
  8
3
 10
75.253585061019038
 20
56.865853526504189
 30
0.0
 11
75.253585061019038
 21
59.865853526504189
 31
0.0
  0
LINE
  5
565
  8
3
 10
74.253585061019038
 20
56.865853526504189
 30
0.0
 11
74.253585061019038
 21
59.865853526504189
 31
0.0
  0
LINE
  5
566
  8
3
 10
72.253585061019038
 20
56.865853526504189
 30
0.0
 11
72.253585061019038
 21
59.865853526504189
 31
0.0
  0
LINE
  5
567
  8
3
 10
71.253585061019024
 20
56.865853526504189
 30
0.0
 11
71.253585061019024
 21
59.865853526504189
 31
0.0
  0
LINE
  5
568
  8
3
 10
70.253585061019038
 20
56.865853526504189
 30
0.0
 11
70.253585061019038
 21
59.865853526504189
 31
0.0
  0
LINE
  5
569
  8
3
 10
69.253585061019038
 20
56.865853526504189
 30
0.0
 11
69.253585061019038
 21
59.865853526504189
 31
0.0
  0
LINE
  5
56A
  8
3
 10
67.253585061019038
 20
56.865853526504189
 30
0.0
 11
67.253585061019038
 21
59.865853526504189
 31
0.0
  0
LINE
  5
56B
  8
3
 10
66.253585061019024
 20
56.865853526504189
 30
0.0
 11
66.253585061019024
 21
59.865853526504189
 31
0.0
  0
LINE
  5
56C
  8
3
 10
65.253585061019038
 20
56.865853526504189
 30
0.0
 11
65.253585061019038
 21
59.865853526504189
 31
0.0
  0
LINE
  5
56D
  8
3
 10
64.253585061019038
 20
56.865853526504189
 30
0.0
 11
64.253585061019038
 21
59.865853526504189
 31
0.0
  0
LINE
  5
56E
  8
3
 10
62.253585061019038
 20
56.865853526504189
 30
0.0
 11
62.253585061019038
 21
59.865853526504189
 31
0.0
  0
LINE
  5
56F
  8
3
 10
61.253585061019031
 20
56.865853526504189
 30
0.0
 11
61.253585061019031
 21
59.865853526504189
 31
0.0
  0
LINE
  5
570
  8
3
 10
60.253585061019038
 20
56.865853526504189
 30
0.0
 11
60.253585061019038
 21
59.865853526504189
 31
0.0
  0
LINE
  5
571
  8
3
 10
59.253585061019038
 20
56.865853526504189
 30
0.0
 11
59.253585061019038
 21
59.865853526504189
 31
0.0
  0
LINE
  5
572
  8
3
 10
57.253585061019038
 20
56.865853526504189
 30
0.0
 11
57.253585061019038
 21
59.865853526504189
 31
0.0
  0
LINE
  5
573
  8
3
 10
56.253585061019031
 20
56.865853526504189
 30
0.0
 11
56.253585061019031
 21
59.865853526504189
 31
0.0
  0
LINE
  5
574
  8
3
 10
55.253585061019038
 20
56.865853526504189
 30
0.0
 11
55.253585061019038
 21
59.865853526504189
 31
0.0
  0
LINE
  5
575
  8
3
 10
54.253585061019038
 20
56.865853526504189
 30
0.0
 11
54.253585061019038
 21
59.865853526504189
 31
0.0
  0
LINE
  5
576
  8
3
 10
52.253585061019038
 20
56.865853526504189
 30
0.0
 11
52.253585061019038
 21
59.865853526504189
 31
0.0
  0
LINE
  5
577
  8
3
 10
51.253585061019031
 20
56.865853526504189
 30
0.0
 11
51.253585061019031
 21
59.865853526504189
 31
0.0
  0
LINE
  5
578
  8
3
 10
50.253585061019038
 20
56.865853526504189
 30
0.0
 11
50.253585061019038
 21
59.865853526504189
 31
0.0
  0
LINE
  5
579
  8
3
 10
49.253585061019038
 20
56.865853526504189
 30
0.0
 11
49.253585061019038
 21
59.865853526504189
 31
0.0
  0
LINE
  5
57A
  8
3
 10
47.253585061019038
 20
56.865853526504189
 30
0.0
 11
47.253585061019038
 21
59.865853526504189
 31
0.0
  0
LINE
  5
57B
  8
3
 10
46.253585061019031
 20
56.865853526504189
 30
0.0
 11
46.253585061019031
 21
59.865853526504189
 31
0.0
  0
LINE
  5
57C
  8
3
 10
45.253585061019038
 20
56.865853526504189
 30
0.0
 11
45.253585061019038
 21
59.865853526504189
 31
0.0
  0
LINE
  5
57D
  8
3
 10
44.253585061019031
 20
56.865853526504189
 30
0.0
 11
44.253585061019031
 21
59.865853526504189
 31
0.0
  0
LINE
  5
57E
  8
3
 10
39.253585061019074
 20
56.865853526504189
 30
0.0
 11
39.253585061019074
 21
59.865853526504189
 31
0.0
  0
LINE
  5
57F
  8
3
 10
40.253585061019059
 20
56.865853526504189
 30
0.0
 11
40.253585061019059
 21
59.865853526504189
 31
0.0
  0
LINE
  5
580
  8
3
 10
41.253585061019031
 20
56.865853526504189
 30
0.0
 11
41.253585061019031
 21
59.865853526504189
 31
0.0
  0
LINE
  5
581
  8
3
 10
42.253585061019038
 20
56.865853526504189
 30
0.0
 11
42.253585061019038
 21
59.865853526504189
 31
0.0
  0
LINE
  5
582
  8
3
 10
37.253585061019074
 20
56.865853526504189
 30
0.0
 11
37.253585061019074
 21
59.865853526504189
 31
0.0
  0
LINE
  5
583
  8
3
 10
36.253585061019074
 20
56.865853526504189
 30
0.0
 11
36.253585061019074
 21
59.865853526504189
 31
0.0
  0
LINE
  5
584
  8
3
 10
35.253585061019074
 20
56.865853526504189
 30
0.0
 11
35.253585061019074
 21
59.865853526504189
 31
0.0
  0
LINE
  5
585
  8
3
 10
34.253585061019074
 20
56.865853526504189
 30
0.0
 11
34.253585061019074
 21
59.865853526504189
 31
0.0
  0
LINE
  5
586
  8
3
 10
78.253585061019024
 20
55.865853526504203
 30
0.0
 11
78.253585061019024
 21
59.865853526504189
 31
0.0
  0
LINE
  5
587
  8
3
 10
68.253585061019024
 20
55.865853526504203
 30
0.0
 11
68.253585061019024
 21
59.865853526504189
 31
0.0
  0
LINE
  5
588
  8
3
 10
58.253585061019031
 20
55.865853526504203
 30
0.0
 11
58.253585061019031
 21
59.865853526504189
 31
0.0
  0
LINE
  5
589
  8
3
 10
48.253585061019031
 20
55.865853526504203
 30
0.0
 11
48.253585061019031
 21
59.865853526504189
 31
0.0
  0
LINE
  5
58A
  8
3
 10
73.253585061019024
 20
54.36585352650421
 30
0.0
 11
73.253585061019024
 21
59.865853526504189
 31
0.0
  0
LINE
  5
58B
  8
3
 10
63.253585061019031
 20
54.36585352650421
 30
0.0
 11
63.253585061019031
 21
59.865853526504189
 31
0.0
  0
LINE
  5
58C
  8
3
 10
53.253585061019031
 20
54.36585352650421
 30
0.0
 11
53.253585061019031
 21
59.865853526504189
 31
0.0
  0
LINE
  5
58D
  8
3
 10
43.253585061019031
 20
54.36585352650421
 30
0.0
 11
43.253585061019031
 21
59.865853526504189
 31
0.0
  0
LINE
  5
58E
  8
0
 10
83.253585061019038
 20
59.865853526504189
 30
0.0
 11
83.253585061019038
 21
47.865853526504189
 31
0.0
  0
LINE
  5
58F
  8
0
 10
33.253585061019074
 20
59.865853526504189
 30
0.0
 11
83.253585061019038
 21
59.865853526504189
 31
0.0
  0
LINE
  5
590
  8
0
 10
33.253585061019074
 20
47.865853526504218
 30
0.0
 11
33.253585061019074
 21
59.865853526504189
 31
0.0
  0
LINE
  5
591
  8
0
 10
33.253585061019074
 20
47.865853526504218
 30
0.0
 11
83.253585061019038
 21
47.865853526504218
 31
0.0
  0
TEXT
  5
6FC
  8
0
 62
     3
 10
0.0
 20
0.0
 30
0.0
 40
10.0
  1
ES1N-U50R-SUS
  7
STANDARD1
  0
ENDSEC
  0
EOF
