  0
SECTION
  2
HEADER
  9
$ACADVER
  1
AC1009
  9
$INSBASE
 10
0.0
 20
0.0
 30
0.0
  9
$EXTMIN
 10
0.0
 20
-2.960436562073669
 30
0.0
  9
$EXTMAX
 10
345.35875162665758
 20
223.4372409708628
 30
0.0
  9
$LIMMIN
 10
0.0
 20
0.0
  9
$LIMMAX
 10
375.0
 20
278.0
  9
$ORTHOMODE
 70
     1
  9
$REGENMODE
 70
     1
  9
$FILLMODE
 70
     1
  9
$QTEXTMODE
 70
     0
  9
$MIRRTEXT
 70
     0
  9
$DRAGMODE
 70
     2
  9
$LTSCALE
 40
10.0
  9
$OSMODE
 70
  3071
  9
$ATTMODE
 70
     1
  9
$TEXTSIZE
 40
0.2
  9
$TRACEWID
 40
0.05
  9
$TEXTSTYLE
  7
STANDARD
  9
$CLAYER
  8
0
  9
$CELTYPE
  6
BYLAYER
  9
$CECOLOR
 62
   256
  9
$DIMSCALE
 40
1.0
  9
$DIMASZ
 40
3.0
  9
$DIMEXO
 40
1.0
  9
$DIMDLI
 40
6.0
  9
$DIMRND
 40
0.0
  9
$DIMDLE
 40
0.0
  9
$DIMEXE
 40
1.0
  9
$DIMTP
 40
495.0
  9
$DIMTM
 40
0.0
  9
$DIMTXT
 40
3.0
  9
$DIMCEN
 40
0.0
  9
$DIMTSZ
 40
0.0
  9
$DIMTOL
 70
     0
  9
$DIMLIM
 70
     0
  9
$DIMTIH
 70
     0
  9
$DIMTOH
 70
     0
  9
$DIMSE1
 70
     0
  9
$DIMSE2
 70
     0
  9
$DIMTAD
 70
     1
  9
$DIMZIN
 70
     0
  9
$DIMBLK
  1

  9
$DIMASO
 70
     1
  9
$DIMSHO
 70
     0
  9
$DIMPOST
  1

  9
$DIMAPOST
  1

  9
$DIMALT
 70
     0
  9
$DIMALTD
 70
     2
  9
$DIMALTF
 40
25.399999999999999
  9
$DIMLFAC
 40
1.0
  9
$DIMTOFL
 70
     1
  9
$DIMTVP
 40
0.0
  9
$DIMTIX
 70
     1
  9
$DIMSOXD
 70
     0
  9
$DIMSAH
 70
     0
  9
$DIMBLK1
  1

  9
$DIMBLK2
  1

  9
$DIMSTYLE
  2
STANDARD
  9
$DIMCLRD
 70
     0
  9
$DIMCLRE
 70
     0
  9
$DIMCLRT
 70
     4
  9
$DIMTFAC
 40
1.0
  9
$DIMGAP
 40
1.0
  9
$LUNITS
 70
     2
  9
$LUPREC
 70
     4
  9
$SKETCHINC
 40
0.1
  9
$FILLETRAD
 40
0.0
  9
$AUNITS
 70
     0
  9
$AUPREC
 70
     0
  9
$MENU
  1
C:\R13\WIN\SUPPORT\ACAD-I
  9
$ELEVATION
 40
0.0
  9
$PELEVATION
 40
0.0
  9
$THICKNESS
 40
0.0
  9
$LIMCHECK
 70
     0
  9
$BLIPMODE
 70
     0
  9
$CHAMFERA
 40
0.0
  9
$CHAMFERB
 40
0.0
  9
$SKPOLY
 70
     0
  9
$TDCREATE
 40
2450834.4199027782
  9
$TDUPDATE
 40
2456598.6834055791
  9
$TDINDWG
 40
0.1655659144
  9
$TDUSRTIMER
 40
0.1655659144
  9
$USRTIMER
 70
     1
  9
$ANGBASE
 50
0.0
  9
$ANGDIR
 70
     0
  9
$PDMODE
 70
     0
  9
$PDSIZE
 40
0.0
  9
$PLINEWID
 40
0.0
  9
$COORDS
 70
     1
  9
$SPLFRAME
 70
     0
  9
$SPLINETYPE
 70
     6
  9
$SPLINESEGS
 70
     8
  9
$ATTDIA
 70
     0
  9
$ATTREQ
 70
     1
  9
$HANDLING
 70
     1
  9
$HANDSEED
  5
10157
  9
$SURFTAB1
 70
     6
  9
$SURFTAB2
 70
     6
  9
$SURFTYPE
 70
     6
  9
$SURFU
 70
     6
  9
$SURFV
 70
     6
  9
$UCSNAME
  2

  9
$UCSORG
 10
0.0
 20
0.0
 30
0.0
  9
$UCSXDIR
 10
1.0
 20
0.0
 30
0.0
  9
$UCSYDIR
 10
0.0
 20
1.0
 30
0.0
  9
$PUCSNAME
  2

  9
$PUCSORG
 10
0.0
 20
0.0
 30
0.0
  9
$PUCSXDIR
 10
1.0
 20
0.0
 30
0.0
  9
$PUCSYDIR
 10
0.0
 20
1.0
 30
0.0
  9
$USERI1
 70
     4
  9
$USERI2
 70
     1
  9
$USERI3
 70
     1
  9
$USERI4
 70
     0
  9
$USERI5
 70
     0
  9
$USERR1
 40
1.0
  9
$USERR2
 40
3.0
  9
$USERR3
 40
3.0
  9
$USERR4
 40
3.0
  9
$USERR5
 40
10.0
  9
$WORLDVIEW
 70
     1
  9
$SHADEDGE
 70
     3
  9
$SHADEDIF
 70
    70
  9
$TILEMODE
 70
     1
  9
$MAXACTVP
 70
    16
  9
$PLIMCHECK
 70
     0
  9
$PEXTMIN
 10
1.0000000000000000E+020
 20
1.0000000000000000E+020
 30
1.0000000000000000E+020
  9
$PEXTMAX
 10
-1.0000000000000000E+020
 20
-1.0000000000000000E+020
 30
-1.0000000000000000E+020
  9
$PLIMMIN
 10
0.0
 20
0.0
  9
$PLIMMAX
 10
12.0
 20
9.0
  9
$UNITMODE
 70
     0
  9
$VISRETAIN
 70
     0
  9
$PLINEGEN
 70
     0
  9
$PSLTSCALE
 70
     0
  0
ENDSEC
  0
SECTION
  2
TABLES
  0
TABLE
  2
VPORT
 70
     1
  0
VPORT
  2
*ACTIVE
 70
     0
 10
0.0
 20
0.0
 11
1.0
 21
1.0
 12
187.49427839065231
 22
174.97168974450321
 13
0.0
 23
0.0
 14
10.0
 24
10.0
 15
10.0
 25
10.0
 16
0.0
 26
0.0
 36
1.0
 17
0.0
 27
0.0
 37
0.0
 40
359.12869706410731
 41
1.831871345029239
 42
50.0
 43
0.0
 44
0.0
 50
0.0
 51
0.0
 71
     0
 72
   100
 73
     1
 74
     0
 75
     0
 76
     0
 77
     0
 78
     0
  0
ENDTAB
  0
TABLE
  2
LTYPE
 70
     4
  0
LTYPE
  2
CONTINUOUS
 70
     0
  3
Solid Line
 72
    65
 73
     0
 40
0.0
  0
LTYPE
  2
CENTER
 70
     0
  3
____ _ ____ _ ____ _ ____ _ ____ _ ____ _ ____
 72
    65
 73
     4
 40
2.0
 49
1.25
 49
-0.25
 49
0.25
 49
-0.25
  0
LTYPE
  2
HIDDEN
 70
     0
  3
__ __ __ __ __ __ __ __ __ __ __ __ __ __ __ __
 72
    65
 73
     2
 40
0.375
 49
0.25
 49
-0.125
  0
LTYPE
  2
PHANTOM2
 70
     0
  3
___ _ _ ___ _ _ ___ _ _ ___ _ _
 72
    65
 73
     6
 40
1.25
 49
0.625
 49
-0.125
 49
0.125
 49
-0.125
 49
0.125
 49
-0.125
  0
ENDTAB
  0
TABLE
  2
LAYER
 70
     5
  0
LAYER
  2
0
 70
     0
 62
     7
  6
CONTINUOUS
  0
LAYER
  2
1
 70
     0
 62
     1
  6
CENTER
  0
LAYER
  2
3
 70
     0
 62
     3
  6
CONTINUOUS
  0
LAYER
  2
2
 70
     0
 62
     2
  6
HIDDEN
  0
LAYER
  2
DEFPOINTS
 70
     0
 62
     7
  6
CONTINUOUS
  0
ENDTAB
  0
TABLE
  2
STYLE
 70
     2
  0
STYLE
  2
STANDARD
 70
     0
 40
0.0
 41
1.0
 50
0.0
 71
     0
 42
0.2
  3
SIMPLEX
  4
BIGFONT
  0
STYLE
  2
STANDARD1
 70
     0
 40
0.0
 41
1.0
 50
0.0
 71
     0
 42
3.0
  3
txt
  4

  0
ENDTAB
  0
TABLE
  2
VIEW
 70
     0
  0
ENDTAB
  0
TABLE
  2
UCS
 70
     0
  0
ENDTAB
  0
TABLE
  2
APPID
 70
    38
  0
APPID
  2
ACAD
 70
     0
  0
APPID
  2
GENIUS_GENOBJ_13
 70
     0
  0
APPID
  2
GENIUS_GENODEF_13
 70
     0
  0
APPID
  2
GENIUS_GENOENT_13
 70
     0
  0
APPID
  2
GENIUS_GENOLIS_13
 70
     0
  0
APPID
  2
GENIUS_GENOREF_13
 70
     0
  0
APPID
  2
GENIUS_GENOBJ-N-TIT_13
 70
     0
  0
APPID
  2
GENIUS_GENTITLE_13
 70
     0
  0
APPID
  2
GENIUS_GENZVEED_13
 70
     0
  0
APPID
  2
GENIUS_GENOBJ-N-FIL_13
 70
     0
  0
APPID
  2
GENIUS_GENOBJ-N-CRS_13
 70
     0
  0
APPID
  2
GENIUS_GEFINERT_13
 70
     0
  0
APPID
  2
GENIUS_GENOBJ-F-INER_13
 70
     0
  0
APPID
  2
GENIUS_GENOBJ-N-ZOO_13
 70
     0
  0
APPID
  2
GENIUS_GENZOO_13
 70
     0
  0
APPID
  2
GENIUS_GENOBJ-F-TOL_13
 70
     0
  0
APPID
  2
GENIUS_GENOBJ-N-RSSYM_13
 70
     0
  0
APPID
  2
GENIUS_GENSYMENT_13
 70
     0
  0
APPID
  2
GENIUS_GENBH_13
 70
     0
  0
APPID
  2
GENIUS_GENOBJ-NBEHI-BHF_13
 70
     0
  0
APPID
  2
GENIUS_GENOBJ-NBEHI-BHB_13
 70
     0
  0
APPID
  2
GENIUS_GENOBJ-F-PART_13
 70
     0
  0
APPID
  2
GENIUS_GEFSTDP_13
 70
     0
  0
APPID
  2
GENIUS_GENOBJ-N-LEADER_13
 70
     0
  0
APPID
  2
GENIUS_GENOBJ-N-REV_13
 70
     0
  0
APPID
  2
GENIUS_GENCFG_13
 70
     0
  0
APPID
  2
GENIUS_GENCFG0_13
 70
     0
  0
APPID
  2
GENIUS_GENCFG1_13
 70
     0
  0
APPID
  2
GENIUS_GENCFG2_13
 70
     0
  0
APPID
  2
GENIUS_GENCFG3_13
 70
     0
  0
APPID
  2
GENIUS_GEVCFG0_13
 70
     0
  0
APPID
  2
GENIUS_GENCFG4_13
 70
     0
  0
APPID
  2
GENIUS_GENOBJ-N-REC_13
 70
     0
  0
APPID
  2
GENIUS_GENFIL_13
 70
     0
  0
APPID
  2
GENIUS_GENOBJ-N-CHA_13
 70
     0
  0
APPID
  2
GENIUS_GENREC_13
 70
     0
  0
APPID
  2
ACAD_MLEADERVER
 70
     0
  0
APPID
  2
ACAD_NAV_VCDISPLAY
 70
     0
  0
ENDTAB
  0
TABLE
  2
DIMSTYLE
 70
     1
  0
DIMSTYLE
  2
STANDARD
 70
     0
  3

  4

  5

  6

  7

 40
1.0
 41
0.18
 42
0.0625
 43
0.38
 44
0.18
 45
0.0
 46
0.0
 47
0.0
 48
0.0
140
0.18
141
0.09
142
0.0
143
25.399999999999999
144
1.0
145
0.0
146
1.0
147
0.09
 71
     0
 72
     0
 73
     1
 74
     1
 75
     0
 76
     0
 77
     0
 78
     0
170
     0
171
     2
172
     0
173
     0
174
     0
175
     0
176
     0
177
     0
178
     0
  0
ENDTAB
  0
ENDSEC
  0
SECTION
  2
BLOCKS
  0
BLOCK
  8
0
  2
$MODEL_SPACE
 70
     0
 10
0.0
 20
0.0
 30
0.0
  3
$MODEL_SPACE
  1

  0
ENDBLK
  5
FDEE
  8
0
  0
BLOCK
 67
     1
  8
0
  2
$PAPER_SPACE
 70
     0
 10
0.0
 20
0.0
 30
0.0
  3
$PAPER_SPACE
  1

  0
ENDBLK
  5
FDEC
 67
     1
  8
0
  0
ENDSEC
  0
SECTION
  2
ENTITIES
  0
LINE
  5
F495
  8
0
 10
117.3947079964055
 20
95.054899219227778
 30
0.0
 11
150.39470799640549
 21
95.054899219227778
 31
0.0
1001
GENIUS_GENOREF_13
1005
0
  0
ARC
  5
F496
  8
0
 10
149.95158330174209
 20
118.55489921922781
 30
0.0
 40
4.0
 50
90.0
 51
119.600795809833
1001
GENIUS_GENODEF_13
1002
{
1000
HIER
1070
     0
1002
}
1002
{
1000
MANEDIT
1070
     0
1002
}
1002
{
1000
NOSEL
1070
     0
1002
}
1002
{
1000
BEHIND
1070
     0
1002
}
1002
{
1000
REACTOR
1002
}
1001
GENIUS_GENOBJ-N-FIL_13
1002
{
1000
OWNER
1000
GEN
1002
}
  0
ARC
  5
F497
  8
0
 10
158.83128442284411
 20
101.05489921922771
 30
0.0
 40
8.0
 50
90.0
 51
176.02191183657339
1001
GENIUS_GENODEF_13
1002
{
1000
HIER
1070
     0
1002
}
1002
{
1000
MANEDIT
1070
     0
1002
}
1002
{
1000
NOSEL
1070
     0
1002
}
1002
{
1000
BEHIND
1070
     0
1002
}
1002
{
1000
REACTOR
1002
}
1001
GENIUS_GENOBJ-N-FIL_13
1002
{
1000
OWNER
1000
GEN
1002
}
  0
LINE
  5
F498
  8
1
 10
125.4647315675595
 20
168.99607009504581
 30
0.0
 11
175.89470799640549
 21
168.9960700950449
 31
0.0
  0
LINE
  5
F499
  8
1
 10
125.4647315675598
 20
201.99607009504561
 30
0.0
 11
175.89470799640549
 21
201.9960700950455
 31
0.0
  0
LINE
  5
F49A
  8
1
 10
124.9803596540096
 20
185.4960700950457
 30
0.0
 11
178.39470799640549
 21
185.49607009504541
 31
0.0
  0
LINE
  5
F49B
  8
0
 10
118.76754995095141
 20
152.49607009504541
 30
0.0
 11
156.20516590863721
 21
152.49607009504541
 31
0.0
  0
LINE
  5
F49C
  8
0
 10
118.76754995095141
 20
218.4960700950455
 30
0.0
 11
156.20516590863721
 21
218.4960700950455
 31
0.0
  0
LINE
  5
F49D
  8
1
 10
231.4175807508407
 20
127.55489921922781
 30
0.0
 11
231.4175807508405
 21
90.054899219227821
 31
0.0
  0
LINE
  5
F49E
  8
0
 10
147.9757675281902
 20
122.0328514944874
 30
0.0
 11
119.7226091997677
 21
105.98230466121031
 31
0.0
  0
LINE
  5
F49F
  8
0
 10
198.41758075083919
 20
95.054899219226996
 30
0.0
 11
199.3763807086728
 21
121.1066865090836
 31
0.0
  0
LINE
  5
F4A0
  8
0
 10
210.24601637306151
 20
105.55489921922781
 30
0.0
 11
210.24601637306151
 21
121.05489921922781
 31
0.0
  0
LINE
  5
F4A1
  8
0
 10
220.67738589985919
 20
105.55489921922781
 30
0.0
 11
220.67738589985919
 21
121.05489921922781
 31
0.0
  0
LINE
  5
F4A2
  8
0
 10
231.5205219155454
 20
105.55489921922781
 30
0.0
 11
231.5205219155454
 21
121.05489921922781
 31
0.0
  0
LINE
  5
F4A3
  8
0
 10
241.9518932724082
 20
105.55489921922781
 30
0.0
 11
241.9518932724082
 21
121.05489921922781
 31
0.0
  0
LINE
  5
F4A4
  8
0
 10
252.7950274580293
 20
105.55489921922781
 30
0.0
 11
252.7950274580293
 21
121.05489921922781
 31
0.0
  0
LINE
  5
F4A5
  8
0
 10
263.82150806573532
 20
110.6066865090836
 30
0.0
 11
263.45878079300797
 21
121.1066865090836
 31
0.0
  0
LINE
  5
F4A6
  8
2
 10
242.1396211138854
 20
104.05489921922729
 30
0.0
 11
253.6955403877964
 21
104.0548992192268
 31
0.0
1001
GENIUS_GENOREF_13
1005
0
  0
LINE
  5
F4A8
  8
2
 10
220.69554038779609
 20
104.05489921922801
 30
0.0
 11
209.1396211138852
 21
104.05489921922801
 31
0.0
1001
GENIUS_GENOREF_13
1005
0
  0
LINE
  5
F4A9
  8
0
 10
220.67738589985919
 20
105.55489921922781
 30
0.0
 11
210.24601637306151
 21
105.55489921922781
 31
0.0
  0
LINE
  5
F4AA
  8
0
 10
219.17738589985919
 20
109.05489921922791
 30
0.0
 11
211.74601637306151
 21
109.05489921922801
 31
0.0
  0
ARC
  5
F4AB
  8
0
 10
211.74601637306151
 20
110.55489921922791
 30
0.0
 40
1.5
 50
179.99999999999989
 51
270.0
1001
GENIUS_GENODEF_13
1002
{
1000
HIER
1070
     0
1002
}
1002
{
1000
MANEDIT
1070
     0
1002
}
1002
{
1000
NOSEL
1070
     0
1002
}
1002
{
1000
BEHIND
1070
     0
1002
}
1002
{
1000
REACTOR
1002
}
1001
GENIUS_GENOBJ-N-FIL_13
1002
{
1000
OWNER
1000
GEN
1002
}
  0
LINE
  5
F4AC
  8
2
 10
209.1396211138852
 20
104.05489921922801
 30
0.0
 11
209.13962111388511
 21
99.05489921922802
 31
0.0
  0
LINE
  5
F4AD
  8
2
 10
209.13962111388511
 20
99.05489921922802
 30
0.0
 11
210.66758075084061
 21
99.05489921922802
 31
0.0
  0
LINE
  5
F4AE
  8
2
 10
210.6675807508405
 20
95.054899219228005
 30
0.0
 11
210.66758075084061
 21
99.05489921922802
 31
0.0
  0
LINE
  5
F4AF
  8
2
 10
211.91386529790199
 20
95.054899219228076
 30
0.0
 11
211.91386529790199
 21
104.0548992192281
 31
0.0
  0
LINE
  5
F4B0
  8
2
 10
212.41386529790199
 20
95.054899219228005
 30
0.0
 11
212.41386529790199
 21
104.05489921922801
 31
0.0
  0
LINE
  5
F4B1
  8
1
 10
214.9175807508407
 20
106.55489921922801
 30
0.0
 11
214.9175807508405
 21
92.554899219227778
 31
0.0
  0
LINE
  5
F4B2
  8
2
 10
217.91386529790199
 20
95.054899219227963
 30
0.0
 11
217.91386529790199
 21
104.05489921922791
 31
0.0
  0
LINE
  5
F4B3
  8
2
 10
217.41386529790199
 20
95.054899219227906
 30
0.0
 11
217.41386529790199
 21
104.05489921922791
 31
0.0
  0
LINE
  5
F4B4
  8
0
 10
241.9518932724082
 20
105.55489921922781
 30
0.0
 11
231.5205219155454
 21
105.55489921922781
 31
0.0
  0
LINE
  5
F4B5
  8
0
 10
240.4518932724082
 20
109.05489921922791
 30
0.0
 11
233.0205219155454
 21
109.05489921922791
 31
0.0
  0
LINE
  5
F4B6
  8
2
 10
219.1675807508405
 20
95.054899219227849
 30
0.0
 11
219.16758075084061
 21
99.054899219227863
 31
0.0
  0
LINE
  5
F4B7
  8
2
 10
220.69554038779609
 20
104.05489921922781
 30
0.0
 11
220.695540387796
 21
99.054899219227792
 31
0.0
  0
LINE
  5
F4B8
  8
2
 10
220.695540387796
 20
99.054899219227792
 30
0.0
 11
219.16758075084061
 21
99.054899219227863
 31
0.0
  0
ARC
  5
F4B9
  8
0
 10
219.17738589985919
 20
110.55489921922791
 30
0.0
 40
1.5
 50
270.0
 51
0.0
1001
GENIUS_GENODEF_13
1002
{
1000
HIER
1070
     0
1002
}
1002
{
1000
MANEDIT
1070
     0
1002
}
1002
{
1000
NOSEL
1070
     0
1002
}
1002
{
1000
BEHIND
1070
     0
1002
}
1002
{
1000
REACTOR
1002
}
1001
GENIUS_GENOBJ-N-FIL_13
1002
{
1000
OWNER
1000
GEN
1002
}
  0
ARC
  5
F4BA
  8
0
 10
233.0205219155454
 20
110.55489921922791
 30
0.0
 40
1.5
 50
180.0
 51
270.0
1001
GENIUS_GENODEF_13
1002
{
1000
HIER
1070
     0
1002
}
1002
{
1000
MANEDIT
1070
     0
1002
}
1002
{
1000
NOSEL
1070
     0
1002
}
1002
{
1000
BEHIND
1070
     0
1002
}
1002
{
1000
REACTOR
1002
}
1001
GENIUS_GENOBJ-N-FIL_13
1002
{
1000
OWNER
1000
GEN
1002
}
  0
LINE
  5
F4BB
  8
2
 10
242.1396211138852
 20
99.054899219227224
 30
0.0
 11
243.66758075084061
 21
99.054899219227167
 31
0.0
  0
LINE
  5
F4BC
  8
2
 10
242.1396211138854
 20
104.0548992192272
 30
0.0
 11
242.1396211138852
 21
99.054899219227224
 31
0.0
  0
ARC
  5
F4BD
  8
0
 10
240.4518932724082
 20
110.55489921922791
 30
0.0
 40
1.5
 50
270.0
 51
360.0
1001
GENIUS_GENODEF_13
1002
{
1000
HIER
1070
     0
1002
}
1002
{
1000
MANEDIT
1070
     0
1002
}
1002
{
1000
NOSEL
1070
     0
1002
}
1002
{
1000
BEHIND
1070
     0
1002
}
1002
{
1000
REACTOR
1002
}
1001
GENIUS_GENOBJ-N-FIL_13
1002
{
1000
OWNER
1000
GEN
1002
}
  0
LINE
  5
F4BE
  8
2
 10
245.42129620377909
 20
95.054899219227167
 30
0.0
 11
245.42129620377949
 21
104.0548992192271
 31
0.0
  0
LINE
  5
F4BF
  8
2
 10
244.92129620377901
 20
95.054899219227224
 30
0.0
 11
244.92129620377949
 21
104.0548992192272
 31
0.0
  0
LINE
  5
F4C0
  8
2
 10
243.6675807508405
 20
95.054899219227167
 30
0.0
 11
243.66758075084061
 21
99.054899219227167
 31
0.0
  0
LINE
  5
F4C1
  8
2
 10
250.42129620377909
 20
95.054899219226996
 30
0.0
 11
250.42129620377949
 21
104.054899219227
 31
0.0
  0
LINE
  5
F4C2
  8
2
 10
250.92129620377901
 20
95.054899219226996
 30
0.0
 11
250.92129620377949
 21
104.054899219227
 31
0.0
  0
LINE
  5
F4C3
  8
1
 10
247.91758075084101
 20
106.5548992192271
 30
0.0
 11
247.91758075084039
 21
92.554899219227778
 31
0.0
  0
LINE
  5
F4C4
  8
1
 10
134.0947079964059
 20
161.7876109399013
 30
0.0
 11
134.09470799640621
 21
176.20452925019021
 31
0.0
  0
ARC
  5
F4C6
  8
0
 10
118.76775725158009
 20
153.8691194257799
 30
0.0
 40
1.3730493463833799
 50
180.02088395750681
 51
269.99134958172323
  0
LINE
  5
F4C7
  8
0
 10
117.3947079964055
 20
95.054899219227778
 30
0.0
 11
117.95988071075161
 21
103.1819088032768
 31
0.0
  0
ARC
  5
F4C8
  8
0
 10
121.45144800162559
 20
102.9390964203581
 30
0.0
 40
3.5
 50
119.6007958098332
 51
176.02191183657339
1001
GENIUS_GENODEF_13
1002
{
1000
HIER
1070
     0
1002
}
1002
{
1000
MANEDIT
1070
     0
1002
}
1002
{
1000
NOSEL
1070
     0
1002
}
1002
{
1000
BEHIND
1070
     0
1002
}
1002
{
1000
REACTOR
1002
}
1001
GENIUS_GENOBJ-N-FIL_13
1002
{
1000
OWNER
1000
GEN
1002
}
  0
LINE
  5
F4C9
  8
1
 10
112.3950010882063
 20
185.49607009504541
 30
0.0
 11
121.64928813158789
 21
185.49607009504541
 31
0.0
  0
ARC
  5
F4CA
  8
0
 10
118.81904375625039
 20
217.07264325620019
 30
0.0
 40
1.424357952738375
 50
92.071825254423459
 51
180.3198420682215
  0
POINT
  5
F4CB
  8
0
 10
117.3950010882063
 20
171.45722669898399
 30
0.0
  0
LINE
  5
F4CC
  8
0
 10
263.99602435393041
 20
105.55489921922781
 30
0.0
 11
252.7950274580293
 21
105.55489921922781
 31
0.0
  0
LINE
  5
F4CD
  8
0
 10
262.3224023067545
 20
109.05489921922791
 30
0.0
 11
254.29502745802921
 21
109.05489921922791
 31
0.0
  0
LINE
  5
F4CE
  8
2
 10
252.1675807508405
 20
95.054899219226883
 30
0.0
 11
252.16758075084081
 21
99.054899219226883
 31
0.0
  0
LINE
  5
F4CF
  8
2
 10
253.6955403877962
 20
99.054899219226826
 30
0.0
 11
252.16758075084081
 21
99.054899219226883
 31
0.0
  0
LINE
  5
F4D0
  8
2
 10
253.6955403877964
 20
104.0548992192268
 30
0.0
 11
253.6955403877962
 21
99.054899219226826
 31
0.0
  0
ARC
  5
F4D1
  8
0
 10
254.29502745802921
 20
110.55489921922791
 30
0.0
 40
1.5
 50
180.0
 51
269.99999999999972
1001
GENIUS_GENODEF_13
1002
{
1000
HIER
1070
     0
1002
}
1002
{
1000
MANEDIT
1070
     0
1002
}
1002
{
1000
NOSEL
1070
     0
1002
}
1002
{
1000
BEHIND
1070
     0
1002
}
1002
{
1000
REACTOR
1002
}
1001
GENIUS_GENOBJ-N-FIL_13
1002
{
1000
OWNER
1000
GEN
1002
}
  0
LINE
  5
F4D2
  8
0
 10
264.41758075084181
 20
95.054899219226996
 30
0.0
 11
263.99602435393041
 21
105.55489921922781
 31
0.0
  0
ARC
  5
F4D3
  8
0
 10
262.3224023067545
 20
110.55489921922781
 30
0.0
 40
1.5
 50
269.99999999999972
 51
1.9785219487264041
1001
GENIUS_GENODEF_13
1002
{
1000
HIER
1070
     0
1002
}
1002
{
1000
MANEDIT
1070
     0
1002
}
1002
{
1000
NOSEL
1070
     0
1002
}
1002
{
1000
BEHIND
1070
     0
1002
}
1002
{
1000
REACTOR
1002
}
1001
GENIUS_GENOBJ-N-FIL_13
1002
{
1000
OWNER
1000
GEN
1002
}
  0
LINE
  5
F4D4
  8
3
 10
125.840759442723
 20
187.57332158961481
 30
0.0
 11
125.58764886658091
 21
187.56730882513381
 31
0.0
  0
LINE
  5
F4D5
  8
3
 10
124.8480788354296
 20
188.6285617560136
 30
0.0
 11
126.0451934350738
 21
188.64801620927511
 31
0.0
  0
LINE
  5
F4D6
  8
3
 10
124.7879511906205
 20
183.89952249178171
 30
0.0
 11
124.824027777506
 21
183.8454076114536
 31
0.0
  0
LINE
  5
F4D7
  8
3
 10
121.69137748295439
 20
183.88749696281991
 30
0.0
 11
121.68536471847339
 21
183.9355990786672
 31
0.0
  0
LINE
  5
F4D8
  8
3
 10
121.67333918951159
 20
180.7187700813829
 30
0.0
 11
121.68536471847339
 21
180.72478284586381
 31
0.0
  0
LINE
  5
F4D9
  8
3
 10
121.69137748295439
 20
181.1216253016035
 30
0.0
 11
121.67333918951159
 21
181.19377847537439
 31
0.0
  0
LINE
  5
F4DA
  8
3
 10
121.66131366054979
 20
181.9393612710067
 30
0.0
 11
121.67935195399259
 21
182.00550168029659
 31
0.0
  0
LINE
  5
F4DB
  8
3
 10
121.93790082667149
 20
179.6545107682627
 30
0.0
 11
121.64327536710709
 21
179.52222994968281
 31
0.0
  0
LINE
  5
F4DC
  8
3
 10
121.66131366054979
 20
180.7067445524211
 30
0.0
 11
121.66732642503079
 21
180.7127573169021
 31
0.0
  0
LINE
  5
F4DD
  8
3
 10
121.66732642503079
 20
180.7127573169021
 30
0.0
 11
121.67333918951159
 21
180.7187700813829
 31
0.0
  0
LINE
  5
F4DE
  8
3
 10
121.67333918951159
 20
181.19377847537439
 30
0.0
 11
121.66131366054979
 21
181.2659316491453
 31
0.0
  0
LINE
  5
F4DF
  8
3
 10
121.64327536710709
 20
179.52222994968281
 30
0.0
 11
121.64327536710709
 21
180.3760425059713
 31
0.0
  0
LINE
  5
F4E0
  8
3
 10
121.64327536710709
 20
180.67668073001661
 30
0.0
 11
121.64327536710709
 21
180.68870625897841
 31
0.0
  0
LINE
  5
F4E1
  8
3
 10
121.64327536710709
 20
180.68870625897841
 30
0.0
 11
121.65530089606889
 21
180.6947190234593
 31
0.0
  0
LINE
  5
F4E2
  8
3
 10
121.64327536710709
 20
181.4042252322061
 30
0.0
 11
121.63726260262619
 21
181.4703656414961
 31
0.0
  0
LINE
  5
F4E3
  8
3
 10
121.63124983814529
 20
181.67479963384679
 30
0.0
 11
121.63726260262619
 21
181.74094004313679
 31
0.0
  0
LINE
  5
F4E4
  8
3
 10
121.63726260262619
 20
181.74094004313679
 30
0.0
 11
121.64327536710709
 21
181.8070804524267
 31
0.0
  0
LINE
  5
F4E5
  8
3
 10
121.63124983814529
 20
181.53650605078599
 30
0.0
 11
121.63124983814529
 21
181.60264646007599
 31
0.0
  0
LINE
  5
F4E6
  8
3
 10
121.63124983814529
 20
181.60264646007599
 30
0.0
 11
121.63124983814529
 21
181.67479963384679
 31
0.0
  0
LINE
  5
F4E7
  8
3
 10
121.63726260262619
 20
181.4703656414961
 30
0.0
 11
121.63124983814529
 21
181.53650605078599
 31
0.0
  0
LINE
  5
F4E8
  8
3
 10
121.64928813158789
 20
181.33207205843519
 30
0.0
 11
121.64327536710709
 21
181.4042252322061
 31
0.0
  0
LINE
  5
F4E9
  8
3
 10
121.64327536710709
 20
181.8070804524267
 30
0.0
 11
121.64928813158789
 21
181.8732208617167
 31
0.0
  0
LINE
  5
F4EA
  8
3
 10
121.64327536710709
 20
180.3760425059713
 30
0.0
 11
121.64327536710709
 21
180.67668073001661
 31
0.0
  0
LINE
  5
F4EB
  8
3
 10
121.66131366054979
 20
181.2659316491453
 30
0.0
 11
121.64928813158789
 21
181.33207205843519
 31
0.0
  0
LINE
  5
F4EC
  8
3
 10
121.65530089606889
 20
180.6947190234593
 30
0.0
 11
121.66131366054979
 21
180.7067445524211
 31
0.0
  0
LINE
  5
F4ED
  8
3
 10
121.64928813158789
 20
181.8732208617167
 30
0.0
 11
121.66131366054979
 21
181.9393612710067
 31
0.0
  0
LINE
  5
F4EE
  8
3
 10
124.5835171982697
 20
180.3760425059713
 30
0.0
 11
124.5173767889798
 21
180.29787656771961
 31
0.0
  0
LINE
  5
F4EF
  8
3
 10
124.5173767889798
 20
180.29787656771961
 30
0.0
 11
124.445223615209
 21
180.2197106294677
 31
0.0
  0
CIRCLE
  5
F4F0
  8
3
 10
124.73273670482649
 20
179.7418595358449
 30
0.0
 40
0.241100623305389
  0
LINE
  5
F4F1
  8
3
 10
124.9082064802387
 20
181.0735231857563
 30
0.0
 11
124.8781426578342
 21
180.96529342509999
 31
0.0
  0
LINE
  5
F4F2
  8
3
 10
124.950295831605
 20
181.89125915515939
 30
0.0
 11
124.950295831605
 21
181.84315703931219
 31
0.0
  0
LINE
  5
F4F3
  8
3
 10
124.9683341250477
 20
181.53650605078599
 30
0.0
 11
124.9623213605668
 21
181.42226352564879
 31
0.0
  0
LINE
  5
F4F4
  8
3
 10
124.950295831605
 20
181.74094004313679
 30
0.0
 11
124.950295831605
 21
181.68682516280859
 31
0.0
  0
LINE
  5
F4F5
  8
3
 10
124.950295831605
 20
181.78904215898399
 30
0.0
 11
124.950295831605
 21
181.74094004313679
 31
0.0
  0
LINE
  5
F4F6
  8
3
 10
124.950295831605
 20
181.84315703931219
 30
0.0
 11
124.950295831605
 21
181.78904215898399
 31
0.0
  0
LINE
  5
F4F7
  8
3
 10
124.950295831605
 20
181.68682516280859
 30
0.0
 11
124.9563085960859
 21
181.63872304696139
 31
0.0
  0
LINE
  5
F4F8
  8
3
 10
124.9563085960859
 20
181.63872304696139
 30
0.0
 11
124.9683341250477
 21
181.53650605078599
 31
0.0
  0
LINE
  5
F4F9
  8
3
 10
124.950295831605
 20
181.3020082360307
 30
0.0
 11
124.9322575381623
 21
181.1877657108935
 31
0.0
  0
LINE
  5
F4FA
  8
3
 10
124.9623213605668
 20
181.42226352564879
 30
0.0
 11
124.950295831605
 21
181.3020082360307
 31
0.0
  0
LINE
  5
F4FB
  8
3
 10
124.9322575381623
 20
181.1877657108935
 30
0.0
 11
124.9082064802387
 21
181.0735231857563
 31
0.0
  0
LINE
  5
F4FC
  8
3
 10
124.7999767195824
 20
180.75484666826841
 30
0.0
 11
124.757887368216
 21
180.65262967209301
 31
0.0
  0
LINE
  5
F4FD
  8
3
 10
124.8420660709487
 20
180.85706366444381
 30
0.0
 11
124.7999767195824
 21
180.75484666826841
 31
0.0
  0
LINE
  5
F4FE
  8
3
 10
124.7037724878879
 20
180.55642544039841
 30
0.0
 11
124.6436448430788
 21
180.4662339731849
 31
0.0
  0
LINE
  5
F4FF
  8
3
 10
124.757887368216
 20
180.65262967209301
 30
0.0
 11
124.7037724878879
 21
180.55642544039841
 31
0.0
  0
LINE
  5
F500
  8
3
 10
124.8781426578342
 20
180.96529342509999
 30
0.0
 11
124.8420660709487
 21
180.85706366444381
 31
0.0
  0
LINE
  5
F501
  8
3
 10
124.6436448430788
 20
180.4662339731849
 30
0.0
 11
124.5835171982697
 21
180.3760425059713
 31
0.0
  0
LINE
  5
F502
  8
3
 10
124.2047130359727
 20
180.0212894015979
 30
0.0
 11
124.060406688431
 21
179.92508516990341
 31
0.0
  0
LINE
  5
F503
  8
3
 10
124.3670576769571
 20
180.1475574556969
 30
0.0
 11
124.2047130359727
 21
180.0212894015979
 31
0.0
  0
LINE
  5
F504
  8
3
 10
123.9161003408893
 20
179.85293199613261
 30
0.0
 11
123.7597684643859
 21
179.79881711580441
 31
0.0
  0
LINE
  5
F505
  8
3
 10
123.7597684643859
 20
179.79881711580441
 30
0.0
 11
123.6034365878822
 21
179.76274052891901
 31
0.0
  0
LINE
  5
F506
  8
3
 10
124.060406688431
 20
179.92508516990341
 30
0.0
 11
123.9161003408893
 21
179.85293199613261
 31
0.0
  0
LINE
  5
F507
  8
3
 10
123.6816025261339
 20
181.0073827764663
 30
0.0
 11
123.6876152906149
 21
181.0073827764663
 31
0.0
  0
LINE
  5
F508
  8
3
 10
123.6876152906149
 20
181.0073827764663
 30
0.0
 11
123.6936280550959
 21
181.0073827764663
 31
0.0
  0
LINE
  5
F509
  8
3
 10
123.6936280550959
 20
181.0073827764663
 30
0.0
 11
123.6996408195766
 21
181.0073827764663
 31
0.0
  0
LINE
  5
F50A
  8
3
 10
123.6996408195766
 20
181.0073827764663
 30
0.0
 11
123.7056535840576
 21
181.0073827764663
 31
0.0
  0
LINE
  5
F50B
  8
3
 10
123.7056535840576
 20
181.0073827764663
 30
0.0
 11
123.7116663485385
 21
181.0073827764663
 31
0.0
  0
LINE
  5
F50C
  8
3
 10
123.7116663485385
 20
181.0073827764663
 30
0.0
 11
123.7236918775003
 21
181.0013700119855
 31
0.0
  0
LINE
  5
F50D
  8
3
 10
123.7236918775003
 20
181.0013700119855
 30
0.0
 11
123.7778067578285
 21
181.09757424367999
 31
0.0
  0
LINE
  5
F50E
  8
3
 10
123.8860365184847
 20
181.39219970324419
 30
0.0
 11
123.8980620474466
 21
181.50042946390059
 31
0.0
  0
LINE
  5
F50F
  8
3
 10
123.9040748119275
 20
181.6086592245569
 30
0.0
 11
123.9040748119275
 21
181.72290174969399
 31
0.0
  0
LINE
  5
F510
  8
3
 10
123.9040748119275
 20
181.72290174969399
 30
0.0
 11
123.9040748119275
 21
181.8371442748313
 31
0.0
  0
LINE
  5
F511
  8
3
 10
123.8980620474466
 20
181.50042946390059
 30
0.0
 11
123.9040748119275
 21
181.6086592245569
 31
0.0
  0
LINE
  5
F512
  8
3
 10
123.8259088736757
 20
181.1877657108935
 30
0.0
 11
123.8619854605611
 21
181.2899827070689
 31
0.0
  0
LINE
  5
F513
  8
3
 10
123.8619854605611
 20
181.2899827070689
 30
0.0
 11
123.8860365184847
 21
181.39219970324419
 31
0.0
  0
LINE
  5
F514
  8
3
 10
123.7778067578285
 20
181.09757424367999
 30
0.0
 11
123.8259088736757
 21
181.1877657108935
 31
0.0
  0
LINE
  5
F515
  8
3
 10
124.445223615209
 20
180.2197106294677
 30
0.0
 11
124.3670576769571
 21
180.1475574556969
 31
0.0
  0
LINE
  5
F516
  8
3
 10
123.435079182417
 20
179.73868947099541
 30
0.0
 11
123.2727345414325
 21
179.72666394203361
 31
0.0
  0
LINE
  5
F517
  8
3
 10
123.2727345414325
 20
179.72666394203361
 30
0.0
 11
123.1043771359671
 21
179.72666394203361
 31
0.0
  0
LINE
  5
F518
  8
3
 10
122.9300069660208
 20
179.72666394203361
 30
0.0
 11
122.7616495605556
 21
179.72666394203361
 31
0.0
  0
LINE
  5
F519
  8
3
 10
122.7616495605556
 20
179.72666394203361
 30
0.0
 11
122.5932921550902
 21
179.72666394203361
 31
0.0
  0
LINE
  5
F51A
  8
3
 10
123.1043771359671
 20
179.72666394203361
 30
0.0
 11
122.9300069660208
 21
179.72666394203361
 31
0.0
  0
POLYLINE
  5
F51B
  8
3
 66
     1
 10
0.0
 20
0.0
 30
0.0
 70
     1
  0
VERTEX
  5
F51C
  8
3
 10
122.9480452594637
 20
181.8010676879459
 30
0.0
  0
VERTEX
  5
F51D
  8
3
 10
122.9480452594637
 20
180.95928066061921
 30
0.0
  0
VERTEX
  5
F51E
  8
3
 10
122.9360197305018
 20
180.95326789613819
 30
0.0
  0
VERTEX
  5
F51F
  8
3
 10
122.92399420154
 20
180.9472551316573
 30
0.0
  0
VERTEX
  5
F520
  8
3
 10
122.917981437059
 20
180.9472551316573
 30
0.0
  0
VERTEX
  5
F521
  8
3
 10
122.9059559080972
 20
180.9472551316573
 30
0.0
  0
VERTEX
  5
F522
  8
3
 10
122.8999431436163
 20
180.95326789613819
 30
0.0
  0
VERTEX
  5
F523
  8
3
 10
122.8879176146546
 20
180.95928066061921
 30
0.0
  0
VERTEX
  5
F524
  8
3
 10
122.8758920856927
 20
180.96529342509999
 30
0.0
  0
VERTEX
  5
F525
  8
3
 10
122.8638665567309
 20
180.97731895406179
 30
0.0
  0
VERTEX
  5
F526
  8
3
 10
122.85785379225
 20
180.98934448302359
 30
0.0
  0
VERTEX
  5
F527
  8
3
 10
122.8458282632881
 20
181.0013700119855
 30
0.0
  0
VERTEX
  5
F528
  8
3
 10
122.8338027343263
 20
181.0133955409473
 30
0.0
  0
VERTEX
  5
F529
  8
3
 10
122.8217772053645
 20
181.0254210699091
 30
0.0
  0
VERTEX
  5
F52A
  8
3
 10
122.8157644408837
 20
181.03744659887079
 30
0.0
  0
VERTEX
  5
F52B
  8
3
 10
122.8037389119219
 20
181.0494721278327
 30
0.0
  0
VERTEX
  5
F52C
  8
3
 10
122.7857006184792
 20
181.06751042127539
 30
0.0
  0
VERTEX
  5
F52D
  8
3
 10
122.7616495605556
 20
181.1035870081609
 30
0.0
  0
VERTEX
  5
F52E
  8
3
 10
122.7375985026319
 20
181.14567635952719
 30
0.0
  0
VERTEX
  5
F52F
  8
3
 10
122.7195602091892
 20
181.18175294641259
 30
0.0
  0
VERTEX
  5
F530
  8
3
 10
122.7075346802273
 20
181.21782953329799
 30
0.0
  0
VERTEX
  5
F531
  8
3
 10
122.6955091512656
 20
181.25991888466439
 30
0.0
  0
VERTEX
  5
F532
  8
3
 10
122.6834836223037
 20
181.29599547154979
 30
0.0
  0
VERTEX
  5
F533
  8
3
 10
122.6714580933418
 20
181.33808482291619
 30
0.0
  0
VERTEX
  5
F534
  8
3
 10
122.6654453288611
 20
181.3801741742825
 30
0.0
  0
VERTEX
  5
F535
  8
3
 10
122.6594325643801
 20
181.42226352564879
 30
0.0
  0
VERTEX
  5
F536
  8
3
 10
122.6594325643801
 20
181.46435287701519
 30
0.0
  0
VERTEX
  5
F537
  8
3
 10
122.6594325643801
 20
181.5064422283815
 30
0.0
  0
VERTEX
  5
F538
  8
3
 10
122.6594325643801
 20
181.5485315797479
 30
0.0
  0
VERTEX
  5
F539
  8
3
 10
122.6654453288611
 20
181.58460816663319
 30
0.0
  0
VERTEX
  5
F53A
  8
3
 10
122.6714580933418
 20
181.62669751799959
 30
0.0
  0
VERTEX
  5
F53B
  8
3
 10
122.6894963867847
 20
181.70486345625139
 30
0.0
  0
VERTEX
  5
F53C
  8
3
 10
122.6955091512656
 20
181.7229017496941
 30
0.0
  0
VERTEX
  5
F53D
  8
3
 10
122.7015219157464
 20
181.7349272786559
 30
0.0
  0
VERTEX
  5
F53E
  8
3
 10
122.7075346802273
 20
181.75296557209859
 30
0.0
  0
VERTEX
  5
F53F
  8
3
 10
122.7195602091892
 20
181.76499110106039
 30
0.0
  0
VERTEX
  5
F540
  8
3
 10
122.72557297367
 20
181.77701663002219
 30
0.0
  0
VERTEX
  5
F541
  8
3
 10
122.7375985026319
 20
181.78904215898399
 30
0.0
  0
VERTEX
  5
F542
  8
3
 10
122.7496240315937
 20
181.8010676879459
 30
0.0
  0
VERTEX
  5
F543
  8
3
 10
122.7616495605556
 20
181.8070804524267
 30
0.0
  0
VERTEX
  5
F544
  8
3
 10
122.7736750895173
 20
181.81910598138859
 30
0.0
  0
VERTEX
  5
F545
  8
3
 10
122.7857006184792
 20
181.8251187458695
 30
0.0
  0
VERTEX
  5
F546
  8
3
 10
122.797726147441
 20
181.83113151035039
 30
0.0
  0
VERTEX
  5
F547
  8
3
 10
122.8097516764028
 20
181.8371442748313
 30
0.0
  0
VERTEX
  5
F548
  8
3
 10
122.8217772053645
 20
181.84315703931219
 30
0.0
  0
VERTEX
  5
F549
  8
3
 10
122.8398154988072
 20
181.8491698037931
 30
0.0
  0
VERTEX
  5
F54A
  8
3
 10
122.8698793212118
 20
181.85518256827399
 30
0.0
  0
VERTEX
  5
F54B
  8
3
 10
122.9420324949827
 20
181.8130932169077
 30
0.0
  0
VERTEX
  5
F54C
  8
3
 10
122.9420324949827
 20
181.8070804524267
 30
0.0
  0
VERTEX
  5
F54D
  8
3
 10
122.9480452594637
 20
181.8010676879459
 30
0.0
  0
SEQEND
  5
F54E
  8
3
  0
LINE
  5
F54F
  8
3
 10
122.4249347496248
 20
179.72065117755261
 30
0.0
 11
122.2565773441595
 21
179.7086256485909
 31
0.0
  0
LINE
  5
F550
  8
3
 10
122.094232703175
 20
179.69058735514821
 30
0.0
 11
121.93790082667149
 21
179.6545107682627
 31
0.0
  0
LINE
  5
F551
  8
3
 10
122.2565773441595
 20
179.7086256485909
 30
0.0
 11
122.094232703175
 21
179.69058735514821
 31
0.0
  0
LINE
  5
F552
  8
3
 10
121.70340301191619
 20
180.73680837482561
 30
0.0
 11
121.71542854087799
 21
180.7428211393065
 31
0.0
  0
LINE
  5
F553
  8
3
 10
121.71542854087799
 20
180.7428211393065
 30
0.0
 11
121.72144130535889
 21
180.7488339037875
 31
0.0
  0
LINE
  5
F554
  8
3
 10
121.72144130535889
 20
180.7488339037875
 30
0.0
 11
121.73346683432069
 21
180.75484666826841
 31
0.0
  0
LINE
  5
F555
  8
3
 10
121.73346683432069
 20
180.75484666826841
 30
0.0
 11
121.74549236328249
 21
180.75484666826841
 31
0.0
  0
LINE
  5
F556
  8
3
 10
121.74549236328249
 20
180.75484666826841
 30
0.0
 11
121.75751789224429
 21
180.76085943274921
 31
0.0
  0
LINE
  5
F557
  8
3
 10
121.75751789224429
 20
180.76085943274921
 30
0.0
 11
121.76954342120619
 21
180.7668721972301
 31
0.0
  0
LINE
  5
F558
  8
3
 10
121.76954342120619
 20
180.7668721972301
 30
0.0
 11
121.79960724361059
 21
180.77288496171099
 31
0.0
  0
LINE
  5
F559
  8
3
 10
121.79960724361059
 20
180.77288496171099
 30
0.0
 11
121.79960724361059
 21
180.7788977261919
 31
0.0
  0
LINE
  5
F55A
  8
3
 10
121.79960724361059
 20
180.7788977261919
 30
0.0
 11
121.79960724361059
 21
180.78491049067279
 31
0.0
  0
LINE
  5
F55B
  8
3
 10
121.79960724361059
 20
180.78491049067279
 30
0.0
 11
121.80562000809159
 21
180.78491049067279
 31
0.0
  0
LINE
  5
F55C
  8
3
 10
121.80562000809159
 20
180.78491049067279
 30
0.0
 11
121.80562000809159
 21
180.79092325515381
 31
0.0
  0
LINE
  5
F55D
  8
3
 10
121.80562000809159
 20
180.79092325515381
 30
0.0
 11
121.81163277257259
 21
180.7969360196347
 31
0.0
  0
LINE
  5
F55E
  8
3
 10
121.81163277257259
 20
180.7969360196347
 30
0.0
 11
121.81163277257259
 21
180.80294878411561
 31
0.0
  0
LINE
  5
F55F
  8
3
 10
121.81163277257259
 20
180.80294878411561
 30
0.0
 11
121.81163277257259
 21
180.8089615485965
 31
0.0
  0
LINE
  5
F560
  8
3
 10
121.81163277257259
 20
180.8089615485965
 30
0.0
 11
121.81163277257259
 21
180.81497431307741
 31
0.0
  0
LINE
  5
F561
  8
3
 10
121.81163277257259
 20
180.81497431307741
 30
0.0
 11
121.81163277257259
 21
180.8209870775583
 31
0.0
  0
LINE
  5
F562
  8
3
 10
121.81163277257259
 20
180.8209870775583
 30
0.0
 11
121.81163277257259
 21
180.82699984203921
 31
0.0
  0
LINE
  5
F563
  8
3
 10
121.81163277257259
 20
180.82699984203921
 30
0.0
 11
121.81163277257259
 21
180.8330126065201
 31
0.0
  0
LINE
  5
F564
  8
3
 10
121.81163277257259
 20
180.8330126065201
 30
0.0
 11
121.81163277257259
 21
180.83902537100099
 31
0.0
  0
LINE
  5
F565
  8
3
 10
121.81163277257259
 20
180.83902537100099
 30
0.0
 11
121.81163277257259
 21
180.8450381354819
 31
0.0
  0
LINE
  5
F566
  8
3
 10
121.81163277257259
 20
180.8450381354819
 30
0.0
 11
121.81764553705329
 21
180.85105089996279
 31
0.0
  0
LINE
  5
F567
  8
3
 10
121.81764553705329
 20
180.85105089996279
 30
0.0
 11
121.80562000809159
 21
180.86307642892459
 31
0.0
  0
LINE
  5
F568
  8
3
 10
121.80562000809159
 20
180.86307642892459
 30
0.0
 11
121.79960724361059
 21
180.8751019578865
 31
0.0
  0
LINE
  5
F569
  8
3
 10
121.79960724361059
 20
180.8751019578865
 30
0.0
 11
121.79359447912969
 21
180.8871274868483
 31
0.0
  0
LINE
  5
F56A
  8
3
 10
121.79359447912969
 20
180.8871274868483
 30
0.0
 11
121.78758171464879
 21
180.90516578029099
 31
0.0
  0
LINE
  5
F56B
  8
3
 10
121.78758171464879
 20
180.90516578029099
 30
0.0
 11
121.77555618568699
 21
180.91719130925279
 31
0.0
  0
LINE
  5
F56C
  8
3
 10
121.77555618568699
 20
180.91719130925279
 30
0.0
 11
121.76954342120619
 21
180.92921683821459
 31
0.0
  0
LINE
  5
F56D
  8
3
 10
121.76954342120619
 20
180.92921683821459
 30
0.0
 11
121.76353065672529
 21
180.94124236717639
 31
0.0
  0
LINE
  5
F56E
  8
3
 10
121.76353065672529
 20
180.94124236717639
 30
0.0
 11
121.75751789224429
 21
180.95326789613819
 31
0.0
  0
LINE
  5
F56F
  8
3
 10
121.75751789224429
 20
180.95326789613819
 30
0.0
 11
121.75150512776339
 21
180.9713061895809
 31
0.0
  0
LINE
  5
F570
  8
3
 10
121.75150512776339
 20
180.9713061895809
 30
0.0
 11
121.74549236328249
 21
180.9833317185427
 31
0.0
  0
LINE
  5
F571
  8
3
 10
121.74549236328249
 20
180.9833317185427
 30
0.0
 11
121.73947959880169
 21
180.9953572475045
 31
0.0
  0
LINE
  5
F572
  8
3
 10
121.73947959880169
 20
180.9953572475045
 30
0.0
 11
121.73346683432069
 21
181.0073827764663
 31
0.0
  0
LINE
  5
F573
  8
3
 10
121.73346683432069
 20
181.0073827764663
 30
0.0
 11
121.72745406983969
 21
181.01940830542819
 31
0.0
  0
LINE
  5
F574
  8
3
 10
121.72745406983969
 20
181.01940830542819
 30
0.0
 11
121.72144130535889
 21
181.03143383438999
 31
0.0
  0
LINE
  5
F575
  8
3
 10
121.72144130535889
 20
181.03143383438999
 30
0.0
 11
121.70941577639709
 21
181.0494721278327
 31
0.0
  0
LINE
  5
F576
  8
3
 10
121.70941577639709
 20
181.0494721278327
 30
0.0
 11
121.69137748295439
 21
181.1216253016035
 31
0.0
  0
LINE
  5
F577
  8
3
 10
121.69137748295439
 20
180.73079561034481
 30
0.0
 11
121.70340301191619
 21
180.73680837482561
 31
0.0
  0
LINE
  5
F578
  8
3
 10
121.68536471847339
 20
180.72478284586381
 30
0.0
 11
121.69137748295439
 21
180.73079561034481
 31
0.0
  0
LINE
  5
F579
  8
3
 10
122.5932921550902
 20
179.72666394203361
 30
0.0
 11
122.4249347496248
 21
179.72065117755261
 31
0.0
  0
LINE
  5
F57A
  8
3
 10
123.6034365878822
 20
179.76274052891901
 30
0.0
 11
123.435079182417
 21
179.73868947099541
 31
0.0
  0
LINE
  5
F57B
  8
3
 10
124.9322575381623
 20
182.2881016108991
 30
0.0
 11
124.9382703026433
 21
182.2399994950519
 31
0.0
  0
LINE
  5
F57C
  8
3
 10
124.9262447736815
 20
182.33620372674639
 30
0.0
 11
124.9322575381623
 21
182.2881016108991
 31
0.0
  0
LINE
  5
F57D
  8
3
 10
124.9442830671241
 20
182.14379526335739
 30
0.0
 11
124.9442830671241
 21
182.0896803830293
 31
0.0
  0
LINE
  5
F57E
  8
3
 10
124.9382703026433
 20
182.2399994950519
 30
0.0
 11
124.9442830671241
 21
182.1918973792047
 31
0.0
  0
LINE
  5
F57F
  8
3
 10
124.9442830671241
 20
182.1918973792047
 30
0.0
 11
124.9442830671241
 21
182.14379526335739
 31
0.0
  0
LINE
  5
F580
  8
3
 10
124.9442830671241
 20
182.0896803830293
 30
0.0
 11
124.950295831605
 21
182.0415782671821
 31
0.0
  0
LINE
  5
F581
  8
3
 10
124.950295831605
 20
182.0415782671821
 30
0.0
 11
124.950295831605
 21
181.99347615133479
 31
0.0
  0
LINE
  5
F582
  8
3
 10
124.950295831605
 20
181.99347615133479
 30
0.0
 11
124.950295831605
 21
181.9393612710067
 31
0.0
  0
LINE
  5
F583
  8
3
 10
124.9683341250477
 20
183.37641198194299
 30
0.0
 11
124.9683341250477
 21
183.33432263057671
 31
0.0
  0
LINE
  5
F584
  8
3
 10
124.9683341250477
 20
183.41850133330931
 30
0.0
 11
124.9683341250477
 21
183.37641198194299
 31
0.0
  0
LINE
  5
F585
  8
3
 10
124.9683341250477
 20
183.04570993549319
 30
0.0
 11
124.9683341250477
 21
183.00362058412691
 31
0.0
  0
LINE
  5
F586
  8
3
 10
124.9683341250477
 20
183.33432263057671
 30
0.0
 11
124.9683341250477
 21
183.29223327921039
 31
0.0
  0
LINE
  5
F587
  8
3
 10
124.9683341250477
 20
183.29223327921039
 30
0.0
 11
124.9683341250477
 21
183.25014392784399
 31
0.0
  0
LINE
  5
F588
  8
3
 10
124.9683341250477
 20
183.25014392784399
 30
0.0
 11
124.9683341250477
 21
183.20805457647759
 31
0.0
  0
LINE
  5
F589
  8
3
 10
124.9683341250477
 20
183.20805457647759
 30
0.0
 11
124.9683341250477
 21
183.16596522511131
 31
0.0
  0
LINE
  5
F58A
  8
3
 10
124.9683341250477
 20
183.16596522511131
 30
0.0
 11
124.9683341250477
 21
183.12988863822591
 31
0.0
  0
LINE
  5
F58B
  8
3
 10
124.9683341250477
 20
183.12988863822591
 30
0.0
 11
124.9683341250477
 21
183.08779928685959
 31
0.0
  0
LINE
  5
F58C
  8
3
 10
124.9683341250477
 20
183.08779928685959
 30
0.0
 11
124.9683341250477
 21
183.04570993549319
 31
0.0
  0
LINE
  5
F58D
  8
3
 10
124.9683341250477
 20
182.88336529450879
 30
0.0
 11
124.9683341250477
 21
182.79918659177611
 31
0.0
  0
LINE
  5
F58E
  8
3
 10
124.9683341250477
 20
183.00362058412691
 30
0.0
 11
124.9683341250477
 21
182.96754399724151
 31
0.0
  0
LINE
  5
F58F
  8
3
 10
124.9683341250477
 20
182.96754399724151
 30
0.0
 11
124.9683341250477
 21
182.92545464587511
 31
0.0
  0
LINE
  5
F590
  8
3
 10
124.9683341250477
 20
182.92545464587511
 30
0.0
 11
124.9683341250477
 21
182.88336529450879
 31
0.0
  0
LINE
  5
F591
  8
3
 10
124.6256065496361
 20
182.60677812838719
 30
0.0
 11
124.7218107813306
 21
182.56468877702079
 31
0.0
  0
LINE
  5
F592
  8
3
 10
124.4211725572853
 20
182.64886747975351
 30
0.0
 11
124.4752874376135
 21
182.64285471527259
 31
0.0
  0
LINE
  5
F593
  8
3
 10
124.4752874376135
 20
182.64285471527259
 30
0.0
 11
124.5233895534608
 21
182.63684195079171
 31
0.0
  0
LINE
  5
F594
  8
3
 10
124.5233895534608
 20
182.63684195079171
 30
0.0
 11
124.5775044337889
 21
182.62481642182991
 31
0.0
  0
LINE
  5
F595
  8
3
 10
124.5775044337889
 20
182.62481642182991
 30
0.0
 11
124.6256065496361
 21
182.60677812838719
 31
0.0
  0
LINE
  5
F596
  8
3
 10
124.7218107813306
 20
182.56468877702079
 30
0.0
 11
124.9262447736815
 21
182.33620372674639
 31
0.0
  0
LINE
  5
F597
  8
3
 10
124.9322575381623
 20
183.59287150325559
 30
0.0
 11
124.9683341250477
 21
183.45457792019471
 31
0.0
  0
LINE
  5
F598
  8
3
 10
124.8841554223149
 20
183.72515232183551
 30
0.0
 11
124.9142192447196
 21
183.65901191254551
 31
0.0
  0
LINE
  5
F599
  8
3
 10
124.9142192447196
 20
183.65901191254551
 30
0.0
 11
124.9322575381623
 21
183.59287150325559
 31
0.0
  0
LINE
  5
F59A
  8
3
 10
124.824027777506
 20
183.8454076114536
 30
0.0
 11
124.8540915999105
 21
183.78527996664451
 31
0.0
  0
LINE
  5
F59B
  8
3
 10
124.8540915999105
 20
183.78527996664451
 30
0.0
 11
124.8841554223149
 21
183.72515232183551
 31
0.0
  0
LINE
  5
F59C
  8
3
 10
124.9683341250477
 20
183.45457792019471
 30
0.0
 11
124.9683341250477
 21
183.41850133330931
 31
0.0
  0
LINE
  5
F59D
  8
3
 10
124.3189555611099
 20
182.66690577319619
 30
0.0
 11
124.373070441438
 21
182.66089300871531
 31
0.0
  0
LINE
  5
F59E
  8
3
 10
124.2167385649345
 20
182.67893130215799
 30
0.0
 11
124.2648406807818
 21
182.67291853767711
 31
0.0
  0
LINE
  5
F59F
  8
3
 10
124.0123045725838
 20
182.73304618248619
 30
0.0
 11
124.060406688431
 21
182.71500788904351
 31
0.0
  0
LINE
  5
F5A0
  8
3
 10
124.060406688431
 20
182.71500788904351
 30
0.0
 11
124.1145215687592
 21
182.70298236008171
 31
0.0
  0
LINE
  5
F5A1
  8
3
 10
124.1145215687592
 20
182.70298236008171
 30
0.0
 11
124.1626236846064
 21
182.69095683111991
 31
0.0
  0
LINE
  5
F5A2
  8
3
 10
124.1626236846064
 20
182.69095683111991
 30
0.0
 11
124.2167385649345
 21
182.67893130215799
 31
0.0
  0
LINE
  5
F5A3
  8
3
 10
123.9642024567365
 20
182.75709724040979
 30
0.0
 11
124.0123045725838
 21
182.73304618248619
 31
0.0
  0
LINE
  5
F5A4
  8
3
 10
124.2648406807818
 20
182.67291853767711
 30
0.0
 11
124.3189555611099
 21
182.66690577319619
 31
0.0
  0
LINE
  5
F5A5
  8
3
 10
123.6455259392486
 20
182.59475259942531
 30
0.0
 11
123.6455259392486
 21
182.58873983494439
 31
0.0
  0
LINE
  5
F5A6
  8
3
 10
123.555334472035
 20
182.66690577319619
 30
0.0
 11
123.6455259392486
 21
182.59475259942531
 31
0.0
  0
LINE
  5
F5A7
  8
3
 10
123.8800237540038
 20
182.4083569005173
 30
0.0
 11
123.8800237540038
 21
182.52259942565451
 31
0.0
  0
LINE
  5
F5A8
  8
3
 10
123.6455259392486
 20
182.58873983494439
 30
0.0
 11
123.6515387037295
 21
182.58873983494439
 31
0.0
  0
LINE
  5
F5A9
  8
3
 10
123.6515387037295
 20
182.58873983494439
 30
0.0
 11
123.6515387037295
 21
182.58272707046351
 31
0.0
  0
LINE
  5
F5AA
  8
3
 10
123.6515387037295
 20
182.58272707046351
 30
0.0
 11
123.6515387037295
 21
182.57671430598259
 31
0.0
  0
LINE
  5
F5AB
  8
3
 10
123.6515387037295
 20
182.57671430598259
 30
0.0
 11
123.6575514682105
 21
182.57070154150171
 31
0.0
  0
LINE
  5
F5AC
  8
3
 10
123.6575514682105
 20
182.57070154150171
 30
0.0
 11
123.6575514682105
 21
182.56468877702079
 31
0.0
  0
LINE
  5
F5AD
  8
3
 10
123.6575514682105
 20
182.56468877702079
 30
0.0
 11
123.6575514682105
 21
182.55867601253991
 31
0.0
  0
LINE
  5
F5AE
  8
3
 10
123.6575514682105
 20
182.55867601253991
 30
0.0
 11
123.6635642326913
 21
182.55266324805899
 31
0.0
  0
LINE
  5
F5AF
  8
3
 10
123.8860365184847
 20
182.17987185024279
 30
0.0
 11
123.8800237540038
 21
182.2941143753801
 31
0.0
  0
LINE
  5
F5B0
  8
3
 10
123.8800237540038
 20
182.2941143753801
 30
0.0
 11
123.8800237540038
 21
182.4083569005173
 31
0.0
  0
LINE
  5
F5B1
  8
3
 10
123.8920492829657
 20
182.06562932510559
 30
0.0
 11
123.8860365184847
 21
182.17987185024279
 31
0.0
  0
LINE
  5
F5B2
  8
3
 10
123.8980620474466
 20
181.9513867999685
 30
0.0
 11
123.8920492829657
 21
182.06562932510559
 31
0.0
  0
LINE
  5
F5B3
  8
3
 10
123.8980620474466
 20
183.27419498576759
 30
0.0
 11
123.8920492829657
 21
183.34033539505759
 31
0.0
  0
LINE
  5
F5B4
  8
3
 10
123.6515387037295
 20
183.34033539505759
 30
0.0
 11
123.6335004102868
 21
183.32830986609571
 31
0.0
  0
LINE
  5
F5B5
  8
3
 10
123.8920492829657
 20
183.34033539505759
 30
0.0
 11
123.8800237540038
 21
183.35236092401939
 31
0.0
  0
LINE
  5
F5B6
  8
3
 10
123.8800237540038
 20
183.35236092401939
 30
0.0
 11
123.874010989523
 21
183.35837368850031
 31
0.0
  0
LINE
  5
F5B7
  8
3
 10
123.874010989523
 20
183.35837368850031
 30
0.0
 11
123.867998225042
 21
183.37039921746211
 31
0.0
  0
LINE
  5
F5B8
  8
3
 10
123.867998225042
 20
183.37039921746211
 30
0.0
 11
123.8559726960803
 21
183.37641198194299
 31
0.0
  0
LINE
  5
F5B9
  8
3
 10
123.8559726960803
 20
183.37641198194299
 30
0.0
 11
123.8439471671185
 21
183.38242474642391
 31
0.0
  0
LINE
  5
F5BA
  8
3
 10
123.8439471671185
 20
183.38242474642391
 30
0.0
 11
123.8319216381567
 21
183.38843751090479
 31
0.0
  0
LINE
  5
F5BB
  8
3
 10
123.8319216381567
 20
183.38843751090479
 30
0.0
 11
123.8198961091949
 21
183.38843751090479
 31
0.0
  0
LINE
  5
F5BC
  8
3
 10
123.8198961091949
 20
183.38843751090479
 30
0.0
 11
123.807870580233
 21
183.39445027538571
 31
0.0
  0
LINE
  5
F5BD
  8
3
 10
123.807870580233
 20
183.39445027538571
 30
0.0
 11
123.7958450512712
 21
183.39445027538571
 31
0.0
  0
LINE
  5
F5BE
  8
3
 10
123.7958450512712
 20
183.39445027538571
 30
0.0
 11
123.7838195223094
 21
183.40046303986659
 31
0.0
  0
LINE
  5
F5BF
  8
3
 10
123.7838195223094
 20
183.40046303986659
 30
0.0
 11
123.7717939933476
 21
183.40046303986659
 31
0.0
  0
LINE
  5
F5C0
  8
3
 10
123.7717939933476
 20
183.40046303986659
 30
0.0
 11
123.7537556999048
 21
183.40046303986659
 31
0.0
  0
LINE
  5
F5C1
  8
3
 10
123.7537556999048
 20
183.40046303986659
 30
0.0
 11
123.741730170943
 21
183.39445027538571
 31
0.0
  0
LINE
  5
F5C2
  8
3
 10
123.741730170943
 20
183.39445027538571
 30
0.0
 11
123.7297046419812
 21
183.39445027538571
 31
0.0
  0
LINE
  5
F5C3
  8
3
 10
123.7297046419812
 20
183.39445027538571
 30
0.0
 11
123.7056535840576
 21
183.38242474642391
 31
0.0
  0
LINE
  5
F5C4
  8
3
 10
123.7056535840576
 20
183.38242474642391
 30
0.0
 11
123.6876152906149
 21
183.37039921746211
 31
0.0
  0
LINE
  5
F5C5
  8
3
 10
123.6876152906149
 20
183.37039921746211
 30
0.0
 11
123.675589761653
 21
183.35837368850031
 31
0.0
  0
LINE
  5
F5C6
  8
3
 10
123.675589761653
 20
183.35837368850031
 30
0.0
 11
123.6635642326913
 21
183.34634815953839
 31
0.0
  0
LINE
  5
F5C7
  8
3
 10
123.6635642326913
 20
183.34634815953839
 30
0.0
 11
123.6515387037295
 21
183.34033539505759
 31
0.0
  0
LINE
  5
F5C8
  8
3
 10
123.8980620474466
 20
182.98558229068419
 30
0.0
 11
123.8980620474466
 21
183.02165887756959
 31
0.0
  0
LINE
  5
F5C9
  8
3
 10
123.8980620474466
 20
183.02165887756959
 30
0.0
 11
123.9040748119275
 21
183.05773546445499
 31
0.0
  0
LINE
  5
F5CA
  8
3
 10
123.9040748119275
 20
183.05773546445499
 30
0.0
 11
123.9040748119275
 21
183.08779928685959
 31
0.0
  0
LINE
  5
F5CB
  8
3
 10
123.9040748119275
 20
183.08779928685959
 30
0.0
 11
123.9040748119275
 21
183.12387587374499
 31
0.0
  0
LINE
  5
F5CC
  8
3
 10
123.9040748119275
 20
183.12387587374499
 30
0.0
 11
123.9040748119275
 21
183.15393969614951
 31
0.0
  0
LINE
  5
F5CD
  8
3
 10
123.9040748119275
 20
183.15393969614951
 30
0.0
 11
123.9040748119275
 21
183.18400351855399
 31
0.0
  0
LINE
  5
F5CE
  8
3
 10
123.9040748119275
 20
183.18400351855399
 30
0.0
 11
123.9040748119275
 21
183.21406734095859
 31
0.0
  0
LINE
  5
F5CF
  8
3
 10
123.9040748119275
 20
183.21406734095859
 30
0.0
 11
123.9040748119275
 21
183.24413116336311
 31
0.0
  0
LINE
  5
F5D0
  8
3
 10
123.9040748119275
 20
183.24413116336311
 30
0.0
 11
123.8980620474466
 21
183.27419498576759
 31
0.0
  0
LINE
  5
F5D1
  8
3
 10
123.6335004102868
 20
183.32830986609571
 30
0.0
 11
123.6214748813249
 21
183.31628433713399
 31
0.0
  0
LINE
  5
F5D2
  8
3
 10
123.6214748813249
 20
183.31628433713399
 30
0.0
 11
123.6034365878822
 21
183.30425880817219
 31
0.0
  0
LINE
  5
F5D3
  8
3
 10
123.6034365878822
 20
183.30425880817219
 30
0.0
 11
123.5914110589205
 21
183.29223327921039
 31
0.0
  0
LINE
  5
F5D4
  8
3
 10
123.5914110589205
 20
183.29223327921039
 30
0.0
 11
123.5733727654777
 21
183.28020775024851
 31
0.0
  0
LINE
  5
F5D5
  8
3
 10
123.5733727654777
 20
183.28020775024851
 30
0.0
 11
123.555334472035
 21
183.26818222128671
 31
0.0
  0
LINE
  5
F5D6
  8
3
 10
123.555334472035
 20
183.26818222128671
 30
0.0
 11
123.5433089430732
 21
183.25615669232491
 31
0.0
  0
LINE
  5
F5D7
  8
3
 10
123.5433089430732
 20
183.25615669232491
 30
0.0
 11
123.5252706496305
 21
183.24413116336311
 31
0.0
  0
LINE
  5
F5D8
  8
3
 10
123.5252706496305
 20
183.24413116336311
 30
0.0
 11
123.5072323561877
 21
183.23811839888219
 31
0.0
  0
LINE
  5
F5D9
  8
3
 10
123.5072323561877
 20
183.23811839888219
 30
0.0
 11
123.4952068272259
 21
183.22609286992039
 31
0.0
  0
LINE
  5
F5DA
  8
3
 10
123.9221131053702
 20
182.79918659177611
 30
0.0
 11
123.9161003408893
 21
182.79918659177611
 31
0.0
  0
LINE
  5
F5DB
  8
3
 10
123.9161003408893
 20
182.79918659177611
 30
0.0
 11
123.9161003408893
 21
182.79317382729519
 31
0.0
  0
LINE
  5
F5DC
  8
3
 10
123.9161003408893
 20
182.79317382729519
 30
0.0
 11
123.9221131053702
 21
182.78114829833339
 31
0.0
  0
LINE
  5
F5DD
  8
3
 10
123.9100875764084
 20
182.73905894696699
 30
0.0
 11
123.9040748119275
 21
182.79918659177611
 31
0.0
  0
LINE
  5
F5DE
  8
3
 10
123.9040748119275
 20
182.79918659177611
 30
0.0
 11
123.8980620474466
 21
182.85330147210431
 31
0.0
  0
LINE
  5
F5DF
  8
3
 10
123.8980620474466
 20
182.90140358795151
 30
0.0
 11
123.8980620474466
 21
182.94349293931791
 31
0.0
  0
LINE
  5
F5E0
  8
3
 10
123.8980620474466
 20
182.94349293931791
 30
0.0
 11
123.8980620474466
 21
182.98558229068419
 31
0.0
  0
LINE
  5
F5E1
  8
3
 10
123.8980620474466
 20
182.85330147210431
 30
0.0
 11
123.8980620474466
 21
182.90140358795151
 31
0.0
  0
LINE
  5
F5E2
  8
3
 10
123.8800237540038
 20
182.52259942565451
 30
0.0
 11
123.9100875764084
 21
182.73905894696699
 31
0.0
  0
LINE
  5
F5E3
  8
3
 10
123.5072323561877
 20
182.69696959560071
 30
0.0
 11
123.555334472035
 21
182.66690577319619
 31
0.0
  0
LINE
  5
F5E4
  8
3
 10
123.9221131053702
 20
182.78114829833339
 30
0.0
 11
123.9642024567365
 21
182.75709724040979
 31
0.0
  0
LINE
  5
F5E5
  8
3
 10
124.373070441438
 20
182.66089300871531
 30
0.0
 11
124.4211725572853
 21
182.64886747975351
 31
0.0
  0
LINE
  5
F5E6
  8
3
 10
124.9683341250477
 20
182.79918659177611
 30
0.0
 11
123.9221131053702
 21
182.79918659177611
 31
0.0
  0
LINE
  5
F5E7
  8
3
 10
123.1043771359671
 20
183.06976099341679
 30
0.0
 11
123.0322239621961
 21
183.05773546445499
 31
0.0
  0
LINE
  5
F5E8
  8
3
 10
123.0622877846007
 20
182.85330147210431
 30
0.0
 11
123.1224154294099
 21
182.84127594314239
 31
0.0
  0
LINE
  5
F5E9
  8
3
 10
123.3929898310505
 20
183.16596522511131
 30
0.0
 11
123.3208366572797
 21
183.13590140270679
 31
0.0
  0
LINE
  5
F5EA
  8
3
 10
123.3509004796842
 20
182.76912276937159
 30
0.0
 11
123.4050153600124
 21
182.75108447592891
 31
0.0
  0
LINE
  5
F5EB
  8
3
 10
123.2967855993561
 20
182.79317382729519
 30
0.0
 11
123.3509004796842
 21
182.76912276937159
 31
0.0
  0
LINE
  5
F5EC
  8
3
 10
123.4651430048214
 20
183.19602904751591
 30
0.0
 11
123.3929898310505
 21
183.16596522511131
 31
0.0
  0
LINE
  5
F5ED
  8
3
 10
123.4050153600124
 20
182.75108447592891
 30
0.0
 11
123.4591302403406
 21
182.72102065352431
 31
0.0
  0
LINE
  5
F5EE
  8
3
 10
123.3208366572797
 20
183.13590140270679
 30
0.0
 11
123.2486834835088
 21
183.10583758030231
 31
0.0
  0
LINE
  5
F5EF
  8
3
 10
123.242670719028
 20
182.81121212073799
 30
0.0
 11
123.2967855993561
 21
182.79317382729519
 31
0.0
  0
LINE
  5
F5F0
  8
3
 10
123.2486834835088
 20
183.10583758030231
 30
0.0
 11
123.1765303097379
 21
183.08779928685959
 31
0.0
  0
LINE
  5
F5F1
  8
3
 10
123.1825430742188
 20
182.82925041418071
 30
0.0
 11
123.242670719028
 21
182.81121212073799
 31
0.0
  0
LINE
  5
F5F2
  8
3
 10
123.1765303097379
 20
183.08779928685959
 30
0.0
 11
123.1043771359671
 21
183.06976099341679
 31
0.0
  0
LINE
  5
F5F3
  8
3
 10
123.1224154294099
 20
182.84127594314239
 30
0.0
 11
123.1825430742188
 21
182.82925041418071
 31
0.0
  0
LINE
  5
F5F4
  8
3
 10
122.8037389119219
 20
183.03969717101231
 30
0.0
 11
122.731585738151
 21
183.03969717101231
 31
0.0
  0
LINE
  5
F5F5
  8
3
 10
122.7616495605556
 20
182.87735253002791
 30
0.0
 11
122.8217772053645
 21
182.87735253002791
 31
0.0
  0
LINE
  5
F5F6
  8
3
 10
122.8819048501736
 20
183.03969717101231
 30
0.0
 11
122.8037389119219
 21
183.03969717101231
 31
0.0
  0
LINE
  5
F5F7
  8
3
 10
122.8217772053645
 20
182.87735253002791
 30
0.0
 11
122.8819048501736
 21
182.87735253002791
 31
0.0
  0
LINE
  5
F5F8
  8
3
 10
122.9420324949827
 20
182.87133976554699
 30
0.0
 11
123.0021601397917
 21
182.86532700106611
 31
0.0
  0
LINE
  5
F5F9
  8
3
 10
122.9540580239446
 20
183.04570993549319
 30
0.0
 11
122.8819048501736
 21
183.03969717101231
 31
0.0
  0
LINE
  5
F5FA
  8
3
 10
122.8819048501736
 20
182.87735253002791
 30
0.0
 11
122.9420324949827
 21
182.87133976554699
 31
0.0
  0
LINE
  5
F5FB
  8
3
 10
122.6534197998992
 20
183.05172269997411
 30
0.0
 11
122.5812666261283
 21
183.05773546445499
 31
0.0
  0
LINE
  5
F5FC
  8
3
 10
122.5932921550902
 20
182.84728870762339
 30
0.0
 11
122.7616495605556
 21
182.87735253002791
 31
0.0
  0
LINE
  5
F5FD
  8
3
 10
122.731585738151
 20
183.03969717101231
 30
0.0
 11
122.6534197998992
 21
183.05172269997411
 31
0.0
  0
LINE
  5
F5FE
  8
3
 10
123.0021601397917
 20
182.86532700106611
 30
0.0
 11
123.0622877846007
 21
182.85330147210431
 31
0.0
  0
LINE
  5
F5FF
  8
3
 10
123.0322239621961
 20
183.05773546445499
 30
0.0
 11
122.9540580239446
 21
183.04570993549319
 31
0.0
  0
LINE
  5
F600
  8
3
 10
122.4369602785867
 20
183.09381205134051
 30
0.0
 11
122.3046794600067
 21
183.14792693166859
 31
0.0
  0
LINE
  5
F601
  8
3
 10
122.3648071048158
 20
182.77513553385251
 30
0.0
 11
122.4369602785867
 21
182.80519935625699
 31
0.0
  0
LINE
  5
F602
  8
3
 10
122.3046794600067
 20
183.14792693166859
 30
0.0
 11
122.2505645796786
 21
183.17799075407311
 31
0.0
  0
LINE
  5
F603
  8
3
 10
122.2505645796786
 20
183.17799075407311
 30
0.0
 11
122.1964496993504
 21
183.20805457647759
 31
0.0
  0
LINE
  5
F604
  8
3
 10
122.1964496993504
 20
183.20805457647759
 30
0.0
 11
122.1483475835032
 21
183.23811839888219
 31
0.0
  0
LINE
  5
F605
  8
3
 10
122.220500757274
 20
182.70899512456251
 30
0.0
 11
122.2926539310448
 21
182.74507171144791
 31
0.0
  0
LINE
  5
F606
  8
3
 10
122.2926539310448
 20
182.74507171144791
 30
0.0
 11
122.3648071048158
 21
182.77513553385251
 31
0.0
  0
LINE
  5
F607
  8
3
 10
122.5091134523575
 20
183.07577375789771
 30
0.0
 11
122.4369602785867
 21
183.09381205134051
 31
0.0
  0
LINE
  5
F608
  8
3
 10
122.4369602785867
 20
182.80519935625699
 30
0.0
 11
122.5151262168383
 21
182.82925041418071
 31
0.0
  0
LINE
  5
F609
  8
3
 10
122.160373112465
 20
182.66690577319619
 30
0.0
 11
122.220500757274
 21
182.70899512456251
 31
0.0
  0
LINE
  5
F60A
  8
3
 10
122.0341050583658
 20
182.58272707046351
 30
0.0
 11
122.094232703175
 21
182.62481642182991
 31
0.0
  0
LINE
  5
F60B
  8
3
 10
121.87777318186239
 20
182.42639519395999
 30
0.0
 11
121.92587529770969
 21
182.48051007428811
 31
0.0
  0
LINE
  5
F60C
  8
3
 10
121.92587529770969
 20
182.48051007428811
 30
0.0
 11
121.97999017803789
 21
182.53462495461619
 31
0.0
  0
LINE
  5
F60D
  8
3
 10
121.97999017803789
 20
182.53462495461619
 30
0.0
 11
122.0341050583658
 21
182.58272707046351
 31
0.0
  0
LINE
  5
F60E
  8
3
 10
121.75751789224429
 20
182.23398673057099
 30
0.0
 11
121.79359447912969
 21
182.30012713986099
 31
0.0
  0
LINE
  5
F60F
  8
3
 10
121.83568383049619
 20
182.36626754915099
 30
0.0
 11
121.87777318186239
 21
182.42639519395999
 31
0.0
  0
LINE
  5
F610
  8
3
 10
121.79359447912969
 20
182.30012713986099
 30
0.0
 11
121.83568383049619
 21
182.36626754915099
 31
0.0
  0
LINE
  5
F611
  8
3
 10
121.67935195399259
 20
182.00550168029659
 30
0.0
 11
121.71542854087799
 21
182.1377824988765
 31
0.0
  0
LINE
  5
F612
  8
3
 10
121.71542854087799
 20
182.1377824988765
 30
0.0
 11
121.71542854087799
 21
182.1498080278383
 31
0.0
  0
LINE
  5
F613
  8
3
 10
121.71542854087799
 20
182.1498080278383
 30
0.0
 11
121.72144130535889
 21
182.1558207923193
 31
0.0
  0
LINE
  5
F614
  8
3
 10
121.72144130535889
 20
182.1558207923193
 30
0.0
 11
121.72144130535889
 21
182.1618335568001
 31
0.0
  0
LINE
  5
F615
  8
3
 10
121.72144130535889
 20
182.1618335568001
 30
0.0
 11
121.72745406983969
 21
182.1678463212811
 31
0.0
  0
LINE
  5
F616
  8
3
 10
121.72745406983969
 20
182.1678463212811
 30
0.0
 11
121.72745406983969
 21
182.17385908576199
 31
0.0
  0
LINE
  5
F617
  8
3
 10
121.73346683432069
 20
182.17987185024279
 30
0.0
 11
121.73947959880169
 21
182.1858846147237
 31
0.0
  0
LINE
  5
F618
  8
3
 10
121.73947959880169
 20
182.1858846147237
 30
0.0
 11
121.73947959880169
 21
182.1918973792047
 31
0.0
  0
LINE
  5
F619
  8
3
 10
121.73947959880169
 20
182.1918973792047
 30
0.0
 11
121.74549236328249
 21
182.19791014368559
 31
0.0
  0
LINE
  5
F61A
  8
3
 10
121.74549236328249
 20
182.19791014368559
 30
0.0
 11
121.74549236328249
 21
182.2039229081665
 31
0.0
  0
LINE
  5
F61B
  8
3
 10
121.74549236328249
 20
182.2039229081665
 30
0.0
 11
121.74549236328249
 21
182.20993567264739
 31
0.0
  0
LINE
  5
F61C
  8
3
 10
121.74549236328249
 20
182.20993567264739
 30
0.0
 11
121.75150512776339
 21
182.20993567264739
 31
0.0
  0
LINE
  5
F61D
  8
3
 10
121.75150512776339
 20
182.20993567264739
 30
0.0
 11
121.75150512776339
 21
182.2159484371283
 31
0.0
  0
LINE
  5
F61E
  8
3
 10
121.75150512776339
 20
182.22196120160919
 30
0.0
 11
121.75751789224429
 21
182.23398673057099
 31
0.0
  0
LINE
  5
F61F
  8
3
 10
121.75150512776339
 20
182.2159484371283
 30
0.0
 11
121.75150512776339
 21
182.22196120160919
 31
0.0
  0
LINE
  5
F620
  8
3
 10
121.72745406983969
 20
182.17385908576199
 30
0.0
 11
121.73346683432069
 21
182.17987185024279
 31
0.0
  0
LINE
  5
F621
  8
3
 10
122.0521433518087
 20
183.31027157265299
 30
0.0
 11
122.01005400044239
 21
183.35236092401939
 31
0.0
  0
LINE
  5
F622
  8
3
 10
122.01005400044239
 20
183.35236092401939
 30
0.0
 11
121.9679646490759
 21
183.39445027538571
 31
0.0
  0
LINE
  5
F623
  8
3
 10
122.10024546765599
 20
183.27419498576759
 30
0.0
 11
122.0521433518087
 21
183.31027157265299
 31
0.0
  0
LINE
  5
F624
  8
3
 10
122.1483475835032
 20
183.23811839888219
 30
0.0
 11
122.10024546765599
 21
183.27419498576759
 31
0.0
  0
LINE
  5
F625
  8
3
 10
122.094232703175
 20
182.62481642182991
 30
0.0
 11
122.160373112465
 21
182.66690577319619
 31
0.0
  0
LINE
  5
F626
  8
3
 10
121.85973488841969
 20
183.52673109396571
 30
0.0
 11
121.82365830153429
 21
183.57483320981291
 31
0.0
  0
LINE
  5
F627
  8
3
 10
121.82365830153429
 20
183.57483320981291
 30
0.0
 11
121.79960724361059
 21
183.62894809014099
 31
0.0
  0
LINE
  5
F628
  8
3
 10
121.9318880621905
 20
183.43653962675211
 30
0.0
 11
121.88979871082429
 21
183.47862897811839
 31
0.0
  0
LINE
  5
F629
  8
3
 10
121.88979871082429
 20
183.47862897811839
 30
0.0
 11
121.85973488841969
 21
183.52673109396571
 31
0.0
  0
LINE
  5
F62A
  8
3
 10
121.74549236328249
 20
183.73116508631651
 30
0.0
 11
121.70941577639709
 21
183.83939484697271
 31
0.0
  0
LINE
  5
F62B
  8
3
 10
121.70941577639709
 20
183.83939484697271
 30
0.0
 11
121.69137748295439
 21
183.88749696281991
 31
0.0
  0
LINE
  5
F62C
  8
3
 10
121.76954342120619
 20
183.67705020598831
 30
0.0
 11
121.74549236328249
 21
183.73116508631651
 31
0.0
  0
LINE
  5
F62D
  8
3
 10
121.79960724361059
 20
183.62894809014099
 30
0.0
 11
121.76954342120619
 21
183.67705020598831
 31
0.0
  0
LINE
  5
F62E
  8
3
 10
121.9679646490759
 20
183.39445027538571
 30
0.0
 11
121.9318880621905
 21
183.43653962675211
 31
0.0
  0
LINE
  5
F62F
  8
3
 10
122.5812666261283
 20
183.05773546445499
 30
0.0
 11
122.5091134523575
 21
183.07577375789771
 31
0.0
  0
LINE
  5
F630
  8
3
 10
122.5151262168383
 20
182.82925041418071
 30
0.0
 11
122.5932921550902
 21
182.84728870762339
 31
0.0
  0
LINE
  5
F631
  8
3
 10
123.4952068272259
 20
183.22609286992039
 30
0.0
 11
123.4651430048214
 21
183.19602904751591
 31
0.0
  0
LINE
  5
F632
  8
3
 10
123.4591302403406
 20
182.72102065352431
 30
0.0
 11
123.5072323561877
 21
182.69696959560071
 31
0.0
  0
LINE
  5
F633
  8
3
 10
124.950295831605
 20
181.9393612710067
 30
0.0
 11
124.950295831605
 21
181.89125915515939
 31
0.0
  0
LINE
  5
F634
  8
3
 10
123.6635642326913
 20
182.55266324805899
 30
0.0
 11
123.6816025261339
 21
181.0073827764663
 31
0.0
  0
LINE
  5
F635
  8
3
 10
123.9040748119275
 20
181.8371442748313
 30
0.0
 11
123.8980620474466
 21
181.9513867999685
 31
0.0
  0
LINE
  5
F636
  8
3
 10
121.68536471847339
 20
183.9355990786672
 30
0.0
 11
121.67333918951159
 21
183.9837011945144
 31
0.0
  0
LINE
  5
F637
  8
3
 10
121.66131366054979
 20
184.584977642605
 30
0.0
 11
121.72144130535889
 21
184.59099040708591
 31
0.0
  0
LINE
  5
F638
  8
3
 10
121.67935195399259
 20
185.090049859001
 30
0.0
 11
121.66732642503079
 21
185.17422856173371
 31
0.0
  0
LINE
  5
F639
  8
3
 10
121.66732642503079
 20
185.7454411874196
 30
0.0
 11
121.67935195399259
 21
185.82961989015229
 31
0.0
  0
LINE
  5
F63A
  8
3
 10
121.66732642503079
 20
184.03180331036171
 30
0.0
 11
121.66732642503079
 21
184.07990542620891
 31
0.0
  0
LINE
  5
F63B
  8
3
 10
121.66732642503079
 20
184.07990542620891
 30
0.0
 11
121.66131366054979
 21
184.12199477757531
 31
0.0
  0
LINE
  5
F63C
  8
3
 10
121.67333918951159
 20
183.9837011945144
 30
0.0
 11
121.66732642503079
 21
184.03180331036171
 31
0.0
  0
LINE
  5
F63D
  8
3
 10
121.66131366054979
 20
184.12199477757531
 30
0.0
 11
121.66131366054979
 21
184.17009689342251
 31
0.0
  0
LINE
  5
F63E
  8
3
 10
121.66131366054979
 20
184.49478617539131
 30
0.0
 11
121.66131366054979
 21
184.584977642605
 31
0.0
  0
LINE
  5
F63F
  8
3
 10
121.66131366054979
 20
184.44668405954411
 30
0.0
 11
121.66131366054979
 21
184.49478617539131
 31
0.0
  0
LINE
  5
F640
  8
3
 10
121.66131366054979
 20
185.66126248468689
 30
0.0
 11
121.66732642503079
 21
185.7454411874196
 31
0.0
  0
LINE
  5
F641
  8
3
 10
121.65530089606889
 20
184.26630112511691
 30
0.0
 11
121.65530089606889
 21
184.30839047648331
 31
0.0
  0
LINE
  5
F642
  8
3
 10
121.65530089606889
 20
184.30839047648331
 30
0.0
 11
121.65530089606889
 21
184.3564925923306
 31
0.0
  0
LINE
  5
F643
  8
3
 10
121.65530089606889
 20
184.3564925923306
 30
0.0
 11
121.65530089606889
 21
184.4045947081778
 31
0.0
  0
LINE
  5
F644
  8
3
 10
121.65530089606889
 20
184.21819900926971
 30
0.0
 11
121.65530089606889
 21
184.26630112511691
 31
0.0
  0
LINE
  5
F645
  8
3
 10
121.64928813158789
 20
185.49891784370249
 30
0.0
 11
121.65530089606889
 21
185.5830965464352
 31
0.0
  0
LINE
  5
F646
  8
3
 10
121.64928813158789
 20
185.4147391409698
 30
0.0
 11
121.64928813158789
 21
185.49891784370249
 31
0.0
  0
LINE
  5
F647
  8
3
 10
121.65530089606889
 20
185.2523944999854
 30
0.0
 11
121.65530089606889
 21
185.33657320271811
 31
0.0
  0
LINE
  5
F648
  8
3
 10
121.65530089606889
 20
185.33657320271811
 30
0.0
 11
121.64928813158789
 21
185.4147391409698
 31
0.0
  0
LINE
  5
F649
  8
3
 10
121.65530089606889
 20
185.5830965464352
 30
0.0
 11
121.66131366054979
 21
185.66126248468689
 31
0.0
  0
LINE
  5
F64A
  8
3
 10
121.66131366054979
 20
184.17009689342251
 30
0.0
 11
121.65530089606889
 21
184.21819900926971
 31
0.0
  0
LINE
  5
F64B
  8
3
 10
121.65530089606889
 20
184.4045947081778
 30
0.0
 11
121.66131366054979
 21
184.44668405954411
 31
0.0
  0
LINE
  5
F64C
  8
3
 10
121.66732642503079
 20
185.17422856173371
 30
0.0
 11
121.65530089606889
 21
185.2523944999854
 31
0.0
  0
LINE
  5
F64D
  8
3
 10
125.58764886658091
 20
187.56730882513381
 30
0.0
 11
125.35916381630651
 21
187.56730882513381
 31
0.0
  0
LINE
  5
F64E
  8
3
 10
124.9803596540096
 20
184.68719463878031
 30
0.0
 11
124.9142192447196
 21
184.6811818742994
 31
0.0
  0
LINE
  5
F64F
  8
3
 10
124.6195937851553
 20
184.10395648413251
 30
0.0
 11
124.6616831365215
 21
184.05585436828531
 31
0.0
  0
LINE
  5
F650
  8
3
 10
124.5714916693079
 20
184.1520585999798
 30
0.0
 11
124.6195937851553
 21
184.10395648413251
 31
0.0
  0
LINE
  5
F651
  8
3
 10
124.6616831365215
 20
184.05585436828531
 30
0.0
 11
124.7037724878879
 21
184.00775225243811
 31
0.0
  0
LINE
  5
F652
  8
3
 10
124.7037724878879
 20
184.00775225243811
 30
0.0
 11
124.7458618392542
 21
183.95363737210991
 31
0.0
  0
LINE
  5
F653
  8
3
 10
124.7458618392542
 20
183.95363737210991
 30
0.0
 11
124.7879511906205
 21
183.89952249178171
 31
0.0
  0
LINE
  5
F654
  8
3
 10
124.4692746731325
 20
184.2362373027124
 30
0.0
 11
124.5173767889798
 21
184.19414795134611
 31
0.0
  0
LINE
  5
F655
  8
3
 10
124.8540915999105
 20
184.67516910981851
 30
0.0
 11
124.7939639551014
 21
184.67516910981851
 31
0.0
  0
LINE
  5
F656
  8
3
 10
124.7939639551014
 20
184.67516910981851
 30
0.0
 11
124.7278235458114
 21
184.6691563453376
 31
0.0
  0
LINE
  5
F657
  8
3
 10
124.7278235458114
 20
184.6691563453376
 30
0.0
 11
124.6676959010025
 21
184.6691563453376
 31
0.0
  0
LINE
  5
F658
  8
3
 10
124.6676959010025
 20
184.6691563453376
 30
0.0
 11
124.6075682561933
 21
184.6691563453376
 31
0.0
  0
LINE
  5
F659
  8
3
 10
124.6075682561933
 20
184.6691563453376
 30
0.0
 11
124.5414278469035
 21
184.6691563453376
 31
0.0
  0
LINE
  5
F65A
  8
3
 10
124.5414278469035
 20
184.6691563453376
 30
0.0
 11
124.4813002020944
 21
184.67516910981851
 31
0.0
  0
LINE
  5
F65B
  8
3
 10
124.4813002020944
 20
184.67516910981851
 30
0.0
 11
124.4211725572853
 21
184.67516910981851
 31
0.0
  0
LINE
  5
F65C
  8
3
 10
124.4151597928044
 20
184.27231388959791
 30
0.0
 11
124.4692746731325
 21
184.2362373027124
 31
0.0
  0
LINE
  5
F65D
  8
3
 10
124.5173767889798
 20
184.19414795134611
 30
0.0
 11
124.5714916693079
 21
184.1520585999798
 31
0.0
  0
LINE
  5
F65E
  8
3
 10
124.9142192447196
 20
184.6811818742994
 30
0.0
 11
124.8540915999105
 21
184.67516910981851
 31
0.0
  0
LINE
  5
F65F
  8
3
 10
124.1024960397973
 20
184.67516910981851
 30
0.0
 11
123.9822407501792
 21
184.66314358085671
 31
0.0
  0
LINE
  5
F660
  8
3
 10
123.9822407501792
 20
184.66314358085671
 30
0.0
 11
123.9702152212174
 21
184.76536057703211
 31
0.0
  0
LINE
  5
F661
  8
3
 10
124.3550321479954
 20
184.3144032409642
 30
0.0
 11
124.3670576769571
 21
184.30839047648331
 31
0.0
  0
LINE
  5
F662
  8
3
 10
124.2949045031864
 20
184.67516910981851
 30
0.0
 11
124.2287640938964
 21
184.6811818742994
 31
0.0
  0
LINE
  5
F663
  8
3
 10
124.3550321479954
 20
184.67516910981851
 30
0.0
 11
124.2949045031864
 21
184.67516910981851
 31
0.0
  0
LINE
  5
F664
  8
3
 10
124.1806619780491
 20
184.3745308857732
 30
0.0
 11
124.1987002714918
 21
184.3745308857732
 31
0.0
  0
LINE
  5
F665
  8
3
 10
124.1987002714918
 20
184.3745308857732
 30
0.0
 11
124.2107258004536
 21
184.3685181212924
 31
0.0
  0
LINE
  5
F666
  8
3
 10
124.2107258004536
 20
184.3685181212924
 30
0.0
 11
124.2287640938964
 21
184.36250535681151
 31
0.0
  0
LINE
  5
F667
  8
3
 10
124.0243301015456
 20
184.4166202371396
 30
0.0
 11
124.0423683949883
 21
184.41060747265871
 31
0.0
  0
LINE
  5
F668
  8
3
 10
124.0423683949883
 20
184.41060747265871
 30
0.0
 11
124.060406688431
 21
184.4045947081778
 31
0.0
  0
LINE
  5
F669
  8
3
 10
124.060406688431
 20
184.4045947081778
 30
0.0
 11
124.0784449818736
 21
184.39858194369691
 31
0.0
  0
LINE
  5
F66A
  8
3
 10
124.0784449818736
 20
184.39858194369691
 30
0.0
 11
124.0964832753165
 21
184.392569179216
 31
0.0
  0
LINE
  5
F66B
  8
3
 10
124.0964832753165
 20
184.392569179216
 30
0.0
 11
124.1145215687592
 21
184.392569179216
 31
0.0
  0
LINE
  5
F66C
  8
3
 10
124.1145215687592
 20
184.392569179216
 30
0.0
 11
124.1325598622019
 21
184.38655641473511
 31
0.0
  0
LINE
  5
F66D
  8
3
 10
124.1325598622019
 20
184.38655641473511
 30
0.0
 11
124.1445853911637
 21
184.38054365025411
 31
0.0
  0
LINE
  5
F66E
  8
3
 10
124.1445853911637
 20
184.38054365025411
 30
0.0
 11
124.1626236846064
 21
184.38054365025411
 31
0.0
  0
LINE
  5
F66F
  8
3
 10
124.1686364490872
 20
184.67516910981851
 30
0.0
 11
124.1024960397973
 21
184.67516910981851
 31
0.0
  0
LINE
  5
F670
  8
3
 10
124.1626236846064
 20
184.38054365025411
 30
0.0
 11
124.1806619780491
 21
184.3745308857732
 31
0.0
  0
LINE
  5
F671
  8
3
 10
124.2287640938964
 20
184.6811818742994
 30
0.0
 11
124.1686364490872
 21
184.67516910981851
 31
0.0
  0
LINE
  5
F672
  8
3
 10
124.2407896228583
 20
184.3564925923306
 30
0.0
 11
124.25281515182
 21
184.3504798278496
 31
0.0
  0
LINE
  5
F673
  8
3
 10
124.2287640938964
 20
184.36250535681151
 30
0.0
 11
124.2407896228583
 21
184.3564925923306
 31
0.0
  0
LINE
  5
F674
  8
3
 10
124.25281515182
 20
184.3504798278496
 30
0.0
 11
124.2828789742245
 21
184.33244153440691
 31
0.0
  0
LINE
  5
F675
  8
3
 10
124.2828789742245
 20
184.33244153440691
 30
0.0
 11
124.2888917387054
 21
184.33244153440691
 31
0.0
  0
LINE
  5
F676
  8
3
 10
124.2888917387054
 20
184.33244153440691
 30
0.0
 11
124.2949045031864
 21
184.33244153440691
 31
0.0
  0
LINE
  5
F677
  8
3
 10
124.2949045031864
 20
184.33244153440691
 30
0.0
 11
124.3009172676672
 21
184.33244153440691
 31
0.0
  0
LINE
  5
F678
  8
3
 10
124.3009172676672
 20
184.33244153440691
 30
0.0
 11
124.3069300321481
 21
184.33244153440691
 31
0.0
  0
LINE
  5
F679
  8
3
 10
124.3069300321481
 20
184.33244153440691
 30
0.0
 11
124.312942796629
 21
184.33244153440691
 31
0.0
  0
LINE
  5
F67A
  8
3
 10
124.312942796629
 20
184.33244153440691
 30
0.0
 11
124.3189555611099
 21
184.326428769926
 31
0.0
  0
LINE
  5
F67B
  8
3
 10
124.3189555611099
 20
184.326428769926
 30
0.0
 11
124.3249683255908
 21
184.326428769926
 31
0.0
  0
LINE
  5
F67C
  8
3
 10
124.3249683255908
 20
184.326428769926
 30
0.0
 11
124.3309810900719
 21
184.326428769926
 31
0.0
  0
LINE
  5
F67D
  8
3
 10
124.3309810900719
 20
184.326428769926
 30
0.0
 11
124.3369938545527
 21
184.326428769926
 31
0.0
  0
LINE
  5
F67E
  8
3
 10
124.3369938545527
 20
184.326428769926
 30
0.0
 11
124.3430066190336
 21
184.326428769926
 31
0.0
  0
LINE
  5
F67F
  8
3
 10
124.3430066190336
 20
184.326428769926
 30
0.0
 11
124.3490193835145
 21
184.32041600544511
 31
0.0
  0
LINE
  5
F680
  8
3
 10
124.3490193835145
 20
184.32041600544511
 30
0.0
 11
124.3550321479954
 21
184.32041600544511
 31
0.0
  0
LINE
  5
F681
  8
3
 10
124.3550321479954
 20
184.32041600544511
 30
0.0
 11
124.3550321479954
 21
184.3144032409642
 31
0.0
  0
LINE
  5
F682
  8
3
 10
123.9702152212174
 20
184.76536057703211
 30
0.0
 11
123.9642024567365
 21
184.86757757320751
 31
0.0
  0
LINE
  5
F683
  8
3
 10
123.4952068272259
 20
184.4045947081778
 30
0.0
 11
123.5613472365159
 21
184.4166202371396
 31
0.0
  0
LINE
  5
F684
  8
3
 10
123.5613472365159
 20
184.4166202371396
 30
0.0
 11
123.6274876458058
 21
184.4286457661014
 31
0.0
  0
LINE
  5
F685
  8
3
 10
123.6274876458058
 20
184.4286457661014
 30
0.0
 11
123.6936280550959
 21
184.43465853058231
 31
0.0
  0
LINE
  5
F686
  8
3
 10
123.6936280550959
 20
184.43465853058231
 30
0.0
 11
123.7597684643859
 21
184.4406712950632
 31
0.0
  0
LINE
  5
F687
  8
3
 10
123.7597684643859
 20
184.4406712950632
 30
0.0
 11
123.8259088736757
 21
184.4406712950632
 31
0.0
  0
LINE
  5
F688
  8
3
 10
123.8259088736757
 20
184.4406712950632
 30
0.0
 11
123.8920492829657
 21
184.4406712950632
 31
0.0
  0
LINE
  5
F689
  8
3
 10
123.7116663485385
 20
184.78941163495571
 30
0.0
 11
123.6515387037295
 21
184.78941163495571
 31
0.0
  0
LINE
  5
F68A
  8
3
 10
123.6515387037295
 20
184.78941163495571
 30
0.0
 11
123.5974238234013
 21
184.78941163495571
 31
0.0
  0
LINE
  5
F68B
  8
3
 10
123.5974238234013
 20
184.78941163495571
 30
0.0
 11
123.5493217075541
 21
184.7833988704748
 31
0.0
  0
LINE
  5
F68C
  8
3
 10
123.5493217075541
 20
184.7833988704748
 30
0.0
 11
123.5012195917069
 21
184.7833988704748
 31
0.0
  0
LINE
  5
F68D
  8
3
 10
123.8920492829657
 20
184.4406712950632
 30
0.0
 11
124.0243301015456
 21
184.4166202371396
 31
0.0
  0
LINE
  5
F68E
  8
3
 10
124.3670576769571
 20
184.30839047648331
 30
0.0
 11
124.4151597928044
 21
184.27231388959791
 31
0.0
  0
LINE
  5
F68F
  8
3
 10
124.4211725572853
 20
184.67516910981851
 30
0.0
 11
124.3550321479954
 21
184.67516910981851
 31
0.0
  0
LINE
  5
F690
  8
3
 10
124.9743468895286
 20
185.86569647703769
 30
0.0
 11
124.9743468895286
 21
185.85968371255689
 31
0.0
  0
LINE
  5
F691
  8
3
 10
124.9743468895286
 20
185.85968371255689
 30
0.0
 11
124.9743468895286
 21
185.85367094807589
 31
0.0
  0
LINE
  5
F692
  8
3
 10
124.9743468895286
 20
185.85367094807589
 30
0.0
 11
124.9803596540096
 21
185.84164541911409
 31
0.0
  0
LINE
  5
F693
  8
3
 10
124.9803596540096
 20
185.84164541911409
 30
0.0
 11
124.9803596540096
 21
185.84164541911409
 31
0.0
  0
LINE
  5
F694
  8
3
 10
124.9743468895286
 20
185.87170924151869
 30
0.0
 11
124.9743468895286
 21
185.86569647703769
 31
0.0
  0
LINE
  5
F695
  8
3
 10
124.9683341250477
 20
185.8837347704804
 30
0.0
 11
124.9683341250477
 21
185.8777220059996
 31
0.0
  0
LINE
  5
F696
  8
3
 10
124.9683341250477
 20
185.8777220059996
 30
0.0
 11
124.9683341250477
 21
185.87170924151869
 31
0.0
  0
LINE
  5
F697
  8
3
 10
124.9683341250477
 20
185.87170924151869
 30
0.0
 11
124.9743468895286
 21
185.87170924151869
 31
0.0
  0
LINE
  5
F698
  8
3
 10
124.9623213605668
 20
185.8957602994422
 30
0.0
 11
124.9623213605668
 21
185.88974753496129
 31
0.0
  0
LINE
  5
F699
  8
3
 10
124.9623213605668
 20
185.88974753496129
 30
0.0
 11
124.9683341250477
 21
185.8837347704804
 31
0.0
  0
LINE
  5
F69A
  8
3
 10
124.8781426578342
 20
186.28658999070109
 30
0.0
 11
124.9021937157578
 21
186.2024112879684
 31
0.0
  0
LINE
  5
F69B
  8
3
 10
124.9021937157578
 20
186.2024112879684
 30
0.0
 11
124.9262447736815
 21
186.1182325852358
 31
0.0
  0
LINE
  5
F69C
  8
3
 10
124.9623213605668
 20
185.93183688632769
 30
0.0
 11
124.9623213605668
 21
185.9258241218468
 31
0.0
  0
LINE
  5
F69D
  8
3
 10
124.9623213605668
 20
185.9258241218468
 30
0.0
 11
124.9623213605668
 21
185.9198113573658
 31
0.0
  0
LINE
  5
F69E
  8
3
 10
124.9623213605668
 20
185.9198113573658
 30
0.0
 11
124.9623213605668
 21
185.913798592885
 31
0.0
  0
LINE
  5
F69F
  8
3
 10
124.9623213605668
 20
185.913798592885
 30
0.0
 11
124.9623213605668
 21
185.9017730639232
 31
0.0
  0
LINE
  5
F6A0
  8
3
 10
124.9262447736815
 20
186.1182325852358
 30
0.0
 11
124.9683341250477
 21
185.9378496508086
 31
0.0
  0
LINE
  5
F6A1
  8
3
 10
124.9683341250477
 20
185.9378496508086
 30
0.0
 11
124.9623213605668
 21
185.93183688632769
 31
0.0
  0
LINE
  5
F6A2
  8
3
 10
124.9623213605668
 20
185.9017730639232
 30
0.0
 11
124.9623213605668
 21
185.8957602994422
 31
0.0
  0
LINE
  5
F6A3
  8
3
 10
124.818015013025
 20
186.44893463168549
 30
0.0
 11
124.8480788354296
 21
186.3707686934338
 31
0.0
  0
LINE
  5
F6A4
  8
3
 10
124.8480788354296
 20
186.3707686934338
 30
0.0
 11
124.8781426578342
 21
186.28658999070109
 31
0.0
  0
LINE
  5
F6A5
  8
3
 10
125.1126404725894
 20
187.56730882513381
 30
0.0
 11
124.8661171288723
 21
187.56129606065301
 31
0.0
  0
LINE
  5
F6A6
  8
3
 10
124.697759723407
 20
186.671406917479
 30
0.0
 11
124.7398490747732
 21
186.5992537437082
 31
0.0
  0
LINE
  5
F6A7
  8
3
 10
124.7398490747732
 20
186.5992537437082
 30
0.0
 11
124.7819384261397
 21
186.52710056993729
 31
0.0
  0
LINE
  5
F6A8
  8
3
 10
124.4211725572853
 20
187.0021089639288
 30
0.0
 11
124.4813002020944
 21
186.9419813191198
 31
0.0
  0
LINE
  5
F6A9
  8
3
 10
124.4813002020944
 20
186.9419813191198
 30
0.0
 11
124.5414278469035
 21
186.8758409098298
 31
0.0
  0
LINE
  5
F6AA
  8
3
 10
124.5414278469035
 20
186.8758409098298
 30
0.0
 11
124.5955427272316
 21
186.8097005005398
 31
0.0
  0
LINE
  5
F6AB
  8
3
 10
124.5955427272316
 20
186.8097005005398
 30
0.0
 11
124.6496576075597
 21
186.74356009124989
 31
0.0
  0
LINE
  5
F6AC
  8
3
 10
124.6496576075597
 20
186.74356009124989
 30
0.0
 11
124.697759723407
 21
186.671406917479
 31
0.0
  0
LINE
  5
F6AD
  8
3
 10
124.8661171288723
 20
187.56129606065301
 30
0.0
 11
124.6135810206744
 21
187.56129606065301
 31
0.0
  0
LINE
  5
F6AE
  8
3
 10
124.7819384261397
 20
186.52710056993729
 30
0.0
 11
124.818015013025
 21
186.44893463168549
 31
0.0
  0
LINE
  5
F6AF
  8
3
 10
123.9702152212174
 20
185.468854021298
 30
0.0
 11
123.9702152212174
 21
185.56505825299249
 31
0.0
  0
LINE
  5
F6B0
  8
3
 10
123.9702152212174
 20
185.37264978960351
 30
0.0
 11
123.9702152212174
 21
185.468854021298
 31
0.0
  0
LINE
  5
F6B1
  8
3
 10
123.9702152212174
 20
185.27043279342811
 30
0.0
 11
123.9702152212174
 21
185.37264978960351
 31
0.0
  0
LINE
  5
F6B2
  8
3
 10
123.9702152212174
 20
185.16821579725271
 30
0.0
 11
123.9702152212174
 21
185.27043279342811
 31
0.0
  0
LINE
  5
F6B3
  8
3
 10
123.9642024567365
 20
184.963781804902
 30
0.0
 11
123.9642024567365
 21
185.0659988010774
 31
0.0
  0
LINE
  5
F6B4
  8
3
 10
123.9702152212174
 20
185.56505825299249
 30
0.0
 11
123.9581896922556
 21
185.66126248468689
 31
0.0
  0
LINE
  5
F6B5
  8
3
 10
123.9642024567365
 20
185.0659988010774
 30
0.0
 11
123.9702152212174
 21
185.16821579725271
 31
0.0
  0
LINE
  5
F6B6
  8
3
 10
123.9581896922556
 20
185.66126248468689
 30
0.0
 11
123.9461641632938
 21
185.7514539519006
 31
0.0
  0
LINE
  5
F6B7
  8
3
 10
123.9221131053702
 20
185.8356326546332
 30
0.0
 11
123.8920492829657
 21
185.9198113573658
 31
0.0
  0
LINE
  5
F6B8
  8
3
 10
123.8920492829657
 20
185.9198113573658
 30
0.0
 11
123.8559726960803
 21
186.00399006009849
 31
0.0
  0
LINE
  5
F6B9
  8
3
 10
123.8559726960803
 20
186.00399006009849
 30
0.0
 11
123.747742935424
 21
186.1422836431594
 31
0.0
  0
LINE
  5
F6BA
  8
3
 10
123.747742935424
 20
186.1422836431594
 30
0.0
 11
123.741730170943
 21
186.1422836431594
 31
0.0
  0
LINE
  5
F6BB
  8
3
 10
123.741730170943
 20
186.1422836431594
 30
0.0
 11
123.7357174064622
 21
186.1422836431594
 31
0.0
  0
LINE
  5
F6BC
  8
3
 10
123.7357174064622
 20
186.1422836431594
 30
0.0
 11
123.7297046419812
 21
186.1422836431594
 31
0.0
  0
LINE
  5
F6BD
  8
3
 10
123.7297046419812
 20
186.1422836431594
 30
0.0
 11
123.7236918775003
 21
186.1422836431594
 31
0.0
  0
LINE
  5
F6BE
  8
3
 10
123.7236918775003
 20
186.1422836431594
 30
0.0
 11
123.7236918775003
 21
186.13627087867849
 31
0.0
  0
LINE
  5
F6BF
  8
3
 10
123.7236918775003
 20
186.13627087867849
 30
0.0
 11
123.7176791130194
 21
186.13627087867849
 31
0.0
  0
LINE
  5
F6C0
  8
3
 10
123.7176791130194
 20
186.13627087867849
 30
0.0
 11
123.7176791130194
 21
186.1302581141976
 31
0.0
  0
LINE
  5
F6C1
  8
3
 10
123.7176791130194
 20
186.1302581141976
 30
0.0
 11
123.7116663485385
 21
186.1302581141976
 31
0.0
  0
LINE
  5
F6C2
  8
3
 10
123.7116663485385
 20
186.1302581141976
 30
0.0
 11
123.7116663485385
 21
186.12424534971669
 31
0.0
  0
LINE
  5
F6C3
  8
3
 10
123.7116663485385
 20
186.12424534971669
 30
0.0
 11
123.7116663485385
 21
186.11221982075489
 31
0.0
  0
LINE
  5
F6C4
  8
3
 10
123.9461641632938
 20
185.7514539519006
 30
0.0
 11
123.9221131053702
 21
185.8356326546332
 31
0.0
  0
LINE
  5
F6C5
  8
3
 10
124.2347768583772
 20
187.14641531147061
 30
0.0
 11
124.2828789742245
 21
187.11635148906601
 31
0.0
  0
LINE
  5
F6C6
  8
3
 10
124.2828789742245
 20
187.11635148906601
 30
0.0
 11
124.3550321479954
 21
187.06223660873789
 31
0.0
  0
LINE
  5
F6C7
  8
3
 10
124.18667474253
 20
187.17046636939421
 30
0.0
 11
124.2107258004536
 21
187.15844084043241
 31
0.0
  0
LINE
  5
F6C8
  8
3
 10
124.2107258004536
 20
187.15844084043241
 30
0.0
 11
124.2347768583772
 21
187.14641531147061
 31
0.0
  0
LINE
  5
F6C9
  8
3
 10
124.1145215687592
 20
187.20654295627961
 30
0.0
 11
124.1385726266829
 21
187.19451742731789
 31
0.0
  0
LINE
  5
F6CA
  8
3
 10
124.1385726266829
 20
187.19451742731789
 30
0.0
 11
124.1626236846064
 21
187.18249189835601
 31
0.0
  0
LINE
  5
F6CB
  8
3
 10
124.1626236846064
 20
187.18249189835601
 30
0.0
 11
124.18667474253
 21
187.17046636939421
 31
0.0
  0
LINE
  5
F6CC
  8
3
 10
123.9942662791411
 20
187.26667060108861
 30
0.0
 11
124.0183173370647
 21
187.25464507212689
 31
0.0
  0
LINE
  5
F6CD
  8
3
 10
123.9702152212174
 20
187.27869613005049
 30
0.0
 11
123.9942662791411
 21
187.26667060108861
 31
0.0
  0
LINE
  5
F6CE
  8
3
 10
124.3670576769571
 20
187.55528329617209
 30
0.0
 11
124.12053433324
 21
187.55528329617209
 31
0.0
  0
LINE
  5
F6CF
  8
3
 10
124.0183173370647
 20
187.25464507212689
 30
0.0
 11
124.0423683949883
 21
187.24261954316501
 31
0.0
  0
LINE
  5
F6D0
  8
3
 10
124.0423683949883
 20
187.24261954316501
 30
0.0
 11
124.0664194529119
 21
187.23059401420321
 31
0.0
  0
LINE
  5
F6D1
  8
3
 10
124.0664194529119
 20
187.23059401420321
 30
0.0
 11
124.0904705108355
 21
187.21856848524141
 31
0.0
  0
LINE
  5
F6D2
  8
3
 10
123.9461641632938
 20
187.29072165901229
 30
0.0
 11
123.9702152212174
 21
187.27869613005049
 31
0.0
  0
LINE
  5
F6D3
  8
3
 10
124.0904705108355
 20
187.21856848524141
 30
0.0
 11
124.1145215687592
 21
187.20654295627961
 31
0.0
  0
LINE
  5
F6D4
  8
3
 10
123.5312834141114
 20
187.39293865518761
 30
0.0
 11
123.5853982944395
 21
187.38692589070681
 31
0.0
  0
LINE
  5
F6D5
  8
3
 10
123.5853982944395
 20
187.38692589070681
 30
0.0
 11
123.6395131747677
 21
187.37490036174489
 31
0.0
  0
LINE
  5
F6D6
  8
3
 10
123.6395131747677
 20
187.37490036174489
 30
0.0
 11
123.6936280550959
 21
187.36888759726409
 31
0.0
  0
LINE
  5
F6D7
  8
3
 10
123.6936280550959
 20
187.36888759726409
 30
0.0
 11
123.747742935424
 21
187.35686206830221
 31
0.0
  0
LINE
  5
F6D8
  8
3
 10
123.747742935424
 20
187.35686206830221
 30
0.0
 11
123.7958450512712
 21
187.34483653934041
 31
0.0
  0
LINE
  5
F6D9
  8
3
 10
123.8920492829657
 20
187.54927053169121
 30
0.0
 11
123.6695769971722
 21
187.54927053169121
 31
0.0
  0
LINE
  5
F6DA
  8
3
 10
123.7958450512712
 20
187.34483653934041
 30
0.0
 11
123.9040748119275
 21
187.31477271693589
 31
0.0
  0
LINE
  5
F6DB
  8
3
 10
123.9040748119275
 20
187.31477271693589
 30
0.0
 11
123.9221131053702
 21
187.30274718797409
 31
0.0
  0
LINE
  5
F6DC
  8
3
 10
123.9221131053702
 20
187.30274718797409
 30
0.0
 11
123.9461641632938
 21
187.29072165901229
 31
0.0
  0
LINE
  5
F6DD
  8
3
 10
124.12053433324
 20
187.55528329617209
 30
0.0
 11
123.8920492829657
 21
187.54927053169121
 31
0.0
  0
LINE
  5
F6DE
  8
3
 10
124.3550321479954
 20
187.06223660873789
 30
0.0
 11
124.4211725572853
 21
187.0021089639288
 31
0.0
  0
LINE
  5
F6DF
  8
3
 10
124.6135810206744
 20
187.56129606065301
 30
0.0
 11
124.3670576769571
 21
187.55528329617209
 31
0.0
  0
LINE
  5
F6E0
  8
3
 10
124.9803596540096
 20
185.84164541911409
 30
0.0
 11
124.9803596540096
 21
184.68719463878031
 31
0.0
  0
LINE
  5
F6E1
  8
3
 10
123.7116663485385
 20
186.11221982075489
 30
0.0
 11
123.7116663485385
 21
184.78941163495571
 31
0.0
  0
LINE
  5
F6E2
  8
3
 10
123.9642024567365
 20
184.86757757320751
 30
0.0
 11
123.9642024567365
 21
184.963781804902
 31
0.0
  0
LINE
  5
F6E3
  8
3
 10
123.044249491158
 20
184.18813518686531
 30
0.0
 11
123.0923516070052
 21
184.2242117737506
 31
0.0
  0
LINE
  5
F6E4
  8
3
 10
123.1224154294099
 20
184.771373341513
 30
0.0
 11
123.050262255639
 21
184.76536057703211
 31
0.0
  0
LINE
  5
F6E5
  8
3
 10
123.050262255639
 20
184.76536057703211
 30
0.0
 11
123.044249491158
 21
184.771373341513
 31
0.0
  0
LINE
  5
F6E6
  8
3
 10
123.044249491158
 20
184.771373341513
 30
0.0
 11
123.0382367266772
 21
184.771373341513
 31
0.0
  0
LINE
  5
F6E7
  8
3
 10
123.0382367266772
 20
184.771373341513
 30
0.0
 11
123.0322239621961
 21
184.771373341513
 31
0.0
  0
LINE
  5
F6E8
  8
3
 10
123.1584920162952
 20
184.771373341513
 30
0.0
 11
123.1224154294099
 21
184.771373341513
 31
0.0
  0
LINE
  5
F6E9
  8
3
 10
123.0923516070052
 20
184.2242117737506
 30
0.0
 11
123.1404537228525
 21
184.260288360636
 31
0.0
  0
LINE
  5
F6EA
  8
3
 10
123.3749515376078
 20
184.3685181212924
 30
0.0
 11
123.435079182417
 21
184.38655641473511
 31
0.0
  0
LINE
  5
F6EB
  8
3
 10
123.4170408889741
 20
184.77738610599391
 30
0.0
 11
123.3749515376078
 21
184.77738610599391
 31
0.0
  0
LINE
  5
F6EC
  8
3
 10
123.3088111283178
 20
184.34446706336871
 30
0.0
 11
123.3749515376078
 21
184.3685181212924
 31
0.0
  0
LINE
  5
F6ED
  8
3
 10
123.3749515376078
 20
184.77738610599391
 30
0.0
 11
123.3388749507225
 21
184.77738610599391
 31
0.0
  0
LINE
  5
F6EE
  8
3
 10
123.3388749507225
 20
184.77738610599391
 30
0.0
 11
123.302798363837
 21
184.77738610599391
 31
0.0
  0
LINE
  5
F6EF
  8
3
 10
123.4591302403406
 20
184.7833988704748
 30
0.0
 11
123.4170408889741
 21
184.77738610599391
 31
0.0
  0
LINE
  5
F6F0
  8
3
 10
123.2667217769517
 20
184.77738610599391
 30
0.0
 11
123.2306451900661
 21
184.77738610599391
 31
0.0
  0
LINE
  5
F6F1
  8
3
 10
123.2546962479898
 20
184.32041600544511
 30
0.0
 11
123.3088111283178
 21
184.34446706336871
 31
0.0
  0
LINE
  5
F6F2
  8
3
 10
123.302798363837
 20
184.77738610599391
 30
0.0
 11
123.2667217769517
 21
184.77738610599391
 31
0.0
  0
LINE
  5
F6F3
  8
3
 10
123.1404537228525
 20
184.260288360636
 30
0.0
 11
123.1945686031807
 21
184.2903521830406
 31
0.0
  0
LINE
  5
F6F4
  8
3
 10
123.1945686031807
 20
184.77738610599391
 30
0.0
 11
123.1584920162952
 21
184.771373341513
 31
0.0
  0
LINE
  5
F6F5
  8
3
 10
123.1945686031807
 20
184.2903521830406
 30
0.0
 11
123.2546962479898
 21
184.32041600544511
 31
0.0
  0
LINE
  5
F6F6
  8
3
 10
123.2306451900661
 20
184.77738610599391
 30
0.0
 11
123.1945686031807
 21
184.77738610599391
 31
0.0
  0
LINE
  5
F6F7
  8
3
 10
122.7857006184792
 20
184.0618671327662
 30
0.0
 11
122.8097516764028
 21
184.0618671327662
 31
0.0
  0
LINE
  5
F6F8
  8
3
 10
122.731585738151
 20
184.06787989724711
 30
0.0
 11
122.7496240315937
 21
184.0618671327662
 31
0.0
  0
LINE
  5
F6F9
  8
3
 10
122.7075346802273
 20
184.073892661728
 30
0.0
 11
122.7195602091892
 21
184.06787989724711
 31
0.0
  0
LINE
  5
F6FA
  8
3
 10
122.7195602091892
 20
184.06787989724711
 30
0.0
 11
122.731585738151
 21
184.06787989724711
 31
0.0
  0
LINE
  5
F6FB
  8
3
 10
122.7496240315937
 20
184.0618671327662
 30
0.0
 11
122.7676623250364
 21
184.0618671327662
 31
0.0
  0
LINE
  5
F6FC
  8
3
 10
122.7676623250364
 20
184.0618671327662
 30
0.0
 11
122.7857006184792
 21
184.0618671327662
 31
0.0
  0
LINE
  5
F6FD
  8
3
 10
122.8758920856927
 20
184.06787989724711
 30
0.0
 11
122.8939303791354
 21
184.06787989724711
 31
0.0
  0
LINE
  5
F6FE
  8
3
 10
122.8518410277691
 20
184.0618671327662
 30
0.0
 11
122.8758920856927
 21
184.06787989724711
 31
0.0
  0
LINE
  5
F6FF
  8
3
 10
122.8097516764028
 20
184.0618671327662
 30
0.0
 11
122.8277899698454
 21
184.0618671327662
 31
0.0
  0
LINE
  5
F700
  8
3
 10
122.8277899698454
 20
184.0618671327662
 30
0.0
 11
122.8518410277691
 21
184.0618671327662
 31
0.0
  0
LINE
  5
F701
  8
3
 10
122.8939303791354
 20
184.06787989724711
 30
0.0
 11
122.9119686725782
 21
184.073892661728
 31
0.0
  0
LINE
  5
F702
  8
3
 10
122.9119686725782
 20
184.073892661728
 30
0.0
 11
122.9480452594637
 21
184.07990542620891
 31
0.0
  0
LINE
  5
F703
  8
3
 10
122.6955091512656
 20
184.07990542620891
 30
0.0
 11
122.6955091512656
 21
184.073892661728
 31
0.0
  0
LINE
  5
F704
  8
3
 10
122.6955091512656
 20
184.073892661728
 30
0.0
 11
122.7075346802273
 21
184.073892661728
 31
0.0
  0
LINE
  5
F705
  8
3
 10
123.0262111977153
 20
184.771373341513
 30
0.0
 11
123.0201984332344
 21
184.771373341513
 31
0.0
  0
LINE
  5
F706
  8
3
 10
123.0201984332344
 20
184.771373341513
 30
0.0
 11
123.0141856687535
 21
184.771373341513
 31
0.0
  0
LINE
  5
F707
  8
3
 10
123.0141856687535
 20
184.771373341513
 30
0.0
 11
123.0081729042726
 21
184.771373341513
 31
0.0
  0
LINE
  5
F708
  8
3
 10
123.0081729042726
 20
184.771373341513
 30
0.0
 11
123.0081729042726
 21
184.77738610599391
 31
0.0
  0
LINE
  5
F709
  8
3
 10
123.0081729042726
 20
184.77738610599391
 30
0.0
 11
123.0021601397917
 21
184.77738610599391
 31
0.0
  0
LINE
  5
F70A
  8
3
 10
123.0021601397917
 20
184.77738610599391
 30
0.0
 11
122.9961473753108
 21
184.77738610599391
 31
0.0
  0
LINE
  5
F70B
  8
3
 10
122.9961473753108
 20
184.77738610599391
 30
0.0
 11
122.9901346108298
 21
184.77738610599391
 31
0.0
  0
LINE
  5
F70C
  8
3
 10
122.9901346108298
 20
184.77738610599391
 30
0.0
 11
122.9841218463491
 21
184.77738610599391
 31
0.0
  0
LINE
  5
F70D
  8
3
 10
122.6353815064565
 20
184.6330797584522
 30
0.0
 11
122.6413942709374
 21
184.52484999779591
 31
0.0
  0
LINE
  5
F70E
  8
3
 10
122.6353815064565
 20
184.61504146500951
 30
0.0
 11
122.6353815064565
 21
184.6330797584522
 31
0.0
  0
LINE
  5
F70F
  8
3
 10
122.6233559774946
 20
184.7413095191084
 30
0.0
 11
122.6353815064565
 21
184.6330797584522
 31
0.0
  0
LINE
  5
F710
  8
3
 10
122.6233559774946
 20
184.8495392797648
 30
0.0
 11
122.6233559774946
 21
184.7413095191084
 31
0.0
  0
LINE
  5
F711
  8
3
 10
122.6534197998992
 20
184.4166202371396
 30
0.0
 11
122.6654453288611
 21
184.3023777120024
 31
0.0
  0
LINE
  5
F712
  8
3
 10
122.6413942709374
 20
184.52484999779591
 30
0.0
 11
122.6534197998992
 21
184.4166202371396
 31
0.0
  0
LINE
  5
F713
  8
3
 10
122.6654453288611
 20
184.3023777120024
 30
0.0
 11
122.6955091512656
 21
184.07990542620891
 31
0.0
  0
LINE
  5
F714
  8
3
 10
123.0322239621961
 20
184.771373341513
 30
0.0
 11
123.0262111977153
 21
184.771373341513
 31
0.0
  0
LINE
  5
F715
  8
3
 10
122.9480452594637
 20
184.07990542620891
 30
0.0
 11
123.044249491158
 21
184.18813518686531
 31
0.0
  0
LINE
  5
F716
  8
3
 10
122.4429730430675
 20
184.7292839901466
 30
0.0
 11
122.3888581627395
 21
184.7352967546276
 31
0.0
  0
LINE
  5
F717
  8
3
 10
122.1483475835032
 20
184.60301593604771
 30
0.0
 11
122.2144879927931
 21
184.60301593604771
 31
0.0
  0
LINE
  5
F718
  8
3
 10
122.2144879927931
 20
184.60301593604771
 30
0.0
 11
122.2926539310448
 21
184.60301593604771
 31
0.0
  0
LINE
  5
F719
  8
3
 10
122.2926539310448
 20
184.60301593604771
 30
0.0
 11
122.3888581627395
 21
184.6090287005286
 31
0.0
  0
LINE
  5
F71A
  8
3
 10
122.3888581627395
 20
184.7352967546276
 30
0.0
 11
122.3287305179303
 21
184.7352967546276
 31
0.0
  0
LINE
  5
F71B
  8
3
 10
122.3287305179303
 20
184.7352967546276
 30
0.0
 11
122.2746156376021
 21
184.7413095191084
 31
0.0
  0
LINE
  5
F71C
  8
3
 10
122.2746156376021
 20
184.7413095191084
 30
0.0
 11
122.220500757274
 21
184.7413095191084
 31
0.0
  0
LINE
  5
F71D
  8
3
 10
122.220500757274
 20
184.7413095191084
 30
0.0
 11
122.160373112465
 21
184.74732228358931
 31
0.0
  0
LINE
  5
F71E
  8
3
 10
122.51552781255199
 20
184.72122234909281
 30
0.0
 11
122.4429730430675
 21
184.7292839901466
 31
0.0
  0
LINE
  5
F71F
  8
3
 10
121.72144130535889
 20
184.59099040708591
 30
0.0
 11
121.77555618568699
 21
184.59700317156671
 31
0.0
  0
LINE
  5
F720
  8
3
 10
121.77555618568699
 20
184.59700317156671
 30
0.0
 11
121.82365830153429
 21
184.60301593604771
 31
0.0
  0
LINE
  5
F721
  8
3
 10
121.82365830153429
 20
184.60301593604771
 30
0.0
 11
121.85973488841969
 21
184.60301593604771
 31
0.0
  0
LINE
  5
F722
  8
3
 10
121.85973488841969
 20
184.60301593604771
 30
0.0
 11
121.89581147530519
 21
184.60301593604771
 31
0.0
  0
LINE
  5
F723
  8
3
 10
121.89581147530519
 20
184.60301593604771
 30
0.0
 11
121.9318880621905
 21
184.60301593604771
 31
0.0
  0
LINE
  5
F724
  8
3
 10
121.9318880621905
 20
184.60301593604771
 30
0.0
 11
121.9679646490759
 21
184.60301593604771
 31
0.0
  0
LINE
  5
F725
  8
3
 10
121.9679646490759
 20
184.60301593604771
 30
0.0
 11
122.00404123596149
 21
184.60301593604771
 31
0.0
  0
LINE
  5
F726
  8
3
 10
122.00404123596149
 20
184.60301593604771
 30
0.0
 11
122.0461305873277
 21
184.60301593604771
 31
0.0
  0
LINE
  5
F727
  8
3
 10
122.0461305873277
 20
184.60301593604771
 30
0.0
 11
122.094232703175
 21
184.60301593604771
 31
0.0
  0
LINE
  5
F728
  8
3
 10
122.1062582321369
 20
184.75333504807031
 30
0.0
 11
122.0521433518087
 21
184.75934781255111
 31
0.0
  0
LINE
  5
F729
  8
3
 10
122.0521433518087
 20
184.75934781255111
 30
0.0
 11
121.9980284714805
 21
184.76536057703211
 31
0.0
  0
LINE
  5
F72A
  8
3
 10
121.9980284714805
 20
184.76536057703211
 30
0.0
 11
121.94992635563329
 21
184.77738610599391
 31
0.0
  0
LINE
  5
F72B
  8
3
 10
121.94992635563329
 20
184.77738610599391
 30
0.0
 11
121.89581147530519
 21
184.7954243994366
 31
0.0
  0
LINE
  5
F72C
  8
3
 10
121.89581147530519
 20
184.7954243994366
 30
0.0
 11
121.84770935945789
 21
184.8134626928794
 31
0.0
  0
LINE
  5
F72D
  8
3
 10
121.75751789224429
 20
184.8615648087266
 30
0.0
 11
121.72745406983969
 21
184.93973074697831
 31
0.0
  0
LINE
  5
F72E
  8
3
 10
121.84770935945789
 20
184.8134626928794
 30
0.0
 11
121.75751789224429
 21
184.8615648087266
 31
0.0
  0
LINE
  5
F72F
  8
3
 10
122.094232703175
 20
184.60301593604771
 30
0.0
 11
122.1483475835032
 21
184.60301593604771
 31
0.0
  0
LINE
  5
F730
  8
3
 10
122.160373112465
 20
184.74732228358931
 30
0.0
 11
122.1062582321369
 21
184.75333504807031
 31
0.0
  0
ARC
  5
F731
  8
3
 10
122.50372474811741
 20
184.58716540430041
 30
0.0
 40
0.1345755430122404
 50
11.95483737982957
 51
84.968359139188976
  0
LINE
  5
F732
  8
3
 10
122.3888581627395
 20
184.6090287005286
 30
0.0
 11
122.6353815064565
 21
184.61504146500951
 31
0.0
  0
LINE
  5
F733
  8
3
 10
122.6474070354183
 20
185.6131603688398
 30
0.0
 11
122.6353815064565
 21
185.50493060818351
 31
0.0
  0
LINE
  5
F734
  8
3
 10
122.6353815064565
 20
185.50493060818351
 30
0.0
 11
122.6293687419757
 21
185.3906880830462
 31
0.0
  0
LINE
  5
F735
  8
3
 10
122.6293687419757
 20
185.3906880830462
 30
0.0
 11
122.6233559774946
 21
185.28245832238991
 31
0.0
  0
LINE
  5
F736
  8
3
 10
122.6233559774946
 20
185.17422856173371
 30
0.0
 11
122.6173432130138
 21
185.0659988010774
 31
0.0
  0
LINE
  5
F737
  8
3
 10
122.6233559774946
 20
185.28245832238991
 30
0.0
 11
122.6233559774946
 21
185.17422856173371
 31
0.0
  0
LINE
  5
F738
  8
3
 10
122.6173432130138
 20
185.0659988010774
 30
0.0
 11
122.6173432130138
 21
184.95776904042111
 31
0.0
  0
LINE
  5
F739
  8
3
 10
122.8037389119219
 20
186.02202835354129
 30
0.0
 11
122.7796878539982
 21
185.99797729561769
 31
0.0
  0
LINE
  5
F73A
  8
3
 10
122.7796878539982
 20
185.99797729561769
 30
0.0
 11
122.7616495605556
 21
185.96791347321309
 31
0.0
  0
LINE
  5
F73B
  8
3
 10
122.7616495605556
 20
185.96791347321309
 30
0.0
 11
122.7375985026319
 21
185.94386241528949
 31
0.0
  0
LINE
  5
F73C
  8
3
 10
122.7375985026319
 20
185.94386241528949
 30
0.0
 11
122.7195602091892
 21
185.913798592885
 31
0.0
  0
LINE
  5
F73D
  8
3
 10
122.7195602091892
 20
185.913798592885
 30
0.0
 11
122.7075346802273
 21
185.8897475349614
 31
0.0
  0
LINE
  5
F73E
  8
3
 10
122.8939303791354
 20
186.1182325852358
 30
0.0
 11
122.8698793212118
 21
186.0941815273122
 31
0.0
  0
LINE
  5
F73F
  8
3
 10
122.8698793212118
 20
186.0941815273122
 30
0.0
 11
122.8518410277691
 21
186.0761432338694
 31
0.0
  0
LINE
  5
F740
  8
3
 10
122.8518410277691
 20
186.0761432338694
 30
0.0
 11
122.8277899698454
 21
186.04607941146489
 31
0.0
  0
LINE
  5
F741
  8
3
 10
122.8277899698454
 20
186.04607941146489
 30
0.0
 11
122.8037389119219
 21
186.02202835354129
 31
0.0
  0
LINE
  5
F742
  8
3
 10
122.9600707884254
 20
186.1543091721212
 30
0.0
 11
122.9360197305018
 21
186.14829640764029
 31
0.0
  0
LINE
  5
F743
  8
3
 10
122.9360197305018
 20
186.14829640764029
 30
0.0
 11
122.917981437059
 21
186.13627087867849
 31
0.0
  0
LINE
  5
F744
  8
3
 10
122.917981437059
 20
186.13627087867849
 30
0.0
 11
122.8939303791354
 21
186.1182325852358
 31
0.0
  0
LINE
  5
F745
  8
3
 10
122.9781090818681
 20
186.1543091721212
 30
0.0
 11
122.9600707884254
 21
186.1543091721212
 31
0.0
  0
LINE
  5
F746
  8
3
 10
122.6894963867847
 20
185.87170924151869
 30
0.0
 11
122.6714580933418
 21
185.8356326546332
 31
0.0
  0
LINE
  5
F747
  8
3
 10
122.6714580933418
 20
185.8356326546332
 30
0.0
 11
122.6534197998992
 21
185.72740289397689
 31
0.0
  0
LINE
  5
F748
  8
3
 10
122.7075346802273
 20
185.8897475349614
 30
0.0
 11
122.6894963867847
 21
185.87170924151869
 31
0.0
  0
LINE
  5
F749
  8
3
 10
122.6534197998992
 20
185.72740289397689
 30
0.0
 11
122.6474070354183
 21
185.6131603688398
 31
0.0
  0
LINE
  5
F74A
  8
3
 10
123.044249491158
 20
187.38091312622589
 30
0.0
 11
123.0983643714862
 21
187.39293865518761
 31
0.0
  0
LINE
  5
F74B
  8
3
 10
123.0983643714862
 20
187.39293865518761
 30
0.0
 11
123.1524792518144
 21
187.39293865518761
 31
0.0
  0
LINE
  5
F74C
  8
3
 10
123.3749515376078
 20
187.39895141966861
 30
0.0
 11
123.429066417936
 21
187.39895141966861
 31
0.0
  0
LINE
  5
F74D
  8
3
 10
123.4711557693024
 20
187.54927053169121
 30
0.0
 11
123.2907728348753
 21
187.54325776721029
 31
0.0
  0
LINE
  5
F74E
  8
3
 10
123.3208366572797
 20
187.39895141966861
 30
0.0
 11
123.3749515376078
 21
187.39895141966861
 31
0.0
  0
LINE
  5
F74F
  8
3
 10
123.429066417936
 20
187.39895141966861
 30
0.0
 11
123.4831812982642
 21
187.39293865518761
 31
0.0
  0
LINE
  5
F750
  8
3
 10
123.2607090124706
 20
187.39895141966861
 30
0.0
 11
123.3208366572797
 21
187.39895141966861
 31
0.0
  0
LINE
  5
F751
  8
3
 10
123.1524792518144
 20
187.39293865518761
 30
0.0
 11
123.2065941321425
 21
187.39895141966861
 31
0.0
  0
LINE
  5
F752
  8
3
 10
123.2065941321425
 20
187.39895141966861
 30
0.0
 11
123.2607090124706
 21
187.39895141966861
 31
0.0
  0
LINE
  5
F753
  8
3
 10
123.2907728348753
 20
187.54325776721029
 30
0.0
 11
123.1404537228525
 21
187.53724500272941
 31
0.0
  0
LINE
  5
F754
  8
3
 10
122.8037389119219
 20
187.50718118032489
 30
0.0
 11
122.7616495605556
 21
187.49515565136309
 31
0.0
  0
LINE
  5
F755
  8
3
 10
122.7616495605556
 20
187.49515565136309
 30
0.0
 11
122.72557297367
 21
187.48313012240121
 31
0.0
  0
LINE
  5
F756
  8
3
 10
122.8819048501736
 20
187.52521947376761
 30
0.0
 11
122.8398154988072
 21
187.51920670928661
 31
0.0
  0
LINE
  5
F757
  8
3
 10
122.8398154988072
 20
187.51920670928661
 30
0.0
 11
122.8037389119219
 21
187.50718118032489
 31
0.0
  0
LINE
  5
F758
  8
3
 10
123.0201984332344
 20
187.53724500272941
 30
0.0
 11
122.8819048501736
 21
187.52521947376761
 31
0.0
  0
LINE
  5
F759
  8
3
 10
122.72557297367
 20
187.28470889453141
 30
0.0
 11
122.8037389119219
 21
187.31477271693589
 31
0.0
  0
LINE
  5
F75A
  8
3
 10
122.8037389119219
 20
187.31477271693589
 30
0.0
 11
122.8819048501736
 21
187.33882377485949
 31
0.0
  0
LINE
  5
F75B
  8
3
 10
122.5812666261283
 20
187.21856848524141
 30
0.0
 11
122.6534197998992
 21
187.25464507212689
 31
0.0
  0
LINE
  5
F75C
  8
3
 10
122.6474070354183
 20
187.45907906447769
 30
0.0
 11
122.6113304485328
 21
187.44705353551581
 31
0.0
  0
LINE
  5
F75D
  8
3
 10
122.6113304485328
 20
187.44705353551581
 30
0.0
 11
122.5752538616475
 21
187.43502800655401
 31
0.0
  0
LINE
  5
F75E
  8
3
 10
122.6834836223037
 20
187.47110459343949
 30
0.0
 11
122.6474070354183
 21
187.45907906447769
 31
0.0
  0
LINE
  5
F75F
  8
3
 10
122.6534197998992
 20
187.25464507212689
 30
0.0
 11
122.72557297367
 21
187.28470889453141
 31
0.0
  0
LINE
  5
F760
  8
3
 10
122.72557297367
 20
187.48313012240121
 30
0.0
 11
122.6834836223037
 21
187.47110459343949
 31
0.0
  0
LINE
  5
F761
  8
3
 10
123.1404537228525
 20
187.53724500272941
 30
0.0
 11
123.0201984332344
 21
187.53724500272941
 31
0.0
  0
LINE
  5
F762
  8
3
 10
122.8819048501736
 20
187.33882377485949
 30
0.0
 11
123.044249491158
 21
187.38091312622589
 31
0.0
  0
LINE
  5
F763
  8
3
 10
121.70340301191619
 20
185.01789668523011
 30
0.0
 11
121.67935195399259
 21
185.090049859001
 31
0.0
  0
LINE
  5
F764
  8
3
 10
121.67935195399259
 20
185.82961989015229
 30
0.0
 11
121.69137748295439
 21
185.90778582840409
 31
0.0
  0
LINE
  5
F765
  8
3
 10
121.77555618568699
 20
186.29260275518209
 30
0.0
 11
121.78758171464879
 21
186.32867934206749
 31
0.0
  0
LINE
  5
F766
  8
3
 10
121.80562000809159
 20
186.36475592895289
 30
0.0
 11
121.81764553705329
 21
186.3948197513574
 31
0.0
  0
LINE
  5
F767
  8
3
 10
121.81764553705329
 20
186.3948197513574
 30
0.0
 11
121.83568383049619
 21
186.4308963382428
 31
0.0
  0
LINE
  5
F768
  8
3
 10
121.78758171464879
 20
186.32867934206749
 30
0.0
 11
121.80562000809159
 21
186.36475592895289
 31
0.0
  0
LINE
  5
F769
  8
3
 10
121.69137748295439
 20
185.90778582840409
 30
0.0
 11
121.70340301191619
 21
185.98595176665589
 31
0.0
  0
LINE
  5
F76A
  8
3
 10
121.70340301191619
 20
185.98595176665589
 30
0.0
 11
121.72745406983969
 21
186.1422836431594
 31
0.0
  0
LINE
  5
F76B
  8
3
 10
121.72745406983969
 20
186.1422836431594
 30
0.0
 11
121.73346683432069
 21
186.18437299452569
 31
0.0
  0
LINE
  5
F76C
  8
3
 10
121.73346683432069
 20
186.18437299452569
 30
0.0
 11
121.74549236328249
 21
186.22044958141109
 31
0.0
  0
LINE
  5
F76D
  8
3
 10
121.74549236328249
 20
186.22044958141109
 30
0.0
 11
121.76353065672529
 21
186.2565261682966
 31
0.0
  0
LINE
  5
F76E
  8
3
 10
121.76353065672529
 20
186.2565261682966
 30
0.0
 11
121.77555618568699
 21
186.29260275518209
 31
0.0
  0
LINE
  5
F76F
  8
3
 10
122.2565773441595
 20
186.99609619944789
 30
0.0
 11
122.3167049889686
 21
187.05021107977609
 31
0.0
  0
LINE
  5
F770
  8
3
 10
122.3828453982586
 20
187.09230043114241
 30
0.0
 11
122.4429730430675
 21
187.14040254698961
 31
0.0
  0
LINE
  5
F771
  8
3
 10
122.3167049889686
 20
187.05021107977609
 30
0.0
 11
122.3828453982586
 21
187.09230043114241
 31
0.0
  0
LINE
  5
F772
  8
3
 10
122.4429730430675
 20
187.14040254698961
 30
0.0
 11
122.5151262168383
 21
187.18249189835601
 31
0.0
  0
LINE
  5
F773
  8
3
 10
122.1964496993504
 20
186.9419813191198
 30
0.0
 11
122.2565773441595
 21
186.99609619944789
 31
0.0
  0
LINE
  5
F774
  8
3
 10
122.1423348190223
 20
186.88185367431069
 30
0.0
 11
122.1964496993504
 21
186.9419813191198
 31
0.0
  0
LINE
  5
F775
  8
3
 10
122.3106922244876
 20
187.32078548141681
 30
0.0
 11
122.2625901086404
 21
187.30274718797409
 31
0.0
  0
LINE
  5
F776
  8
3
 10
122.2625901086404
 20
187.30274718797409
 30
0.0
 11
122.2144879927931
 21
187.27869613005049
 31
0.0
  0
LINE
  5
F777
  8
3
 10
122.2144879927931
 20
187.27869613005049
 30
0.0
 11
122.1723986414268
 21
187.25464507212689
 31
0.0
  0
LINE
  5
F778
  8
3
 10
122.1723986414268
 20
187.25464507212689
 30
0.0
 11
122.1303092900604
 21
187.23059401420321
 31
0.0
  0
LINE
  5
F779
  8
3
 10
122.4670241009912
 20
187.39895141966861
 30
0.0
 11
122.4309475141057
 21
187.38091312622589
 31
0.0
  0
LINE
  5
F77A
  8
3
 10
122.4309475141057
 20
187.38091312622589
 30
0.0
 11
122.4008836917013
 21
187.36888759726409
 31
0.0
  0
LINE
  5
F77B
  8
3
 10
122.4008836917013
 20
187.36888759726409
 30
0.0
 11
122.3648071048158
 21
187.35686206830221
 31
0.0
  0
LINE
  5
F77C
  8
3
 10
122.3648071048158
 20
187.35686206830221
 30
0.0
 11
122.3106922244876
 21
187.32078548141681
 31
0.0
  0
LINE
  5
F77D
  8
3
 10
122.5391772747619
 20
187.42300247759221
 30
0.0
 11
122.5031006878766
 21
187.41097694863041
 31
0.0
  0
LINE
  5
F77E
  8
3
 10
122.5031006878766
 20
187.41097694863041
 30
0.0
 11
122.4670241009912
 21
187.39895141966861
 31
0.0
  0
LINE
  5
F77F
  8
3
 10
121.87777318186239
 20
187.03818555081429
 30
0.0
 11
121.84770935945789
 21
187.00812172840969
 31
0.0
  0
LINE
  5
F780
  8
3
 10
122.094232703175
 20
187.20654295627961
 30
0.0
 11
122.0521433518087
 21
187.17647913387509
 31
0.0
  0
LINE
  5
F781
  8
3
 10
122.0521433518087
 20
187.17647913387509
 30
0.0
 11
122.01606676492329
 21
187.15242807595149
 31
0.0
  0
LINE
  5
F782
  8
3
 10
122.01606676492329
 20
187.15242807595149
 30
0.0
 11
121.97999017803789
 21
187.12236425354689
 31
0.0
  0
LINE
  5
F783
  8
3
 10
121.97999017803789
 20
187.12236425354689
 30
0.0
 11
121.94992635563329
 21
187.09831319562329
 31
0.0
  0
LINE
  5
F784
  8
3
 10
121.94992635563329
 20
187.09831319562329
 30
0.0
 11
121.91384976874789
 21
187.0682493732188
 31
0.0
  0
LINE
  5
F785
  8
3
 10
121.91384976874789
 20
187.0682493732188
 30
0.0
 11
121.87777318186239
 21
187.03818555081429
 31
0.0
  0
LINE
  5
F786
  8
3
 10
121.85372212393879
 20
186.46096016064729
 30
0.0
 11
121.87176041738149
 21
186.4970367475328
 31
0.0
  0
LINE
  5
F787
  8
3
 10
121.87176041738149
 20
186.4970367475328
 30
0.0
 11
121.88979871082429
 21
186.52710056993729
 31
0.0
  0
LINE
  5
F788
  8
3
 10
121.88979871082429
 20
186.52710056993729
 30
0.0
 11
121.90783700426699
 21
186.5571643923418
 31
0.0
  0
LINE
  5
F789
  8
3
 10
121.90783700426699
 20
186.5571643923418
 30
0.0
 11
121.92587529770969
 21
186.59324097922729
 31
0.0
  0
LINE
  5
F78A
  8
3
 10
121.92587529770969
 20
186.59324097922729
 30
0.0
 11
121.94992635563329
 21
186.6233048016318
 31
0.0
  0
LINE
  5
F78B
  8
3
 10
121.94992635563329
 20
186.6233048016318
 30
0.0
 11
121.9920157069996
 21
186.68343244644089
 31
0.0
  0
LINE
  5
F78C
  8
3
 10
122.0401178228468
 20
186.75558562021169
 30
0.0
 11
122.0882199386941
 21
186.82172602950169
 31
0.0
  0
LINE
  5
F78D
  8
3
 10
121.9920157069996
 20
186.68343244644089
 30
0.0
 11
122.0401178228468
 21
186.75558562021169
 31
0.0
  0
LINE
  5
F78E
  8
3
 10
121.84770935945789
 20
187.00812172840969
 30
0.0
 11
121.81163277257259
 21
186.9780579060052
 31
0.0
  0
LINE
  5
F78F
  8
3
 10
121.81163277257259
 20
186.9780579060052
 30
0.0
 11
121.77555618568699
 21
186.94799408360069
 31
0.0
  0
LINE
  5
F790
  8
3
 10
121.77555618568699
 20
186.94799408360069
 30
0.0
 11
121.70941577639709
 21
186.88185367431069
 31
0.0
  0
LINE
  5
F791
  8
3
 10
122.1303092900604
 20
187.23059401420321
 30
0.0
 11
122.094232703175
 21
187.20654295627961
 31
0.0
  0
LINE
  5
F792
  8
3
 10
122.0882199386941
 20
186.82172602950169
 30
0.0
 11
122.1423348190223
 21
186.88185367431069
 31
0.0
  0
LINE
  5
F793
  8
3
 10
121.83568383049619
 20
186.4308963382428
 30
0.0
 11
121.85372212393879
 21
186.46096016064729
 31
0.0
  0
LINE
  5
F794
  8
3
 10
122.5151262168383
 20
187.18249189835601
 30
0.0
 11
122.5812666261283
 21
187.21856848524141
 31
0.0
  0
LINE
  5
F795
  8
3
 10
122.5752538616475
 20
187.43502800655401
 30
0.0
 11
122.5391772747619
 21
187.42300247759221
 31
0.0
  0
LINE
  5
F796
  8
3
 10
122.9841218463491
 20
184.77738610599391
 30
0.0
 11
122.9781090818681
 21
186.1543091721212
 31
0.0
  0
LINE
  5
F797
  8
3
 10
121.72745406983969
 20
184.93973074697831
 30
0.0
 11
121.70340301191619
 21
185.01789668523011
 31
0.0
  0
LINE
  5
F798
  8
3
 10
122.6173432130138
 20
184.95776904042111
 30
0.0
 11
122.6233559774946
 21
184.8495392797648
 31
0.0
  0
LINE
  5
F799
  8
3
 10
123.6695769971722
 20
187.54927053169121
 30
0.0
 11
123.4711557693024
 21
187.54927053169121
 31
0.0
  0
LINE
  5
F79A
  8
3
 10
123.4831812982642
 20
187.39293865518761
 30
0.0
 11
123.5312834141114
 21
187.39293865518761
 31
0.0
  0
LINE
  5
F79B
  8
3
 10
123.435079182417
 20
184.38655641473511
 30
0.0
 11
123.4952068272259
 21
184.4045947081778
 31
0.0
  0
LINE
  5
F79C
  8
3
 10
123.5012195917069
 20
184.7833988704748
 30
0.0
 11
123.4591302403406
 21
184.7833988704748
 31
0.0
  0
LINE
  5
F79D
  8
3
 10
124.4091470283235
 20
188.63758090273501
 30
0.0
 11
124.697759723407
 21
188.6315681382541
 31
0.0
  0
LINE
  5
F79E
  8
3
 10
124.697759723407
 20
188.6315681382541
 30
0.0
 11
124.8480788354296
 21
188.6285617560136
 31
0.0
  0
LINE
  5
F79F
  8
3
 10
125.0525128277803
 20
189.97241461749601
 30
0.0
 11
125.0585255922612
 21
189.9122869726869
 31
0.0
  0
LINE
  5
F7A0
  8
3
 10
125.0284617698568
 20
190.1768486098467
 30
0.0
 11
125.0284617698568
 21
190.14678478744219
 31
0.0
  0
LINE
  5
F7A1
  8
3
 10
125.0284617698568
 20
190.14678478744219
 30
0.0
 11
125.0344745343377
 21
190.1167209650377
 31
0.0
  0
LINE
  5
F7A2
  8
3
 10
125.0344745343377
 20
190.1167209650377
 30
0.0
 11
125.0404872988186
 21
190.08665714263319
 31
0.0
  0
LINE
  5
F7A3
  8
3
 10
125.0404872988186
 20
190.08665714263319
 30
0.0
 11
125.0404872988186
 21
190.0565933202287
 31
0.0
  0
LINE
  5
F7A4
  8
3
 10
125.0404872988186
 20
190.0565933202287
 30
0.0
 11
125.0465000632994
 21
190.03254226230499
 31
0.0
  0
LINE
  5
F7A5
  8
3
 10
125.0465000632994
 20
190.03254226230499
 30
0.0
 11
125.0525128277803
 21
190.0024784399005
 31
0.0
  0
LINE
  5
F7A6
  8
3
 10
125.0525128277803
 20
190.0024784399005
 30
0.0
 11
125.0525128277803
 21
189.97241461749601
 31
0.0
  0
LINE
  5
F7A7
  8
3
 10
125.0585255922612
 20
189.9122869726869
 30
0.0
 11
125.0585255922612
 21
189.9122869726869
 31
0.0
  0
LINE
  5
F7A8
  8
3
 10
125.0224490053759
 20
190.2069124322513
 30
0.0
 11
125.0284617698568
 21
190.1768486098467
 31
0.0
  0
LINE
  5
F7A9
  8
3
 10
124.8961809512769
 20
190.56166553662459
 30
0.0
 11
124.9082064802387
 21
190.54362724318199
 31
0.0
  0
LINE
  5
F7AA
  8
3
 10
124.8601043643914
 20
190.6398314748765
 30
0.0
 11
124.8721298933531
 21
190.6217931814337
 31
0.0
  0
LINE
  5
F7AB
  8
3
 10
124.8721298933531
 20
190.6217931814337
 30
0.0
 11
124.8781426578342
 21
190.5977421235101
 31
0.0
  0
LINE
  5
F7AC
  8
3
 10
124.8781426578342
 20
190.5977421235101
 30
0.0
 11
124.8901681867959
 21
190.57970383006739
 31
0.0
  0
LINE
  5
F7AD
  8
3
 10
124.8901681867959
 20
190.57970383006739
 30
0.0
 11
124.8961809512769
 21
190.56166553662459
 31
0.0
  0
LINE
  5
F7AE
  8
3
 10
124.9082064802387
 20
190.54362724318199
 30
0.0
 11
124.9142192447196
 21
190.52558894973919
 31
0.0
  0
LINE
  5
F7AF
  8
3
 10
124.9142192447196
 20
190.52558894973919
 30
0.0
 11
124.9202320092005
 21
190.5015378918157
 31
0.0
  0
LINE
  5
F7B0
  8
3
 10
124.9202320092005
 20
190.5015378918157
 30
0.0
 11
124.9322575381623
 21
190.4834995983729
 31
0.0
  0
LINE
  5
F7B1
  8
3
 10
124.9322575381623
 20
190.4834995983729
 30
0.0
 11
124.9382703026433
 21
190.46546130493019
 31
0.0
  0
LINE
  5
F7B2
  8
3
 10
124.9382703026433
 20
190.46546130493019
 30
0.0
 11
124.950295831605
 21
190.4474230114875
 31
0.0
  0
LINE
  5
F7B3
  8
3
 10
124.950295831605
 20
190.4474230114875
 30
0.0
 11
124.9623213605668
 21
190.4293847180447
 31
0.0
  0
LINE
  5
F7B4
  8
3
 10
124.9623213605668
 20
190.4293847180447
 30
0.0
 11
124.9863724184904
 21
190.3933081311593
 31
0.0
  0
LINE
  5
F7B5
  8
3
 10
124.9863724184904
 20
190.3933081311593
 30
0.0
 11
124.9923851829714
 21
190.36324430875479
 31
0.0
  0
LINE
  5
F7B6
  8
3
 10
124.9923851829714
 20
190.36324430875479
 30
0.0
 11
124.9983979474523
 21
190.3331804863503
 31
0.0
  0
LINE
  5
F7B7
  8
3
 10
124.9983979474523
 20
190.3331804863503
 30
0.0
 11
125.0044107119331
 21
190.3031166639457
 31
0.0
  0
LINE
  5
F7B8
  8
3
 10
125.0044107119331
 20
190.3031166639457
 30
0.0
 11
125.010423476414
 21
190.27305284154119
 31
0.0
  0
LINE
  5
F7B9
  8
3
 10
125.010423476414
 20
190.27305284154119
 30
0.0
 11
125.016436240895
 21
190.2429890191367
 31
0.0
  0
LINE
  5
F7BA
  8
3
 10
125.016436240895
 20
190.2429890191367
 30
0.0
 11
125.0224490053759
 21
190.2069124322513
 31
0.0
  0
LINE
  5
F7BB
  8
3
 10
124.7218107813306
 20
190.8502782317081
 30
0.0
 11
124.7398490747733
 21
190.83825270274639
 31
0.0
  0
LINE
  5
F7BC
  8
3
 10
124.6556703720407
 20
190.93445693444079
 30
0.0
 11
124.6676959010025
 21
190.92243140547899
 31
0.0
  0
LINE
  5
F7BD
  8
3
 10
124.6195937851553
 20
190.9885718147689
 30
0.0
 11
124.6316193141171
 21
190.97053352132619
 31
0.0
  0
LINE
  5
F7BE
  8
3
 10
124.6316193141171
 20
190.97053352132619
 30
0.0
 11
124.6436448430788
 21
190.9524952278835
 31
0.0
  0
LINE
  5
F7BF
  8
3
 10
124.6436448430788
 20
190.9524952278835
 30
0.0
 11
124.6556703720407
 21
190.93445693444079
 31
0.0
  0
LINE
  5
F7C0
  8
3
 10
124.6676959010025
 20
190.92243140547899
 30
0.0
 11
124.6797214299643
 21
190.9043931120363
 31
0.0
  0
LINE
  5
F7C1
  8
3
 10
124.6797214299643
 20
190.9043931120363
 30
0.0
 11
124.697759723407
 21
190.88635481859359
 31
0.0
  0
LINE
  5
F7C2
  8
3
 10
124.697759723407
 20
190.88635481859359
 30
0.0
 11
124.7097852523688
 21
190.8683165251509
 31
0.0
  0
LINE
  5
F7C3
  8
3
 10
124.7097852523688
 20
190.8683165251509
 30
0.0
 11
124.7218107813306
 21
190.8502782317081
 31
0.0
  0
LINE
  5
F7C4
  8
3
 10
124.8360533064678
 20
190.6759080617619
 30
0.0
 11
124.8480788354296
 21
190.65786976831919
 31
0.0
  0
LINE
  5
F7C5
  8
3
 10
124.7398490747733
 20
190.83825270274639
 30
0.0
 11
124.7518746037351
 21
190.82021440930359
 31
0.0
  0
LINE
  5
F7C6
  8
3
 10
124.7518746037351
 20
190.82021440930359
 30
0.0
 11
124.7639001326969
 21
190.8021761158609
 31
0.0
  0
LINE
  5
F7C7
  8
3
 10
124.7639001326969
 20
190.8021761158609
 30
0.0
 11
124.7759256616588
 21
190.78413782241819
 31
0.0
  0
LINE
  5
F7C8
  8
3
 10
124.7759256616588
 20
190.78413782241819
 30
0.0
 11
124.7879511906205
 21
190.76008676449459
 31
0.0
  0
LINE
  5
F7C9
  8
3
 10
124.7879511906205
 20
190.76008676449459
 30
0.0
 11
124.8059894840632
 21
190.74204847105179
 31
0.0
  0
LINE
  5
F7CA
  8
3
 10
124.8059894840632
 20
190.74204847105179
 30
0.0
 11
124.8300405419869
 21
190.69394635520459
 31
0.0
  0
LINE
  5
F7CB
  8
3
 10
124.8300405419869
 20
190.69394635520459
 30
0.0
 11
124.8360533064678
 21
190.6759080617619
 31
0.0
  0
LINE
  5
F7CC
  8
3
 10
124.8480788354296
 20
190.65786976831919
 30
0.0
 11
124.8601043643914
 21
190.6398314748765
 31
0.0
  0
LINE
  5
F7CD
  8
3
 10
125.0585255922612
 20
189.9122869726869
 30
0.0
 11
125.0645383567422
 21
188.7999255437195
 31
0.0
  0
LINE
  5
F7CE
  8
3
 10
123.9942662791411
 20
189.18474247049741
 30
0.0
 11
124.0002790436219
 21
189.2809467021919
 31
0.0
  0
LINE
  5
F7CF
  8
3
 10
124.0062918081029
 20
188.9021425398949
 30
0.0
 11
123.9942662791411
 21
188.99233400710841
 31
0.0
  0
LINE
  5
F7D0
  8
3
 10
123.9942662791411
 20
189.0885382388029
 30
0.0
 11
123.9942662791411
 21
189.18474247049741
 31
0.0
  0
LINE
  5
F7D1
  8
3
 10
123.9942662791411
 20
188.99233400710841
 30
0.0
 11
123.9942662791411
 21
189.0885382388029
 31
0.0
  0
LINE
  5
F7D2
  8
3
 10
124.0243301015456
 20
188.8119510726813
 30
0.0
 11
124.0062918081029
 21
188.9021425398949
 31
0.0
  0
LINE
  5
F7D3
  8
3
 10
124.0002790436219
 20
189.37715093388641
 30
0.0
 11
124.0062918081029
 21
189.4733551655809
 31
0.0
  0
LINE
  5
F7D4
  8
3
 10
124.0002790436219
 20
189.2809467021919
 30
0.0
 11
124.0002790436219
 21
189.37715093388641
 31
0.0
  0
LINE
  5
F7D5
  8
3
 10
123.6335004102868
 20
188.66163196065861
 30
0.0
 11
123.8860365184847
 21
188.65561919617781
 31
0.0
  0
LINE
  5
F7D6
  8
3
 10
123.7838195223094
 20
188.93220636229941
 30
0.0
 11
123.741730170943
 21
188.92619359781841
 31
0.0
  0
LINE
  5
F7D7
  8
3
 10
123.741730170943
 20
188.92619359781841
 30
0.0
 11
123.6996408195766
 21
188.9141680688567
 31
0.0
  0
LINE
  5
F7D8
  8
3
 10
123.6996408195766
 20
188.9141680688567
 30
0.0
 11
123.6575514682105
 21
188.90815530437581
 31
0.0
  0
LINE
  5
F7D9
  8
3
 10
123.6575514682105
 20
188.90815530437581
 30
0.0
 11
123.6154621168441
 21
188.90815530437581
 31
0.0
  0
LINE
  5
F7DA
  8
3
 10
123.6154621168441
 20
188.90815530437581
 30
0.0
 11
123.5673600009968
 21
188.9021425398949
 31
0.0
  0
LINE
  5
F7DB
  8
3
 10
123.5673600009968
 20
188.9021425398949
 30
0.0
 11
123.5252706496305
 21
188.9021425398949
 31
0.0
  0
LINE
  5
F7DC
  8
3
 10
123.8860365184847
 20
188.65561919617781
 30
0.0
 11
124.1385726266829
 21
188.6496064316969
 31
0.0
  0
LINE
  5
F7DD
  8
3
 10
124.0002790436219
 20
189.85817209235881
 30
0.0
 11
123.9882535146602
 21
189.9483635595723
 31
0.0
  0
LINE
  5
F7DE
  8
3
 10
124.0123045725838
 20
189.57557216175621
 30
0.0
 11
124.0123045725838
 21
189.6717763934507
 31
0.0
  0
LINE
  5
F7DF
  8
3
 10
124.0123045725838
 20
189.6717763934507
 30
0.0
 11
124.0123045725838
 21
189.7619678606643
 31
0.0
  0
LINE
  5
F7E0
  8
3
 10
124.0123045725838
 20
189.7619678606643
 30
0.0
 11
124.0002790436219
 21
189.85817209235881
 31
0.0
  0
LINE
  5
F7E1
  8
3
 10
123.9882535146602
 20
189.9483635595723
 30
0.0
 11
123.9642024567365
 21
190.03254226230499
 31
0.0
  0
LINE
  5
F7E2
  8
3
 10
123.8259088736757
 20
190.26102731257939
 30
0.0
 11
123.8198961091949
 21
190.26102731257939
 31
0.0
  0
LINE
  5
F7E3
  8
3
 10
123.8198961091949
 20
190.26102731257939
 30
0.0
 11
123.8138833447139
 21
190.26102731257939
 31
0.0
  0
LINE
  5
F7E4
  8
3
 10
123.8138833447139
 20
190.26102731257939
 30
0.0
 11
123.807870580233
 21
190.26102731257939
 31
0.0
  0
LINE
  5
F7E5
  8
3
 10
123.807870580233
 20
190.26102731257939
 30
0.0
 11
123.8018578157521
 21
190.26102731257939
 31
0.0
  0
LINE
  5
F7E6
  8
3
 10
123.8018578157521
 20
190.26102731257939
 30
0.0
 11
123.7958450512712
 21
190.26102731257939
 31
0.0
  0
LINE
  5
F7E7
  8
3
 10
123.7958450512712
 20
190.26102731257939
 30
0.0
 11
123.7958450512712
 21
190.25501454809859
 31
0.0
  0
LINE
  5
F7E8
  8
3
 10
123.7958450512712
 20
190.25501454809859
 30
0.0
 11
123.7898322867904
 21
190.25501454809859
 31
0.0
  0
LINE
  5
F7E9
  8
3
 10
123.7898322867904
 20
190.25501454809859
 30
0.0
 11
123.7898322867904
 21
190.24900178361759
 31
0.0
  0
LINE
  5
F7EA
  8
3
 10
123.9281258698512
 20
190.1167209650377
 30
0.0
 11
123.8259088736757
 21
190.26102731257939
 31
0.0
  0
LINE
  5
F7EB
  8
3
 10
123.9642024567365
 20
190.03254226230499
 30
0.0
 11
123.9281258698512
 21
190.1167209650377
 31
0.0
  0
LINE
  5
F7EC
  8
3
 10
124.0062918081029
 20
189.4733551655809
 30
0.0
 11
124.0123045725838
 21
189.57557216175621
 31
0.0
  0
LINE
  5
F7ED
  8
3
 10
123.7898322867904
 20
190.24900178361759
 30
0.0
 11
123.7838195223094
 21
188.93220636229941
 31
0.0
  0
LINE
  5
F7EE
  8
3
 10
125.0645383567422
 20
188.7999255437195
 30
0.0
 11
124.0243301015456
 21
188.8119510726813
 31
0.0
  0
LINE
  5
F7EF
  8
3
 10
124.1385726266829
 20
188.6496064316969
 30
0.0
 11
124.4091470283235
 21
188.63758090273501
 31
0.0
  0
LINE
  5
F7F0
  8
3
 10
124.2047130359727
 20
191.3072483322569
 30
0.0
 11
124.2227513294154
 21
191.2952228032951
 31
0.0
  0
LINE
  5
F7F1
  8
3
 10
124.18667474253
 20
191.31927386121879
 30
0.0
 11
124.2047130359727
 21
191.3072483322569
 31
0.0
  0
LINE
  5
F7F2
  8
3
 10
124.1505981556446
 20
191.3433249191423
 30
0.0
 11
124.1686364490872
 21
191.3312993901805
 31
0.0
  0
LINE
  5
F7F3
  8
3
 10
124.1686364490872
 20
191.3312993901805
 30
0.0
 11
124.18667474253
 21
191.31927386121879
 31
0.0
  0
LINE
  5
F7F4
  8
3
 10
124.2227513294154
 20
191.2952228032951
 30
0.0
 11
124.2407896228583
 21
191.2831972743333
 31
0.0
  0
LINE
  5
F7F5
  8
3
 10
124.2407896228583
 20
191.2831972743333
 30
0.0
 11
124.25281515182
 21
191.2711717453715
 31
0.0
  0
LINE
  5
F7F6
  8
3
 10
124.25281515182
 20
191.2711717453715
 30
0.0
 11
124.2708534452627
 21
191.2591462164097
 31
0.0
  0
LINE
  5
F7F7
  8
3
 10
124.2708534452627
 20
191.2591462164097
 30
0.0
 11
124.2888917387054
 21
191.2471206874479
 31
0.0
  0
LINE
  5
F7F8
  8
3
 10
124.2888917387054
 20
191.2471206874479
 30
0.0
 11
124.3069300321481
 21
191.2350951584861
 31
0.0
  0
LINE
  5
F7F9
  8
3
 10
124.3069300321481
 20
191.2350951584861
 30
0.0
 11
124.3189555611099
 21
191.22908239400519
 31
0.0
  0
LINE
  5
F7FA
  8
3
 10
124.3189555611099
 20
191.22908239400519
 30
0.0
 11
124.3369938545527
 21
191.21705686504339
 31
0.0
  0
LINE
  5
F7FB
  8
3
 10
124.3369938545527
 20
191.21705686504339
 30
0.0
 11
124.3550321479954
 21
191.2050313360815
 31
0.0
  0
LINE
  5
F7FC
  8
3
 10
124.3550321479954
 20
191.2050313360815
 30
0.0
 11
124.3670576769571
 21
191.1930058071197
 31
0.0
  0
LINE
  5
F7FD
  8
3
 10
124.3670576769571
 20
191.1930058071197
 30
0.0
 11
124.3850959703999
 21
191.1869930426389
 31
0.0
  0
LINE
  5
F7FE
  8
3
 10
123.9642024567365
 20
191.4214908573941
 30
0.0
 11
124.1505981556446
 21
191.3433249191423
 31
0.0
  0
LINE
  5
F7FF
  8
3
 10
123.7778067578285
 20
191.4756057377223
 30
0.0
 11
123.867998225042
 21
191.4515546797987
 31
0.0
  0
LINE
  5
F800
  8
3
 10
123.5793855299585
 20
191.5116823246077
 30
0.0
 11
123.675589761653
 21
191.4996567956459
 31
0.0
  0
LINE
  5
F801
  8
3
 10
123.675589761653
 20
191.4996567956459
 30
0.0
 11
123.7778067578285
 21
191.4756057377223
 31
0.0
  0
LINE
  5
F802
  8
3
 10
123.867998225042
 20
191.4515546797987
 30
0.0
 11
123.9642024567365
 21
191.4214908573941
 31
0.0
  0
LINE
  5
F803
  8
3
 10
124.3850959703999
 20
191.1869930426389
 30
0.0
 11
124.4271853217663
 21
191.16294198471519
 31
0.0
  0
LINE
  5
F804
  8
3
 10
124.4271853217663
 20
191.16294198471519
 30
0.0
 11
124.6195937851553
 21
190.9885718147689
 31
0.0
  0
LINE
  5
F805
  8
3
 10
123.1645047807761
 20
188.6435936672159
 30
0.0
 11
123.3990025955314
 21
188.65561919617781
 31
0.0
  0
LINE
  5
F806
  8
3
 10
123.0743133135625
 20
188.9742957136657
 30
0.0
 11
123.0683005490817
 21
189.05847441639841
 31
0.0
  0
LINE
  5
F807
  8
3
 10
123.0683005490817
 20
189.05847441639841
 30
0.0
 11
123.0683005490817
 21
189.14265311913101
 31
0.0
  0
LINE
  5
F808
  8
3
 10
123.0683005490817
 20
189.2328445863447
 30
0.0
 11
123.0683005490817
 21
189.3170232890773
 31
0.0
  0
LINE
  5
F809
  8
3
 10
123.0683005490817
 20
189.3170232890773
 30
0.0
 11
123.0683005490817
 21
189.4072147562909
 31
0.0
  0
LINE
  5
F80A
  8
3
 10
123.0683005490817
 20
189.14265311913101
 30
0.0
 11
123.0683005490817
 21
189.2328445863447
 31
0.0
  0
LINE
  5
F80B
  8
3
 10
123.1645047807761
 20
188.9021425398949
 30
0.0
 11
123.0803260780435
 21
188.89011701093301
 31
0.0
  0
LINE
  5
F80C
  8
3
 10
123.0803260780435
 20
188.89011701093301
 30
0.0
 11
123.0743133135625
 21
188.9742957136657
 31
0.0
  0
LINE
  5
F80D
  8
3
 10
123.3869770665697
 20
188.9021425398949
 30
0.0
 11
123.3448877152033
 21
188.9021425398949
 31
0.0
  0
LINE
  5
F80E
  8
3
 10
123.3448877152033
 20
188.9021425398949
 30
0.0
 11
123.2967855993561
 21
188.9021425398949
 31
0.0
  0
LINE
  5
F80F
  8
3
 10
123.4771685337832
 20
188.9021425398949
 30
0.0
 11
123.435079182417
 21
188.9021425398949
 31
0.0
  0
LINE
  5
F810
  8
3
 10
123.435079182417
 20
188.9021425398949
 30
0.0
 11
123.3869770665697
 21
188.9021425398949
 31
0.0
  0
LINE
  5
F811
  8
3
 10
123.2967855993561
 20
188.9021425398949
 30
0.0
 11
123.2486834835088
 21
188.9021425398949
 31
0.0
  0
LINE
  5
F812
  8
3
 10
123.2065941321425
 20
188.9021425398949
 30
0.0
 11
123.1645047807761
 21
188.9021425398949
 31
0.0
  0
LINE
  5
F813
  8
3
 10
123.2486834835088
 20
188.9021425398949
 30
0.0
 11
123.2065941321425
 21
188.9021425398949
 31
0.0
  0
LINE
  5
F814
  8
3
 10
122.7075346802273
 20
188.5834660224069
 30
0.0
 11
122.9360197305018
 21
188.6195426092923
 31
0.0
  0
LINE
  5
F815
  8
3
 10
122.7857006184792
 20
188.6435936672159
 30
0.0
 11
122.7436112671128
 21
188.66163196065861
 31
0.0
  0
LINE
  5
F816
  8
3
 10
122.6474070354183
 20
188.67967025410141
 30
0.0
 11
122.5993049195711
 21
188.69169578306321
 31
0.0
  0
LINE
  5
F817
  8
3
 10
122.6955091512656
 20
188.6736574896205
 30
0.0
 11
122.6474070354183
 21
188.67967025410141
 31
0.0
  0
LINE
  5
F818
  8
3
 10
122.7436112671128
 20
188.66163196065861
 30
0.0
 11
122.6955091512656
 21
188.6736574896205
 31
0.0
  0
LINE
  5
F819
  8
3
 10
122.7676623250364
 20
188.94423189126121
 30
0.0
 11
122.7736750895173
 21
188.8480276595667
 31
0.0
  0
LINE
  5
F81A
  8
3
 10
122.7736750895173
 20
188.8480276595667
 30
0.0
 11
122.7796878539982
 21
188.76384895683401
 31
0.0
  0
LINE
  5
F81B
  8
3
 10
122.7556367960746
 20
189.16069141257381
 30
0.0
 11
122.7616495605556
 21
189.04644888743661
 31
0.0
  0
LINE
  5
F81C
  8
3
 10
122.7496240315937
 20
189.2809467021919
 30
0.0
 11
122.7556367960746
 21
189.16069141257381
 31
0.0
  0
LINE
  5
F81D
  8
3
 10
122.7496240315937
 20
189.40120199181001
 30
0.0
 11
122.7496240315937
 21
189.2809467021919
 31
0.0
  0
LINE
  5
F81E
  8
3
 10
122.7616495605556
 20
189.04644888743661
 30
0.0
 11
122.7676623250364
 21
188.94423189126121
 31
0.0
  0
LINE
  5
F81F
  8
3
 10
122.7796878539982
 20
188.76384895683401
 30
0.0
 11
122.7857006184792
 21
188.6435936672159
 31
0.0
  0
LINE
  5
F820
  8
3
 10
122.9360197305018
 20
188.6195426092923
 30
0.0
 11
123.1645047807761
 21
188.6435936672159
 31
0.0
  0
LINE
  5
F821
  8
3
 10
123.0683005490817
 20
189.6777891579317
 30
0.0
 11
123.0743133135625
 21
189.76798062514521
 31
0.0
  0
LINE
  5
F822
  8
3
 10
123.0683005490817
 20
189.4974062235045
 30
0.0
 11
123.0683005490817
 21
189.58759769071801
 31
0.0
  0
LINE
  5
F823
  8
3
 10
123.0683005490817
 20
189.58759769071801
 30
0.0
 11
123.0683005490817
 21
189.6777891579317
 31
0.0
  0
LINE
  5
F824
  8
3
 10
123.0743133135625
 20
189.9483635595723
 30
0.0
 11
123.0743133135625
 21
190.03254226230499
 31
0.0
  0
LINE
  5
F825
  8
3
 10
123.0743133135625
 20
190.03254226230499
 30
0.0
 11
123.0743133135625
 21
190.12273372951859
 31
0.0
  0
LINE
  5
F826
  8
3
 10
123.0743133135625
 20
189.85817209235881
 30
0.0
 11
123.0743133135625
 21
189.9483635595723
 31
0.0
  0
LINE
  5
F827
  8
3
 10
123.0743133135625
 20
189.76798062514521
 30
0.0
 11
123.0743133135625
 21
189.85817209235881
 31
0.0
  0
LINE
  5
F828
  8
3
 10
123.0683005490817
 20
190.29109113498399
 30
0.0
 11
123.0622877846007
 21
190.3031166639457
 31
0.0
  0
LINE
  5
F829
  8
3
 10
123.0622877846007
 20
190.3031166639457
 30
0.0
 11
123.0562750201198
 21
190.31514219290759
 31
0.0
  0
LINE
  5
F82A
  8
3
 10
123.0562750201198
 20
190.31514219290759
 30
0.0
 11
123.0562750201198
 21
190.3211549573885
 31
0.0
  0
LINE
  5
F82B
  8
3
 10
123.0562750201198
 20
190.3211549573885
 30
0.0
 11
123.050262255639
 21
190.3211549573885
 31
0.0
  0
LINE
  5
F82C
  8
3
 10
123.050262255639
 20
190.3211549573885
 30
0.0
 11
123.0382367266772
 21
190.32716772186939
 31
0.0
  0
LINE
  5
F82D
  8
3
 10
123.0382367266772
 20
190.32716772186939
 30
0.0
 11
123.0322239621961
 21
190.32716772186939
 31
0.0
  0
LINE
  5
F82E
  8
3
 10
123.0743133135625
 20
190.12273372951859
 30
0.0
 11
123.0683005490817
 21
190.29109113498399
 31
0.0
  0
LINE
  5
F82F
  8
3
 10
122.7917133829601
 20
189.89424867924421
 30
0.0
 11
122.7676623250364
 21
189.7739933896261
 31
0.0
  0
LINE
  5
F830
  8
3
 10
122.7676623250364
 20
189.7739933896261
 30
0.0
 11
122.7556367960746
 21
189.65373810000801
 31
0.0
  0
LINE
  5
F831
  8
3
 10
122.7556367960746
 20
189.65373810000801
 30
0.0
 11
122.7496240315937
 21
189.52747004590901
 31
0.0
  0
LINE
  5
F832
  8
3
 10
122.8157644408837
 20
190.00849120438139
 30
0.0
 11
122.7917133829601
 21
189.89424867924421
 31
0.0
  0
LINE
  5
F833
  8
3
 10
122.85785379225
 20
190.1167209650377
 30
0.0
 11
122.8157644408837
 21
190.00849120438139
 31
0.0
  0
LINE
  5
F834
  8
3
 10
122.9059559080972
 20
190.2129251967321
 30
0.0
 11
122.85785379225
 21
190.1167209650377
 31
0.0
  0
LINE
  5
F835
  8
3
 10
123.0262111977153
 20
190.32716772186939
 30
0.0
 11
123.0201984332344
 21
190.3211549573885
 31
0.0
  0
LINE
  5
F836
  8
3
 10
123.0201984332344
 20
190.3211549573885
 30
0.0
 11
123.0081729042726
 21
190.3211549573885
 31
0.0
  0
LINE
  5
F837
  8
3
 10
123.0081729042726
 20
190.3211549573885
 30
0.0
 11
123.0021601397917
 21
190.31514219290759
 31
0.0
  0
LINE
  5
F838
  8
3
 10
123.0021601397917
 20
190.31514219290759
 30
0.0
 11
122.9961473753108
 21
190.31514219290759
 31
0.0
  0
LINE
  5
F839
  8
3
 10
122.9961473753108
 20
190.31514219290759
 30
0.0
 11
122.9901346108298
 21
190.3091294284267
 31
0.0
  0
LINE
  5
F83A
  8
3
 10
122.9901346108298
 20
190.3091294284267
 30
0.0
 11
122.9781090818681
 21
190.3031166639457
 31
0.0
  0
LINE
  5
F83B
  8
3
 10
122.9781090818681
 20
190.3031166639457
 30
0.0
 11
122.9720963173873
 21
190.3031166639457
 31
0.0
  0
LINE
  5
F83C
  8
3
 10
122.9720963173873
 20
190.3031166639457
 30
0.0
 11
122.9660835529063
 21
190.29109113498399
 31
0.0
  0
LINE
  5
F83D
  8
3
 10
122.9660835529063
 20
190.29109113498399
 30
0.0
 11
122.9059559080972
 21
190.2129251967321
 31
0.0
  0
LINE
  5
F83E
  8
3
 10
123.0322239621961
 20
190.32716772186939
 30
0.0
 11
123.0262111977153
 21
190.32716772186939
 31
0.0
  0
LINE
  5
F83F
  8
3
 10
122.7496240315937
 20
189.52747004590901
 30
0.0
 11
122.7496240315937
 21
189.40120199181001
 31
0.0
  0
LINE
  5
F840
  8
3
 10
123.0683005490817
 20
189.4072147562909
 30
0.0
 11
123.0683005490817
 21
189.4974062235045
 31
0.0
  0
LINE
  5
F841
  8
3
 10
122.5512028037239
 20
188.6977085475441
 30
0.0
 11
122.4970879233957
 21
188.70372131202501
 31
0.0
  0
LINE
  5
F842
  8
3
 10
122.4970879233957
 20
188.70372131202501
 30
0.0
 11
122.4429730430675
 21
188.71574684098681
 31
0.0
  0
LINE
  5
F843
  8
3
 10
122.4429730430675
 20
188.71574684098681
 30
0.0
 11
122.3828453982586
 21
188.7217596054677
 31
0.0
  0
LINE
  5
F844
  8
3
 10
122.2505645796786
 20
188.4632107327887
 30
0.0
 11
122.4790496299529
 21
188.52935114207881
 31
0.0
  0
LINE
  5
F845
  8
3
 10
122.3287305179303
 20
188.72777236994861
 30
0.0
 11
122.2686028731214
 21
188.7337851344295
 31
0.0
  0
LINE
  5
F846
  8
3
 10
122.2686028731214
 20
188.7337851344295
 30
0.0
 11
122.2144879927931
 21
188.73979789891041
 31
0.0
  0
LINE
  5
F847
  8
3
 10
122.2144879927931
 20
188.73979789891041
 30
0.0
 11
122.1543603479841
 21
188.75182342787221
 31
0.0
  0
LINE
  5
F848
  8
3
 10
122.3828453982586
 20
188.7217596054677
 30
0.0
 11
122.3287305179303
 21
188.72777236994861
 31
0.0
  0
LINE
  5
F849
  8
3
 10
121.70941577639709
 20
188.19263633114801
 30
0.0
 11
121.70941577639709
 21
188.19864909562901
 31
0.0
  0
LINE
  5
F84A
  8
3
 10
121.70941577639709
 20
188.19864909562901
 30
0.0
 11
121.71542854087799
 21
188.20466186010981
 31
0.0
  0
LINE
  5
F84B
  8
3
 10
121.71542854087799
 20
188.20466186010981
 30
0.0
 11
121.72144130535889
 21
188.20466186010981
 31
0.0
  0
LINE
  5
F84C
  8
3
 10
121.72144130535889
 20
188.20466186010981
 30
0.0
 11
121.72745406983969
 21
188.20466186010981
 31
0.0
  0
LINE
  5
F84D
  8
3
 10
121.72745406983969
 20
188.20466186010981
 30
0.0
 11
121.73346683432069
 21
188.21067462459069
 31
0.0
  0
LINE
  5
F84E
  8
3
 10
121.73346683432069
 20
188.21067462459069
 30
0.0
 11
121.73947959880169
 21
188.21067462459069
 31
0.0
  0
LINE
  5
F84F
  8
3
 10
121.73947959880169
 20
188.21067462459069
 30
0.0
 11
121.74549236328249
 21
188.21668738907169
 31
0.0
  0
LINE
  5
F850
  8
3
 10
121.74549236328249
 20
188.21668738907169
 30
0.0
 11
121.75150512776339
 21
188.21668738907169
 31
0.0
  0
LINE
  5
F851
  8
3
 10
121.75150512776339
 20
188.21668738907169
 30
0.0
 11
121.76353065672529
 21
188.21668738907169
 31
0.0
  0
LINE
  5
F852
  8
3
 10
121.76353065672529
 20
188.21668738907169
 30
0.0
 11
121.76353065672529
 21
188.22270015355249
 31
0.0
  0
LINE
  5
F853
  8
3
 10
121.76353065672529
 20
188.22270015355249
 30
0.0
 11
121.76353065672529
 21
188.22871291803341
 31
0.0
  0
LINE
  5
F854
  8
3
 10
121.76353065672529
 20
188.22871291803341
 30
0.0
 11
121.76353065672529
 21
188.23472568251441
 31
0.0
  0
LINE
  5
F855
  8
3
 10
121.76353065672529
 20
188.23472568251441
 30
0.0
 11
121.76954342120619
 21
188.23472568251441
 31
0.0
  0
LINE
  5
F856
  8
3
 10
121.76954342120619
 20
188.24073844699529
 30
0.0
 11
121.76954342120619
 21
188.24675121147621
 31
0.0
  0
LINE
  5
F857
  8
3
 10
121.76954342120619
 20
188.24675121147621
 30
0.0
 11
121.76954342120619
 21
188.25276397595709
 31
0.0
  0
LINE
  5
F858
  8
3
 10
121.76954342120619
 20
188.25276397595709
 30
0.0
 11
121.77555618568699
 21
188.25877674043801
 31
0.0
  0
LINE
  5
F859
  8
3
 10
121.77555618568699
 20
188.25877674043801
 30
0.0
 11
122.01606676492329
 21
188.37301926557521
 31
0.0
  0
LINE
  5
F85A
  8
3
 10
121.76954342120619
 20
188.23472568251441
 30
0.0
 11
121.76954342120619
 21
188.24073844699529
 31
0.0
  0
LINE
  5
F85B
  8
3
 10
122.10024546765599
 20
188.7578361923531
 30
0.0
 11
122.0461305873277
 21
188.76986172131501
 31
0.0
  0
LINE
  5
F85C
  8
3
 10
122.0461305873277
 20
188.76986172131501
 30
0.0
 11
121.94391359115239
 21
188.79391277923861
 31
0.0
  0
LINE
  5
F85D
  8
3
 10
121.94391359115239
 20
188.79391277923861
 30
0.0
 11
121.91986253322879
 21
188.8119510726813
 31
0.0
  0
LINE
  5
F85E
  8
3
 10
121.89581147530519
 20
188.8239766016431
 30
0.0
 11
121.87777318186239
 21
188.8360021306049
 31
0.0
  0
LINE
  5
F85F
  8
3
 10
121.87777318186239
 20
188.8360021306049
 30
0.0
 11
121.85973488841969
 21
188.85404042404761
 31
0.0
  0
LINE
  5
F860
  8
3
 10
121.85973488841969
 20
188.85404042404761
 30
0.0
 11
121.84169659497699
 21
188.8720787174903
 31
0.0
  0
LINE
  5
F861
  8
3
 10
121.84169659497699
 20
188.8720787174903
 30
0.0
 11
121.82365830153429
 21
188.89011701093301
 31
0.0
  0
LINE
  5
F862
  8
3
 10
121.82365830153429
 20
188.89011701093301
 30
0.0
 11
121.80562000809159
 21
188.90815530437581
 31
0.0
  0
LINE
  5
F863
  8
3
 10
121.80562000809159
 20
188.90815530437581
 30
0.0
 11
121.79359447912969
 21
188.93220636229941
 31
0.0
  0
LINE
  5
F864
  8
3
 10
121.79359447912969
 20
188.93220636229941
 30
0.0
 11
121.78156895016799
 21
188.9502446557421
 31
0.0
  0
LINE
  5
F865
  8
3
 10
121.78156895016799
 20
188.9502446557421
 30
0.0
 11
121.76954342120619
 21
188.9742957136657
 31
0.0
  0
LINE
  5
F866
  8
3
 10
121.91986253322879
 20
188.8119510726813
 30
0.0
 11
121.89581147530519
 21
188.8239766016431
 31
0.0
  0
LINE
  5
F867
  8
3
 10
121.72745406983969
 20
189.07049994536021
 30
0.0
 11
121.72144130535889
 21
189.11258929672661
 31
0.0
  0
LINE
  5
F868
  8
3
 10
121.71542854087799
 20
189.2208190573829
 30
0.0
 11
121.70941577639709
 21
189.3290488180391
 31
0.0
  0
LINE
  5
F869
  8
3
 10
121.70941577639709
 20
189.3290488180391
 30
0.0
 11
121.70941577639709
 21
189.43727857869541
 31
0.0
  0
LINE
  5
F86A
  8
3
 10
121.72144130535889
 20
189.11258929672661
 30
0.0
 11
121.71542854087799
 21
189.2208190573829
 31
0.0
  0
LINE
  5
F86B
  8
3
 10
121.75751789224429
 20
188.9983467715893
 30
0.0
 11
121.74549236328249
 21
189.02239782951301
 31
0.0
  0
LINE
  5
F86C
  8
3
 10
121.73947959880169
 20
189.04644888743661
 30
0.0
 11
121.72745406983969
 21
189.07049994536021
 31
0.0
  0
LINE
  5
F86D
  8
3
 10
121.74549236328249
 20
189.02239782951301
 30
0.0
 11
121.73947959880169
 21
189.04644888743661
 31
0.0
  0
LINE
  5
F86E
  8
3
 10
121.76954342120619
 20
188.9742957136657
 30
0.0
 11
121.75751789224429
 21
188.9983467715893
 31
0.0
  0
LINE
  5
F86F
  8
3
 10
122.01606676492329
 20
188.37301926557521
 30
0.0
 11
122.2505645796786
 21
188.4632107327887
 31
0.0
  0
LINE
  5
F870
  8
3
 10
122.1543603479841
 20
188.75182342787221
 30
0.0
 11
122.10024546765599
 21
188.7578361923531
 31
0.0
  0
LINE
  5
F871
  8
3
 10
121.70340301191619
 20
189.5455083393517
 30
0.0
 11
121.70340301191619
 21
189.6477253355271
 31
0.0
  0
LINE
  5
F872
  8
3
 10
121.70340301191619
 20
189.6477253355271
 30
0.0
 11
121.70941577639709
 21
189.75595509618341
 31
0.0
  0
LINE
  5
F873
  8
3
 10
121.71542854087799
 20
189.8641848568397
 30
0.0
 11
121.72144130535889
 21
189.97241461749601
 31
0.0
  0
LINE
  5
F874
  8
3
 10
121.73346683432069
 20
190.07463161367139
 30
0.0
 11
121.75150512776339
 21
190.1768486098467
 31
0.0
  0
LINE
  5
F875
  8
3
 10
121.72144130535889
 20
189.97241461749601
 30
0.0
 11
121.73346683432069
 21
190.07463161367139
 31
0.0
  0
LINE
  5
F876
  8
3
 10
121.70941577639709
 20
189.75595509618341
 30
0.0
 11
121.71542854087799
 21
189.8641848568397
 31
0.0
  0
LINE
  5
F877
  8
3
 10
122.0341050583658
 20
190.83825270274639
 30
0.0
 11
122.05815611628969
 21
190.8743292896317
 31
0.0
  0
LINE
  5
F878
  8
3
 10
122.0882199386941
 20
190.9043931120363
 30
0.0
 11
122.1122709966178
 21
190.93445693444079
 31
0.0
  0
LINE
  5
F879
  8
3
 10
122.05815611628969
 20
190.8743292896317
 30
0.0
 11
122.0882199386941
 21
190.9043931120363
 31
0.0
  0
LINE
  5
F87A
  8
3
 10
121.83568383049619
 20
190.47748683389199
 30
0.0
 11
121.87176041738149
 21
190.56767830110559
 31
0.0
  0
LINE
  5
F87B
  8
3
 10
121.77555618568699
 20
190.27906560602219
 30
0.0
 11
121.79960724361059
 21
190.38128260219759
 31
0.0
  0
LINE
  5
F87C
  8
3
 10
121.79960724361059
 20
190.38128260219759
 30
0.0
 11
121.83568383049619
 21
190.47748683389199
 31
0.0
  0
LINE
  5
F87D
  8
3
 10
121.9739774135569
 20
190.74204847105179
 30
0.0
 11
121.9920157069996
 21
190.7781250579373
 31
0.0
  0
LINE
  5
F87E
  8
3
 10
121.9920157069996
 20
190.7781250579373
 30
0.0
 11
122.01606676492329
 21
190.80818888034179
 31
0.0
  0
LINE
  5
F87F
  8
3
 10
122.01606676492329
 20
190.80818888034179
 30
0.0
 11
122.0341050583658
 21
190.83825270274639
 31
0.0
  0
LINE
  5
F880
  8
3
 10
121.87176041738149
 20
190.56767830110559
 30
0.0
 11
121.9739774135569
 21
190.74204847105179
 31
0.0
  0
LINE
  5
F881
  8
3
 10
121.75150512776339
 20
190.1768486098467
 30
0.0
 11
121.77555618568699
 21
190.27906560602219
 31
0.0
  0
LINE
  5
F882
  8
3
 10
122.1122709966178
 20
190.93445693444079
 30
0.0
 11
122.1363220545413
 21
190.96452075684539
 31
0.0
  0
LINE
  5
F883
  8
3
 10
121.70941577639709
 20
189.43727857869541
 30
0.0
 11
121.70340301191619
 21
189.5455083393517
 31
0.0
  0
LINE
  5
F884
  8
3
 10
122.5993049195711
 20
188.69169578306321
 30
0.0
 11
122.5512028037239
 21
188.6977085475441
 31
0.0
  0
LINE
  5
F885
  8
3
 10
122.4790496299529
 20
188.52935114207881
 30
0.0
 11
122.7075346802273
 21
188.5834660224069
 31
0.0
  0
LINE
  5
F886
  8
3
 10
123.0923516070053
 20
191.4996567956459
 30
0.0
 11
123.1885558386998
 21
191.51769508908859
 31
0.0
  0
LINE
  5
F887
  8
3
 10
123.3869770665697
 20
191.5237078535695
 30
0.0
 11
123.4831812982642
 21
191.5237078535695
 31
0.0
  0
LINE
  5
F888
  8
3
 10
123.2847600703943
 20
191.5237078535695
 30
0.0
 11
123.3869770665697
 21
191.5237078535695
 31
0.0
  0
LINE
  5
F889
  8
3
 10
123.1885558386998
 20
191.51769508908859
 30
0.0
 11
123.2847600703943
 21
191.5237078535695
 31
0.0
  0
LINE
  5
F88A
  8
3
 10
122.8999431436163
 20
191.45756744427959
 30
0.0
 11
122.9901346108298
 21
191.48161850220319
 31
0.0
  0
LINE
  5
F88B
  8
3
 10
122.7135474447083
 20
191.39142703498959
 30
0.0
 11
122.8037389119219
 21
191.42750362187499
 31
0.0
  0
LINE
  5
F88C
  8
3
 10
122.8037389119219
 20
191.42750362187499
 30
0.0
 11
122.8999431436163
 21
191.45756744427959
 31
0.0
  0
LINE
  5
F88D
  8
3
 10
122.5932921550902
 20
191.32528662569959
 30
0.0
 11
122.6233559774946
 21
191.3433249191423
 31
0.0
  0
LINE
  5
F88E
  8
3
 10
122.5812666261283
 20
191.31927386121879
 30
0.0
 11
122.5932921550902
 21
191.32528662569959
 31
0.0
  0
LINE
  5
F88F
  8
3
 10
122.6233559774946
 20
191.3433249191423
 30
0.0
 11
122.7135474447083
 21
191.39142703498959
 31
0.0
  0
LINE
  5
F890
  8
3
 10
122.9901346108298
 20
191.48161850220319
 30
0.0
 11
123.0923516070053
 21
191.4996567956459
 31
0.0
  0
LINE
  5
F891
  8
3
 10
122.1663858769459
 20
190.99458457924979
 30
0.0
 11
122.1904369348694
 21
191.02464840165439
 31
0.0
  0
LINE
  5
F892
  8
3
 10
122.1904369348694
 20
191.02464840165439
 30
0.0
 11
122.220500757274
 21
191.0547122240589
 31
0.0
  0
LINE
  5
F893
  8
3
 10
122.220500757274
 20
191.0547122240589
 30
0.0
 11
122.2505645796786
 21
191.08477604646339
 31
0.0
  0
LINE
  5
F894
  8
3
 10
122.2505645796786
 20
191.08477604646339
 30
0.0
 11
122.2806284020831
 21
191.1088271043871
 31
0.0
  0
LINE
  5
F895
  8
3
 10
122.5331645102811
 20
191.2952228032951
 30
0.0
 11
122.5512028037239
 21
191.3012355677761
 31
0.0
  0
LINE
  5
F896
  8
3
 10
122.3106922244876
 20
191.1328781623107
 30
0.0
 11
122.3407560468922
 21
191.1569292202343
 31
0.0
  0
LINE
  5
F897
  8
3
 10
122.3407560468922
 20
191.1569292202343
 30
0.0
 11
122.4068964561821
 21
191.1930058071197
 31
0.0
  0
LINE
  5
F898
  8
3
 10
122.4068964561821
 20
191.1930058071197
 30
0.0
 11
122.412909220663
 21
191.2110441005625
 31
0.0
  0
LINE
  5
F899
  8
3
 10
122.412909220663
 20
191.2110441005625
 30
0.0
 11
122.4249347496248
 21
191.2230696295243
 31
0.0
  0
LINE
  5
F89A
  8
3
 10
122.4249347496248
 20
191.2230696295243
 30
0.0
 11
122.4309475141057
 21
191.22908239400519
 31
0.0
  0
LINE
  5
F89B
  8
3
 10
122.4309475141057
 20
191.22908239400519
 30
0.0
 11
122.4489858075485
 21
191.24110792296699
 31
0.0
  0
LINE
  5
F89C
  8
3
 10
122.4489858075485
 20
191.24110792296699
 30
0.0
 11
122.4610113365103
 21
191.25313345192879
 31
0.0
  0
LINE
  5
F89D
  8
3
 10
122.4610113365103
 20
191.25313345192879
 30
0.0
 11
122.4730368654721
 21
191.2591462164097
 31
0.0
  0
LINE
  5
F89E
  8
3
 10
122.4730368654721
 20
191.2591462164097
 30
0.0
 11
122.4850623944339
 21
191.2711717453715
 31
0.0
  0
LINE
  5
F89F
  8
3
 10
122.4850623944339
 20
191.2711717453715
 30
0.0
 11
122.5031006878766
 21
191.27718450985239
 31
0.0
  0
LINE
  5
F8A0
  8
3
 10
122.5031006878766
 20
191.27718450985239
 30
0.0
 11
122.5211389813193
 21
191.2831972743333
 31
0.0
  0
LINE
  5
F8A1
  8
3
 10
122.5211389813193
 20
191.2831972743333
 30
0.0
 11
122.5331645102811
 21
191.2952228032951
 31
0.0
  0
LINE
  5
F8A2
  8
3
 10
122.5512028037239
 20
191.3012355677761
 30
0.0
 11
122.5632283326856
 21
191.3072483322569
 31
0.0
  0
LINE
  5
F8A3
  8
3
 10
122.2806284020831
 20
191.1088271043871
 30
0.0
 11
122.3106922244876
 21
191.1328781623107
 31
0.0
  0
LINE
  5
F8A4
  8
3
 10
122.5632283326856
 20
191.3072483322569
 30
0.0
 11
122.5812666261283
 21
191.31927386121879
 31
0.0
  0
LINE
  5
F8A5
  8
3
 10
122.1363220545413
 20
190.96452075684539
 30
0.0
 11
122.1663858769459
 21
190.99458457924979
 31
0.0
  0
LINE
  5
F8A6
  8
3
 10
123.4831812982642
 20
191.5237078535695
 30
0.0
 11
123.5793855299585
 21
191.5116823246077
 31
0.0
  0
LINE
  5
F8A7
  8
3
 10
123.3990025955314
 20
188.65561919617781
 30
0.0
 11
123.6335004102868
 21
188.66163196065861
 31
0.0
  0
LINE
  5
F8A8
  8
3
 10
123.5252706496305
 20
188.9021425398949
 30
0.0
 11
123.4771685337832
 21
188.9021425398949
 31
0.0
  0
LINE
  5
F8A9
  8
3
 10
121.70941577639709
 20
186.88185367431069
 30
0.0
 11
121.70941577639709
 21
188.19263633114801
 31
0.0
  0
LINE
  5
F8AA
  8
3
 10
125.35916381630651
 20
187.56730882513381
 30
0.0
 11
125.1126404725894
 21
187.56730882513381
 31
0.0
  0
LINE
  5
F8AB
  8
3
 10
126.0451934350738
 20
187.57332158961481
 30
0.0
 11
125.840759442723
 21
187.57332158961481
 31
0.0
  0
LINE
  5
F8AC
  8
3
 10
126.0451934350738
 20
187.57332158961481
 30
0.0
 11
126.0451934350738
 21
188.64801620927511
 31
0.0
  0
POINT
  5
F8AD
  8
0
 10
119.6603044550972
 20
218.4960700950455
 30
0.0
  0
LINE
  5
F8AE
  8
1
 10
134.0947079964061
 20
209.20452925019001
 30
0.0
 11
134.0947079964061
 21
194.7876109399011
 31
0.0
  0
LINE
  5
F8AF
  8
2
 10
134.09842344934441
 20
109.3548992192278
 30
0.0
 11
132.59842344934441
 21
109.3548992192278
 31
0.0
1001
GENIUS_GENBH_13
1002
{
1000
ML
1040
1.0000000099999991
1002
}
1002
{
1000
OE
1000
CON1
1002
}
1001
GENIUS_GENOREF_13
1005
0
  0
LINE
  5
F8B0
  8
2
 10
136.59470799640599
 20
106.91533496839889
 30
0.0
 11
131.59470799640599
 21
106.91533496839899
 31
0.0
  0
LINE
  5
F8B1
  8
2
 10
137.09470799640579
 20
104.05489921922759
 30
0.0
 11
131.09470799640579
 21
104.05489921922791
 31
0.0
  0
LINE
  5
F8B2
  8
2
 10
134.09470799640599
 20
108.35871064137309
 30
0.0
 11
131.59470799640599
 21
106.91533496839899
 31
0.0
  0
LINE
  5
F8B3
  8
2
 10
131.5947079964055
 20
95.430176894201111
 30
0.0
 11
136.5947079964055
 21
95.430176894200955
 31
0.0
  0
LINE
  5
F8B4
  8
2
 10
128.352138902283
 20
106.9033056929261
 30
0.0
 11
128.352138902283
 21
100.05489921922771
 31
0.0
  0
LINE
  5
F8B5
  8
2
 10
131.5947079964055
 20
95.430176894201111
 30
0.0
 11
131.5947079964059
 21
106.91533496839899
 31
0.0
  0
LINE
  5
F8B6
  8
2
 10
130.10213890228329
 20
100.05489921922771
 30
0.0
 11
128.352138902283
 21
100.05489921922771
 31
0.0
  0
LINE
  5
F8B7
  8
2
 10
130.10213890228329
 20
95.054899219227764
 30
0.0
 11
130.10213890228329
 21
100.05489921922771
 31
0.0
  0
LINE
  5
F8B8
  8
2
 10
131.09470799640579
 20
104.05489921922791
 30
0.0
 11
131.59470799640579
 21
105.05489921922781
 31
0.0
  0
LINE
  5
F8B9
  8
2
 10
131.5947079964055
 20
95.430176894201111
 30
0.0
 11
130.9447079964055
 21
95.054899219227863
 31
0.0
  0
LINE
  5
F8BA
  8
2
 10
131.0947079964055
 20
95.141501759606285
 30
0.0
 11
131.09470799640579
 21
104.05489921922791
 31
0.0
  0
LINE
  5
F8BB
  8
2
 10
131.6021389022828
 20
108.77969406779231
 30
0.0
 11
128.352138902283
 21
106.9033056929261
 31
0.0
1001
GENIUS_GENOREF_13
1005
0
  0
LINE
  5
F8BC
  8
2
 10
132.59842344934441
 20
109.3548992192278
 30
0.0
 11
131.6021389022828
 21
108.77969406779231
 31
0.0
1001
GENIUS_GENBH_13
1002
{
1000
ML
1040
1.0000000099999991
1002
}
1002
{
1000
OE
1000
CON1
1002
}
1001
GENIUS_GENOREF_13
1005
0
  0
LINE
  5
F8BD
  8
1
 10
134.0947079964061
 20
111.8548992192277
 30
0.0
 11
134.09470799640539
 21
92.554899219227764
 31
0.0
  0
LINE
  5
F8BE
  8
2
 10
136.5947079964055
 20
95.430176894200955
 30
0.0
 11
136.5947079964059
 21
106.91533496839889
 31
0.0
  0
LINE
  5
F8BF
  8
2
 10
139.8447079964059
 20
106.9033056929261
 30
0.0
 11
139.8447079964059
 21
100.05489921922771
 31
0.0
  0
LINE
  5
F8C0
  8
2
 10
137.09470799640579
 20
104.05489921922759
 30
0.0
 11
136.59470799640579
 21
105.05489921922771
 31
0.0
  0
LINE
  5
F8C1
  8
2
 10
136.5947079964055
 20
95.430176894200955
 30
0.0
 11
137.24470799640551
 21
95.054899219227636
 31
0.0
  0
LINE
  5
F8C2
  8
2
 10
137.0947079964055
 20
95.141501759606115
 30
0.0
 11
137.09470799640579
 21
104.05489921922759
 31
0.0
  0
LINE
  5
F8C3
  8
2
 10
138.0947079964055
 20
100.05489921922771
 30
0.0
 11
139.84470799640579
 21
100.05489921922771
 31
0.0
  0
LINE
  5
F8C4
  8
2
 10
138.0947079964055
 20
95.054899219227764
 30
0.0
 11
138.0947079964055
 21
100.05489921922771
 31
0.0
  0
LINE
  5
F8C5
  8
2
 10
136.59470799640599
 20
108.77969406779231
 30
0.0
 11
139.8447079964059
 21
106.9033056929261
 31
0.0
1001
GENIUS_GENOREF_13
1005
0
  0
LINE
  5
F8C6
  8
2
 10
134.09470799640599
 20
108.35871064137309
 30
0.0
 11
136.59470799640599
 21
106.91533496839889
 31
0.0
  0
LINE
  5
F8C7
  8
2
 10
135.59842344934441
 20
109.3548992192278
 30
0.0
 11
136.59470799640599
 21
108.77969406779231
 31
0.0
1001
GENIUS_GENBH_13
1002
{
1000
ML
1040
1.0000000099999991
1002
}
1002
{
1000
OE
1000
CON1
1002
}
1001
GENIUS_GENOREF_13
1005
0
  0
LINE
  5
F8C8
  8
2
 10
134.09842344934441
 20
109.3548992192278
 30
0.0
 11
135.59842344934441
 21
109.3548992192278
 31
0.0
1001
GENIUS_GENBH_13
1002
{
1000
ML
1040
1.0000000099999991
1002
}
1002
{
1000
OE
1000
CON1
1002
}
1001
GENIUS_GENOREF_13
1005
0
  0
LINE
  5
F8C9
  8
0
 10
251.2950274580293
 20
122.55489921922781
 30
0.0
 11
243.4518932724082
 21
122.55489921922781
 31
0.0
  0
LINE
  5
F8CA
  8
0
 10
219.17738589985919
 20
122.55489921922781
 30
0.0
 11
211.74601637306151
 21
122.55489921922781
 31
0.0
  0
LINE
  5
F8CB
  8
0
 10
208.74601637306151
 20
122.55489921922791
 30
0.0
 11
200.87548646765359
 21
122.55489921922781
 31
0.0
  0
ARC
  5
F8CC
  8
0
 10
200.87548646765359
 20
121.05489921922781
 30
0.0
 40
1.5
 50
90.0
 51
178.02147805127359
1001
GENIUS_GENODEF_13
1002
{
1000
HIER
1070
     0
1002
}
1002
{
1000
MANEDIT
1070
     0
1002
}
1002
{
1000
NOSEL
1070
     0
1002
}
1002
{
1000
BEHIND
1070
     0
1002
}
1002
{
1000
REACTOR
1002
}
1001
GENIUS_GENOBJ-N-FIL_13
1002
{
1000
OWNER
1000
GEN
1002
}
  0
ARC
  5
F8CD
  8
0
 10
211.74601637306151
 20
121.05489921922781
 30
0.0
 40
1.5
 50
90.0
 51
179.99999999999989
1001
GENIUS_GENODEF_13
1002
{
1000
HIER
1070
     0
1002
}
1002
{
1000
MANEDIT
1070
     0
1002
}
1002
{
1000
NOSEL
1070
     0
1002
}
1002
{
1000
BEHIND
1070
     0
1002
}
1002
{
1000
REACTOR
1002
}
1001
GENIUS_GENOBJ-N-FIL_13
1002
{
1000
OWNER
1000
GEN
1002
}
  0
ARC
  5
F8CE
  8
0
 10
208.74601637306151
 20
121.05489921922781
 30
0.0
 40
1.5
 50
360.0
 51
90.0
1001
GENIUS_GENODEF_13
1002
{
1000
HIER
1070
     0
1002
}
1002
{
1000
MANEDIT
1070
     0
1002
}
1002
{
1000
NOSEL
1070
     0
1002
}
1002
{
1000
BEHIND
1070
     0
1002
}
1002
{
1000
REACTOR
1002
}
1001
GENIUS_GENOBJ-N-FIL_13
1002
{
1000
OWNER
1000
GEN
1002
}
  0
LINE
  5
F8CF
  8
0
 10
240.4518932724082
 20
122.55489921922781
 30
0.0
 11
233.0205219155454
 21
122.55489921922781
 31
0.0
  0
LINE
  5
F8D0
  8
0
 10
230.0205219155454
 20
122.55489921922781
 30
0.0
 11
222.17738589985919
 21
122.55489921922781
 31
0.0
  0
ARC
  5
F8D1
  8
0
 10
219.17738589985919
 20
121.05489921922781
 30
0.0
 40
1.5
 50
0.0
 51
90.0
1001
GENIUS_GENODEF_13
1002
{
1000
HIER
1070
     0
1002
}
1002
{
1000
MANEDIT
1070
     0
1002
}
1002
{
1000
NOSEL
1070
     0
1002
}
1002
{
1000
BEHIND
1070
     0
1002
}
1002
{
1000
REACTOR
1002
}
1001
GENIUS_GENOBJ-N-FIL_13
1002
{
1000
OWNER
1000
GEN
1002
}
  0
ARC
  5
F8D2
  8
0
 10
222.17738589985919
 20
121.05489921922781
 30
0.0
 40
1.5
 50
90.0
 51
180.0
1001
GENIUS_GENODEF_13
1002
{
1000
HIER
1070
     0
1002
}
1002
{
1000
MANEDIT
1070
     0
1002
}
1002
{
1000
NOSEL
1070
     0
1002
}
1002
{
1000
BEHIND
1070
     0
1002
}
1002
{
1000
REACTOR
1002
}
1001
GENIUS_GENOBJ-N-FIL_13
1002
{
1000
OWNER
1000
GEN
1002
}
  0
ARC
  5
F8D3
  8
0
 10
230.0205219155454
 20
121.05489921922781
 30
0.0
 40
1.5
 50
0.0000000000000509
 51
90.0
1001
GENIUS_GENODEF_13
1002
{
1000
HIER
1070
     0
1002
}
1002
{
1000
MANEDIT
1070
     0
1002
}
1002
{
1000
NOSEL
1070
     0
1002
}
1002
{
1000
BEHIND
1070
     0
1002
}
1002
{
1000
REACTOR
1002
}
1001
GENIUS_GENOBJ-N-FIL_13
1002
{
1000
OWNER
1000
GEN
1002
}
  0
ARC
  5
F8D4
  8
0
 10
233.0205219155454
 20
121.05489921922781
 30
0.0
 40
1.5
 50
90.0
 51
180.0
1001
GENIUS_GENODEF_13
1002
{
1000
HIER
1070
     0
1002
}
1002
{
1000
MANEDIT
1070
     0
1002
}
1002
{
1000
NOSEL
1070
     0
1002
}
1002
{
1000
BEHIND
1070
     0
1002
}
1002
{
1000
REACTOR
1002
}
1001
GENIUS_GENOBJ-N-FIL_13
1002
{
1000
OWNER
1000
GEN
1002
}
  0
ARC
  5
F8D5
  8
0
 10
243.4518932724082
 20
121.05489921922781
 30
0.0
 40
1.5
 50
90.0
 51
179.99999999999989
1001
GENIUS_GENODEF_13
1002
{
1000
HIER
1070
     0
1002
}
1002
{
1000
MANEDIT
1070
     0
1002
}
1002
{
1000
NOSEL
1070
     0
1002
}
1002
{
1000
BEHIND
1070
     0
1002
}
1002
{
1000
REACTOR
1002
}
1001
GENIUS_GENOBJ-N-FIL_13
1002
{
1000
OWNER
1000
GEN
1002
}
  0
ARC
  5
F8D6
  8
0
 10
240.4518932724082
 20
121.05489921922781
 30
0.0
 40
1.5
 50
360.0
 51
90.0
1001
GENIUS_GENODEF_13
1002
{
1000
HIER
1070
     0
1002
}
1002
{
1000
MANEDIT
1070
     0
1002
}
1002
{
1000
NOSEL
1070
     0
1002
}
1002
{
1000
BEHIND
1070
     0
1002
}
1002
{
1000
REACTOR
1002
}
1001
GENIUS_GENOBJ-N-FIL_13
1002
{
1000
OWNER
1000
GEN
1002
}
  0
LINE
  5
F8D7
  8
0
 10
261.95967503402721
 20
122.55489921922771
 30
0.0
 11
254.29502745802921
 21
122.55489921922781
 31
0.0
  0
ARC
  5
F8D8
  8
0
 10
251.2950274580293
 20
121.05489921922781
 30
0.0
 40
1.5
 50
0.0
 51
90.0
1001
GENIUS_GENODEF_13
1002
{
1000
HIER
1070
     0
1002
}
1002
{
1000
MANEDIT
1070
     0
1002
}
1002
{
1000
NOSEL
1070
     0
1002
}
1002
{
1000
BEHIND
1070
     0
1002
}
1002
{
1000
REACTOR
1002
}
1001
GENIUS_GENOBJ-N-FIL_13
1002
{
1000
OWNER
1000
GEN
1002
}
  0
ARC
  5
F8D9
  8
0
 10
254.29502745802921
 20
121.05489921922781
 30
0.0
 40
1.5
 50
90.0
 51
180.0
1001
GENIUS_GENODEF_13
1002
{
1000
HIER
1070
     0
1002
}
1002
{
1000
MANEDIT
1070
     0
1002
}
1002
{
1000
NOSEL
1070
     0
1002
}
1002
{
1000
BEHIND
1070
     0
1002
}
1002
{
1000
REACTOR
1002
}
1001
GENIUS_GENOBJ-N-FIL_13
1002
{
1000
OWNER
1000
GEN
1002
}
  0
ARC
  5
F8DA
  8
0
 10
261.95967503402721
 20
121.05489921922781
 30
0.0
 40
1.5
 50
1.9785219487263921
 51
90.0
1001
GENIUS_GENODEF_13
1002
{
1000
HIER
1070
     0
1002
}
1002
{
1000
MANEDIT
1070
     0
1002
}
1002
{
1000
NOSEL
1070
     0
1002
}
1002
{
1000
BEHIND
1070
     0
1002
}
1002
{
1000
REACTOR
1002
}
1001
GENIUS_GENOBJ-N-FIL_13
1002
{
1000
OWNER
1000
GEN
1002
}
  0
LINE
  5
F8DB
  8
2
 10
39.039222513579347
 20
100.0548992192233
 30
0.0
 11
37.289222513579013
 21
100.0548992192233
 31
0.0
  0
LINE
  5
F8DC
  8
2
 10
40.539222513578828
 20
108.7796940677879
 30
0.0
 11
37.289222513578949
 21
106.90330569292171
 31
0.0
1001
GENIUS_GENOREF_13
1005
0
  0
LINE
  5
F8DD
  8
3
 10
26.894293627676099
 20
104.80357645952689
 30
0.0
 11
92.176720493602701
 21
104.80357645952699
 31
0.0
  0
LINE
  5
F8DE
  8
0
 10
90.077601343827013
 20
122.5548992192284
 30
0.0
 11
28.993412777453418
 21
122.55489921922781
 31
0.0
  0
LINE
  5
F8DF
  8
0
 10
92.535507060640285
 20
95.054899219227778
 30
0.0
 11
26.53550706063767
 21
95.054899219227778
 31
0.0
  0
LINE
  5
F8E0
  8
0
 10
306.60875162665769
 20
115.80489921922781
 30
0.0
 11
309.17723338999531
 21
121.13943826616
 31
0.0
  0
LINE
  5
F8E2
  8
0
 10
314.77769209487292
 20
122.0328514944874
 30
0.0
 11
343.03085042329542
 21
105.98230466121031
 31
0.0
  0
ARC
  5
F8E3
  8
0
 10
296.85875162665758
 20
115.80489921922781
 30
0.0
 40
6.75
 50
90.0
 51
270.0
  0
ARC
  5
F8E6
  8
0
 10
165.89470799640549
 20
115.80489921922781
 30
0.0
 40
6.75
 50
0.0
 51
180.0
  0
LINE
  5
F8E7
  8
0
 10
156.14470799640549
 20
115.80489921922781
 30
0.0
 11
153.57622623306781
 21
121.13943826616
 31
0.0
  0
LINE
  5
F8E8
  8
0
 10
345.35875162665758
 20
95.054899219227778
 30
0.0
 11
312.35875162665758
 21
95.054899219227778
 31
0.0
  0
LINE
  5
F8E9
  8
1
 10
165.89470799640549
 20
223.4372409708628
 30
0.0
 11
165.89470799640549
 21
147.55489921922819
 31
0.0
  0
LINE
  5
F8EA
  8
0
 10
173.39470799640549
 20
217.06469210811761
 30
0.0
 11
173.39470799640549
 21
153.86861895779049
 31
0.0
  0
LINE
  5
F8EB
  8
0
 10
172.67575043151319
 20
173.3146989381828
 30
0.0
 11
172.67575043151319
 21
165.76568202314979
 31
0.0
  0
LINE
  5
F8EC
  8
0
 10
159.76725685915059
 20
164.11862338785571
 30
0.0
 11
172.02215913366041
 21
164.11862338785571
 31
0.0
  0
LINE
  5
F8ED
  8
0
 10
159.76725685915059
 20
152.49607009504541
 30
0.0
 11
172.02215913366041
 21
152.49607009504541
 31
0.0
  0
LINE
  5
F8EE
  8
0
 10
151.69340014975779
 20
164.32450571726741
 30
0.0
 11
171.30320156876809
 21
164.32450571726741
 31
0.0
  0
LINE
  5
F8EF
  8
0
 10
156.20516590863721
 20
152.49607009504541
 30
0.0
 11
156.20516590863721
 21
164.32450571726741
 31
0.0
  0
LINE
  5
F8F0
  8
0
 10
158.39470799640549
 20
164.32450571726741
 30
0.0
 11
158.39470799640549
 21
153.86861895779049
 31
0.0
  0
ARC
  5
F8F1
  8
0
 10
159.76725685915059
 20
153.86861895779049
 30
0.0
 40
1.372548862745099
 50
180.0
 51
270.0
  0
ARC
  5
F8F2
  8
0
 10
159.76725685915059
 20
162.7460745251106
 30
0.0
 40
1.372548862745099
 50
90.0
 51
180.0
  0
ARC
  5
F8F3
  8
0
 10
172.02215913366041
 20
153.86861895779049
 30
0.0
 40
1.372548862745099
 50
270.0
 51
0.0
  0
ARC
  5
F8F4
  8
0
 10
172.02215913366041
 20
162.7460745251106
 30
0.0
 40
1.372548862745099
 50
0.0
 51
90.0
  0
ARC
  5
F8F5
  8
0
 10
171.30320156876809
 20
165.6970545800126
 30
0.0
 40
1.372548862745099
 50
270.0
 51
0.0
  0
LINE
  5
F8F6
  8
0
 10
159.76725685915059
 20
174.96175757347689
 30
0.0
 11
172.02215913366041
 21
174.9617575734768
 31
0.0
  0
LINE
  5
F8F7
  8
0
 10
151.69340014975779
 20
174.75587524406509
 30
0.0
 11
171.30320156876809
 21
174.75587524406509
 31
0.0
  0
LINE
  5
F8F8
  8
0
 10
159.76725685915059
 20
196.23626494602581
 30
0.0
 11
172.02215913366041
 21
196.23626494602581
 31
0.0
  0
LINE
  5
F8F9
  8
0
 10
159.76725685915059
 20
206.6676363028885
 30
0.0
 11
172.02215913366041
 21
206.66763630288861
 31
0.0
  0
LINE
  5
F8FA
  8
0
 10
159.76725685915059
 20
185.3931289303396
 30
0.0
 11
172.02215913366041
 21
185.39312893033949
 31
0.0
  0
LINE
  5
F8FB
  8
0
 10
151.69340014975779
 20
196.03038261661419
 30
0.0
 11
171.30320156876809
 21
196.03038261661419
 31
0.0
  0
LINE
  5
F8FC
  8
0
 10
151.69340014975779
 20
185.59901125975131
 30
0.0
 11
171.30320156876809
 21
185.59901125975131
 31
0.0
  0
LINE
  5
F8FD
  8
0
 10
151.69340014975779
 20
206.87351680223529
 30
0.0
 11
171.30320156876809
 21
206.87351680223529
 31
0.0
  0
LINE
  5
F8FE
  8
0
 10
159.70403620644791
 20
218.4960700950455
 30
0.0
 11
172.02215913366041
 21
218.4960700950455
 31
0.0
  0
LINE
  5
F8FF
  8
0
 10
151.69340014975779
 20
217.4764567669412
 30
0.0
 11
171.30320156876809
 21
217.4764567669412
 31
0.0
  0
LINE
  5
F900
  8
0
 10
158.39470799640549
 20
206.87351680223529
 30
0.0
 11
158.39470799640549
 21
196.03038261661419
 31
0.0
  0
LINE
  5
F901
  8
0
 10
156.20516590863721
 20
196.03038261661419
 30
0.0
 11
156.20516590863721
 21
206.87351680223529
 31
0.0
  0
LINE
  5
F902
  8
0
 10
156.20516590863721
 20
174.75587524406509
 30
0.0
 11
156.20516590863721
 21
185.59901125975131
 31
0.0
  0
LINE
  5
F903
  8
0
 10
158.39470799640549
 20
185.59901125975131
 30
0.0
 11
158.39470799640549
 21
174.75587524406509
 31
0.0
  0
ARC
  5
F904
  8
0
 10
159.76725685915059
 20
176.33430643622199
 30
0.0
 40
1.372548862745099
 50
180.0
 51
270.0
  0
ARC
  5
F905
  8
0
 10
159.76725685915059
 20
184.02058006759449
 30
0.0
 40
1.372548862745099
 50
90.0
 51
180.0
  0
ARC
  5
F906
  8
0
 10
159.76725685915059
 20
197.608813808771
 30
0.0
 40
1.372548862745099
 50
180.0
 51
270.0
  0
LINE
  5
F907
  8
0
 10
156.20516590863721
 20
217.4764567669412
 30
0.0
 11
156.20516590863721
 21
218.4960700950455
 31
0.0
  0
ARC
  5
F908
  8
0
 10
159.76725685915059
 20
205.29508744014359
 30
0.0
 40
1.372548862745099
 50
90.0
 51
180.0
  0
ARC
  5
F909
  8
0
 10
159.76290962098281
 20
217.0699800511623
 30
0.0
 40
1.4273047650034889
 50
92.36400488366408
 51
163.45393605027419
  0
ARC
  5
F90A
  8
0
 10
172.02215913366041
 20
176.33430643622199
 30
0.0
 40
1.372548862745099
 50
270.0
 51
0.0
  0
ARC
  5
F90B
  8
0
 10
171.30320156876809
 20
173.38332638131999
 30
0.0
 40
1.372548862745099
 50
359.99999000000003
 51
90.0
  0
ARC
  5
F90C
  8
0
 10
171.30320156876809
 20
194.657833753869
 30
0.0
 40
1.372548862745099
 50
359.99999000000003
 51
90.0
  0
LINE
  5
F90D
  8
0
 10
172.67575043151319
 20
194.65783351431409
 30
0.0
 11
172.67575043151319
 21
187.04018756563369
 31
0.0
  0
ARC
  5
F90E
  8
0
 10
172.02215913366041
 20
184.02058006759449
 30
0.0
 40
1.372548862745099
 50
0.0
 51
90.0
  0
ARC
  5
F90F
  8
0
 10
171.30320156876809
 20
187.04018756563369
 30
0.0
 40
1.372548862745099
 50
270.0
 51
0.0
  0
ARC
  5
F910
  8
0
 10
172.02215913366041
 20
197.608813808771
 30
0.0
 40
1.372548862745099
 50
270.0
 51
0.0
  0
LINE
  5
F911
  8
0
 10
172.67575043151319
 20
216.10390790419621
 30
0.0
 11
172.67575043151319
 21
208.31469310811761
 31
0.0
  0
ARC
  5
F912
  8
0
 10
172.02215913366041
 20
205.29508744014359
 30
0.0
 40
1.372548862745099
 50
0.0
 51
90.0
  0
ARC
  5
F913
  8
0
 10
171.30320156876809
 20
208.31469310811761
 30
0.0
 40
1.372548862745099
 50
270.0
 51
0.0
  0
ARC
  5
F914
  8
0
 10
171.30320156876809
 20
216.10390790419621
 30
0.0
 40
1.372548862745099
 50
0.0
 51
90.0
  0
ARC
  5
F915
  8
0
 10
171.9708943706062
 20
217.07315450470401
 30
0.0
 40
1.4238387735863101
 50
359.659468141687
 51
87.936641707406423
  0
LINE
  5
F916
  8
2
 10
160.11674835945021
 20
104.0548992192282
 30
0.0
 11
171.67266763336119
 21
104.05489921922759
 31
0.0
1001
GENIUS_GENOREF_13
1005
0
  0
LINE
  5
F918
  8
0
 10
158.39470799640549
 20
95.054899219227735
 30
0.0
 11
173.39470799640549
 21
95.054899219227778
 31
0.0
1001
GENIUS_GENOREF_13
1005
0
  0
CIRCLE
  5
F919
  8
0
 10
165.89470799640549
 20
116.05489921922771
 30
0.0
 40
3.0
  0
LINE
  5
F91A
  8
0
 10
156.14470799640549
 20
115.80489921922781
 30
0.0
 11
151.09013318140271
 21
105.05489921922781
 31
0.0
  0
LINE
  5
F91B
  8
0
 10
150.39470799640549
 20
95.054899219227778
 30
0.0
 11
151.09013318140271
 21
105.05489921922781
 31
0.0
  0
LINE
  5
F91C
  8
0
 10
158.39470799640549
 20
95.054899219227778
 30
0.0
 11
159.14906190630899
 21
116.04730142046751
 31
0.0
  0
LINE
  5
F91D
  8
2
 10
161.6447079964054
 20
95.054899219227963
 30
0.0
 11
161.64470799640549
 21
99.054899219227963
 31
0.0
  0
LINE
  5
F91E
  8
2
 10
160.11674835945001
 20
99.05489921922802
 30
0.0
 11
161.64470799640549
 21
99.054899219227963
 31
0.0
  0
LINE
  5
F91F
  8
2
 10
160.1167483594503
 20
104.05489921922801
 30
0.0
 11
160.11674835945001
 21
99.05489921922802
 31
0.0
  0
LINE
  5
F920
  8
2
 10
163.39842344934391
 20
95.054899219227963
 30
0.0
 11
163.39842344934431
 21
104.05489921922791
 31
0.0
  0
LINE
  5
F921
  8
2
 10
162.89842344934391
 20
95.054899219228005
 30
0.0
 11
162.89842344934439
 21
104.05489921922801
 31
0.0
  0
LINE
  5
F922
  8
0
 10
158.8977926189946
 20
109.05489921922771
 30
0.0
 11
158.83128442284411
 21
109.05489921922781
 31
0.0
  0
LINE
  5
F923
  8
0
 10
173.39470799640549
 20
95.054899219227778
 30
0.0
 11
172.64035408650199
 21
116.04730142046751
 31
0.0
  0
LINE
  5
F924
  8
2
 10
168.39842344934391
 20
95.054899219227778
 30
0.0
 11
168.39842344934431
 21
104.05489921922781
 31
0.0
  0
LINE
  5
F925
  8
2
 10
168.89842344934391
 20
95.054899219227778
 30
0.0
 11
168.89842344934431
 21
104.05489921922781
 31
0.0
  0
LINE
  5
F926
  8
2
 10
170.14470799640529
 20
95.054899219227678
 30
0.0
 11
170.14470799640549
 21
99.054899219227678
 31
0.0
  0
LINE
  5
F927
  8
2
 10
171.67266763336099
 20
99.054899219227636
 30
0.0
 11
170.14470799640549
 21
99.054899219227678
 31
0.0
  0
LINE
  5
F928
  8
2
 10
171.67266763336119
 20
104.05489921922759
 30
0.0
 11
171.67266763336099
 21
99.054899219227636
 31
0.0
  0
LINE
  5
F929
  8
2
 10
296.85875162665792
 20
104.05489921922791
 30
0.0
 11
302.63671126361328
 21
104.05489921922771
 31
0.0
1001
GENIUS_GENOREF_13
1005
0
  0
LINE
  5
F92B
  8
0
 10
296.85875162665627
 20
109.05489921922781
 30
0.0
 11
303.9221752002191
 21
109.05489921922781
 31
0.0
  0
CIRCLE
  5
F92C
  8
0
 10
296.85875162665758
 20
115.80489921922781
 30
0.0
 40
3.0
  0
LINE
  5
F92D
  8
0
 10
304.35875162665769
 20
95.054899219227735
 30
0.0
 11
289.35875162665758
 21
95.054899219227778
 31
0.0
1001
GENIUS_GENOREF_13
1005
0
  0
LINE
  5
F92E
  8
0
 10
302.53437192354431
 20
105.55489921922771
 30
0.0
 11
291.18313132977079
 21
105.55489921922781
 31
0.0
1001
GENIUS_GENOREF_13
1005
0
  0
LINE
  5
F92F
  8
2
 10
291.08079198970211
 20
99.054899219228076
 30
0.0
 11
292.60875162665758
 21
99.05489921922802
 31
0.0
  0
LINE
  5
F930
  8
2
 10
296.85875162665769
 20
104.05489921922791
 30
0.0
 11
291.08079198970239
 21
104.0548992192281
 31
0.0
1001
GENIUS_GENOREF_13
1005
0
  0
LINE
  5
F931
  8
0
 10
289.35875162665758
 20
95.054899219227778
 30
0.0
 11
290.11310553656108
 21
116.04730142046751
 31
0.0
  0
ARC
  5
F932
  8
0
 10
291.18313132977079
 20
104.05489921922781
 30
0.0
 40
1.5
 50
89.999999999999758
 51
177.94198370221929
1001
GENIUS_GENODEF_13
1002
{
1000
HIER
1070
     0
1002
}
1002
{
1000
MANEDIT
1070
     0
1002
}
1002
{
1000
NOSEL
1070
     0
1002
}
1002
{
1000
BEHIND
1070
     0
1002
}
1002
{
1000
REACTOR
1002
}
1001
GENIUS_GENOBJ-N-FIL_13
1002
{
1000
OWNER
1000
GEN
1002
}
  0
LINE
  5
F933
  8
2
 10
291.08079198970239
 20
104.0548992192281
 30
0.0
 11
291.08079198970211
 21
99.054899219228076
 31
0.0
  0
LINE
  5
F934
  8
2
 10
293.862467079596
 20
95.054899219228076
 30
0.0
 11
293.8624670795964
 21
104.0548992192281
 31
0.0
  0
LINE
  5
F935
  8
2
 10
294.36246707959589
 20
95.054899219228005
 30
0.0
 11
294.3624670795964
 21
104.05489921922801
 31
0.0
  0
LINE
  5
F936
  8
2
 10
292.60875162665741
 20
95.054899219228005
 30
0.0
 11
292.60875162665758
 21
99.05489921922802
 31
0.0
  0
LINE
  5
F937
  8
2
 10
299.362467079596
 20
95.054899219227849
 30
0.0
 11
299.3624670795964
 21
104.05489921922781
 31
0.0
  0
LINE
  5
F938
  8
0
 10
306.60875162665769
 20
115.80489921922781
 30
0.0
 11
311.66332644166039
 21
105.05489921922781
 31
0.0
  0
ARC
  5
F939
  8
0
 10
303.9221752002191
 20
101.05489921922771
 30
0.0
 40
8.0
 50
3.9780881634265541
 51
90.0
1001
GENIUS_GENODEF_13
1002
{
1000
HIER
1070
     0
1002
}
1002
{
1000
MANEDIT
1070
     0
1002
}
1002
{
1000
NOSEL
1070
     0
1002
}
1002
{
1000
BEHIND
1070
     0
1002
}
1002
{
1000
REACTOR
1002
}
1001
GENIUS_GENOBJ-N-FIL_13
1002
{
1000
OWNER
1000
GEN
1002
}
  0
LINE
  5
F93A
  8
0
 10
304.35875162665769
 20
95.054899219227778
 30
0.0
 11
303.85566700406849
 21
109.05489921922771
 31
0.0
  0
ARC
  5
F93B
  8
0
 10
302.53437192354431
 20
104.05489921922771
 30
0.0
 40
1.5
 50
2.058016297780644
 51
89.999999999999758
1001
GENIUS_GENODEF_13
1002
{
1000
HIER
1070
     0
1002
}
1002
{
1000
MANEDIT
1070
     0
1002
}
1002
{
1000
NOSEL
1070
     0
1002
}
1002
{
1000
BEHIND
1070
     0
1002
}
1002
{
1000
REACTOR
1002
}
1001
GENIUS_GENOBJ-N-FIL_13
1002
{
1000
OWNER
1000
GEN
1002
}
  0
LINE
  5
F93C
  8
2
 10
302.63671126361328
 20
104.05489921922771
 30
0.0
 11
302.63671126361311
 21
99.054899219227678
 31
0.0
  0
LINE
  5
F93D
  8
2
 10
302.63671126361311
 20
99.054899219227678
 30
0.0
 11
301.10875162665758
 21
99.054899219227735
 31
0.0
  0
LINE
  5
F93E
  8
2
 10
301.10875162665741
 20
95.054899219227735
 30
0.0
 11
301.10875162665758
 21
99.054899219227735
 31
0.0
  0
LINE
  5
F93F
  8
2
 10
299.862467079596
 20
95.054899219227849
 30
0.0
 11
299.8624670795964
 21
104.05489921922781
 31
0.0
  0
LINE
  5
F940
  8
0
 10
311.66332644166039
 20
105.05489921922781
 30
0.0
 11
311.90290043650242
 21
101.6098989516165
 31
0.0
  0
LINE
  5
F941
  8
0
 10
312.35875162665758
 20
95.054899219227778
 30
0.0
 11
311.90290043650259
 21
101.6098989516132
 31
0.0
  0
LINE
  5
F942
  8
2
 10
331.15503617371922
 20
108.7796940677879
 30
0.0
 11
334.40503617371911
 21
106.90330569292171
 31
0.0
1001
GENIUS_GENOREF_13
1005
0
  0
LINE
  5
F943
  8
2
 10
331.15503617371883
 20
95.430176894196535
 30
0.0
 11
331.8050361737188
 21
95.054899219223245
 31
0.0
  0
LINE
  5
F944
  8
2
 10
331.655036173719
 20
104.0548992192232
 30
0.0
 11
331.155036173719
 21
105.0548992192233
 31
0.0
  0
LINE
  5
F945
  8
2
 10
331.655036173719
 20
104.0548992192232
 30
0.0
 11
325.655036173719
 21
104.0548992192235
 31
0.0
  0
LINE
  5
F946
  8
2
 10
326.16246707959613
 20
108.7796940677879
 30
0.0
 11
322.91246707959618
 21
106.90330569292171
 31
0.0
1001
GENIUS_GENOREF_13
1005
0
  0
LINE
  5
F947
  8
2
 10
324.66246707959652
 20
100.0548992192233
 30
0.0
 11
322.91246707959618
 21
100.0548992192233
 31
0.0
  0
LINE
  5
F948
  8
2
 10
322.91246707959618
 20
106.90330569292171
 30
0.0
 11
322.91246707959618
 21
100.0548992192233
 31
0.0
  0
LINE
  5
F949
  8
2
 10
331.15503617371883
 20
95.430176894196535
 30
0.0
 11
331.15503617371911
 21
106.9153349683945
 31
0.0
  0
LINE
  5
F94A
  8
2
 10
326.15503617371871
 20
95.43017689419672
 30
0.0
 11
326.15503617371911
 21
106.9153349683946
 31
0.0
  0
LINE
  5
F94B
  8
1
 10
328.65875162665822
 20
111.8548992192234
 30
0.0
 11
328.65875162665748
 21
92.554899219227806
 31
0.0
  0
LINE
  5
F94C
  8
2
 10
326.15503617371871
 20
95.43017689419672
 30
0.0
 11
331.15503617371883
 21
95.430176894196535
 31
0.0
  0
LINE
  5
F94D
  8
2
 10
325.65503617371871
 20
95.141501759601894
 30
0.0
 11
325.655036173719
 21
104.0548992192235
 31
0.0
  0
LINE
  5
F94E
  8
2
 10
326.15503617371871
 20
95.43017689419672
 30
0.0
 11
325.50503617371868
 21
95.054899219223486
 31
0.0
  0
LINE
  5
F94F
  8
2
 10
325.655036173719
 20
104.0548992192235
 30
0.0
 11
326.155036173719
 21
105.0548992192234
 31
0.0
  0
LINE
  5
F950
  8
2
 10
324.66246707959652
 20
95.054899219223387
 30
0.0
 11
324.66246707959652
 21
100.0548992192233
 31
0.0
  0
LINE
  5
F951
  8
2
 10
328.65503617371922
 20
108.3587106413687
 30
0.0
 11
326.15503617371911
 21
106.9153349683946
 31
0.0
  0
LINE
  5
F952
  8
2
 10
331.15503617371922
 20
106.9153349683945
 30
0.0
 11
326.15503617371911
 21
106.9153349683946
 31
0.0
  0
LINE
  5
F953
  8
2
 10
328.65875162665759
 20
109.3548992192234
 30
0.0
 11
327.15875162665759
 21
109.3548992192234
 31
0.0
1001
GENIUS_GENBH_13
1002
{
1000
ML
1040
1.0000000099999991
1002
}
1002
{
1000
OE
1000
CON1
1002
}
1001
GENIUS_GENOREF_13
1005
0
  0
LINE
  5
F954
  8
2
 10
327.15875162665759
 20
109.3548992192234
 30
0.0
 11
326.16246707959613
 21
108.7796940677879
 31
0.0
1001
GENIUS_GENBH_13
1002
{
1000
ML
1040
1.0000000099999991
1002
}
1002
{
1000
OE
1000
CON1
1002
}
1001
GENIUS_GENOREF_13
1005
0
  0
LINE
  5
F955
  8
2
 10
328.65875162665759
 20
109.3548992192234
 30
0.0
 11
330.1587516266577
 21
109.3548992192234
 31
0.0
1001
GENIUS_GENBH_13
1002
{
1000
ML
1040
1.0000000099999991
1002
}
1002
{
1000
OE
1000
CON1
1002
}
1001
GENIUS_GENOREF_13
1005
0
  0
LINE
  5
F956
  8
2
 10
330.1587516266577
 20
109.3548992192234
 30
0.0
 11
331.15503617371922
 21
108.7796940677879
 31
0.0
1001
GENIUS_GENBH_13
1002
{
1000
ML
1040
1.0000000099999991
1002
}
1002
{
1000
OE
1000
CON1
1002
}
1001
GENIUS_GENOREF_13
1005
0
  0
LINE
  5
F957
  8
2
 10
328.65503617371922
 20
108.3587106413687
 30
0.0
 11
331.15503617371922
 21
106.9153349683945
 31
0.0
  0
LINE
  5
F958
  8
2
 10
334.40503617371911
 20
106.90330569292171
 30
0.0
 11
334.40503617371911
 21
100.0548992192233
 31
0.0
  0
LINE
  5
F959
  8
2
 10
332.6550361737186
 20
95.054899219223387
 30
0.0
 11
332.6550361737186
 21
100.0548992192233
 31
0.0
  0
LINE
  5
F95A
  8
2
 10
332.6550361737186
 20
100.0548992192233
 30
0.0
 11
334.405036173719
 21
100.0548992192233
 31
0.0
  0
LINE
  5
F95B
  8
2
 10
331.65503617371871
 20
95.141501759601724
 30
0.0
 11
331.655036173719
 21
104.0548992192232
 31
0.0
  0
ARC
  5
F95C
  8
0
 10
341.30201162143749
 20
102.9390964203581
 30
0.0
 40
3.5
 50
3.9780881634265541
 51
60.399204190166813
1001
GENIUS_GENODEF_13
1002
{
1000
HIER
1070
     0
1002
}
1002
{
1000
MANEDIT
1070
     0
1002
}
1002
{
1000
NOSEL
1070
     0
1002
}
1002
{
1000
BEHIND
1070
     0
1002
}
1002
{
1000
REACTOR
1002
}
1001
GENIUS_GENOBJ-N-FIL_13
1002
{
1000
OWNER
1000
GEN
1002
}
  0
LINE
  5
F95D
  8
0
 10
345.35875162665758
 20
95.054899219227778
 30
0.0
 11
344.79357891231149
 21
103.1819088032768
 31
0.0
  0
LINE
  5
F95E
  8
2
 10
37.289222513578949
 20
106.90330569292171
 30
0.0
 11
37.289222513578949
 21
100.0548992192233
 31
0.0
  0
LINE
  5
F95F
  8
0
 10
165.89470799640549
 20
122.55489921922781
 30
0.0
 11
152.89470799640549
 21
122.55489921922781
 31
0.0
  0
LINE
  5
F960
  8
0
 10
156.09454854018421
 20
122.55489921922781
 30
0.0
 11
149.95158330174209
 21
122.55489921922781
 31
0.0
  0
LINE
  5
F961
  8
0
 10
152.89470799640549
 20
122.55489921922781
 30
0.0
 11
149.95158330174209
 21
122.55489921922781
 31
0.0
  0
ARC
  5
F962
  8
0
 10
151.32372205867
 20
120.05489921922781
 30
0.0
 40
2.5
 50
25.70995378081129
 51
90.0
1001
GENIUS_GENODEF_13
1002
{
1000
HIER
1070
     0
1002
}
1002
{
1000
MANEDIT
1070
     0
1002
}
1002
{
1000
NOSEL
1070
     0
1002
}
1002
{
1000
BEHIND
1070
     0
1002
}
1002
{
1000
REACTOR
1002
}
1001
GENIUS_GENOBJ-N-FIL_13
1002
{
1000
OWNER
1000
GEN
1002
}
  0
LINE
  5
F963
  8
0
 10
296.85875162665758
 20
122.55489921922781
 30
0.0
 11
309.85875162665758
 21
122.55489921922781
 31
0.0
  0
LINE
  5
F964
  8
0
 10
309.85875162665758
 20
122.55489921922781
 30
0.0
 11
312.80187632132112
 21
122.55489921922781
 31
0.0
  0
ARC
  5
F965
  8
0
 10
311.42973756439312
 20
120.05489921922781
 30
0.0
 40
2.5
 50
90.0
 51
154.2900462191887
1001
GENIUS_GENODEF_13
1002
{
1000
HIER
1070
     0
1002
}
1002
{
1000
MANEDIT
1070
     0
1002
}
1002
{
1000
NOSEL
1070
     0
1002
}
1002
{
1000
BEHIND
1070
     0
1002
}
1002
{
1000
REACTOR
1002
}
1001
GENIUS_GENOBJ-N-FIL_13
1002
{
1000
OWNER
1000
GEN
1002
}
  0
ARC
  5
F966
  8
0
 10
312.80187632132112
 20
118.55489921922781
 30
0.0
 40
4.0
 50
60.399204190166948
 51
90.0
1001
GENIUS_GENODEF_13
1002
{
1000
HIER
1070
     0
1002
}
1002
{
1000
MANEDIT
1070
     0
1002
}
1002
{
1000
NOSEL
1070
     0
1002
}
1002
{
1000
BEHIND
1070
     0
1002
}
1002
{
1000
REACTOR
1002
}
1001
GENIUS_GENOBJ-N-FIL_13
1002
{
1000
OWNER
1000
GEN
1002
}
  0
ARC
  5
F967
  8
0
 10
28.993412777453418
 20
121.05489921922781
 30
0.0
 40
1.5
 50
90.0
 51
178.02147805127359
1001
GENIUS_GENODEF_13
1002
{
1000
HIER
1070
     0
1002
}
1002
{
1000
MANEDIT
1070
     0
1002
}
1002
{
1000
NOSEL
1070
     0
1002
}
1002
{
1000
BEHIND
1070
     0
1002
}
1002
{
1000
REACTOR
1002
}
1001
GENIUS_GENOBJ-N-FIL_13
1002
{
1000
OWNER
1000
GEN
1002
}
  0
LINE
  5
F968
  8
1
 10
59.53550706064042
 20
127.5548992192281
 30
0.0
 11
59.535507060640299
 21
110.1346479819487
 31
0.0
  0
LINE
  5
F969
  8
0
 10
92.535507060640299
 20
95.054899219227778
 30
0.0
 11
91.576707102807831
 21
121.1066865090836
 31
0.0
  0
LINE
  5
F96A
  8
2
 10
72.039222513579972
 20
100.0548992192213
 30
0.0
 11
70.289222513579631
 21
100.0548992192216
 31
0.0
  0
LINE
  5
F96B
  8
2
 10
73.539222513580825
 20
108.7796940677856
 30
0.0
 11
70.289222513580654
 21
106.9033056929199
 31
0.0
1001
GENIUS_GENOREF_13
1005
0
  0
LINE
  5
F96C
  8
3
 10
54.505988205946409
 20
110.0685075726587
 30
0.0
 11
54.530039263869952
 21
110.0745203371396
 31
0.0
  0
LINE
  5
F96D
  8
3
 10
54.554090321793602
 20
106.98997215843529
 30
0.0
 11
54.46389885458003
 21
107.02604874532059
 31
0.0
  0
LINE
  5
F96E
  8
2
 10
45.53179160770199
 20
108.7796940677879
 30
0.0
 11
48.781791607701869
 21
106.90330569292171
 31
0.0
1001
GENIUS_GENOREF_13
1005
0
  0
LINE
  5
F96F
  8
2
 10
40.531791607701479
 20
95.430176894196705
 30
0.0
 11
40.531791607701869
 21
106.9153349683946
 31
0.0
  0
LINE
  5
F970
  8
2
 10
45.531791607701528
 20
95.430176894196535
 30
0.0
 11
45.531791607701933
 21
106.9153349683945
 31
0.0
  0
LINE
  5
F971
  8
1
 10
43.035507060640981
 20
111.8548992192234
 30
0.0
 11
43.03550706064032
 21
92.554899219227778
 31
0.0
  0
LINE
  5
F972
  8
2
 10
40.531791607701479
 20
95.430176894196705
 30
0.0
 11
45.531791607701528
 21
95.430176894196535
 31
0.0
  0
LINE
  5
F973
  8
2
 10
46.031791607701813
 20
104.0548992192232
 30
0.0
 11
40.03179160770182
 21
104.0548992192235
 31
0.0
  0
LINE
  5
F974
  8
2
 10
39.039222513579347
 20
95.054899219223358
 30
0.0
 11
39.039222513579347
 21
100.0548992192233
 31
0.0
  0
LINE
  5
F975
  8
2
 10
40.03179160770182
 20
104.0548992192235
 30
0.0
 11
40.53179160770182
 21
105.0548992192234
 31
0.0
  0
LINE
  5
F976
  8
2
 10
40.531791607701479
 20
95.430176894196705
 30
0.0
 11
39.881791607701501
 21
95.054899219223472
 31
0.0
  0
LINE
  5
F977
  8
2
 10
40.031791607701471
 20
95.141501759601866
 30
0.0
 11
40.03179160770182
 21
104.0548992192235
 31
0.0
  0
LINE
  5
F978
  8
2
 10
46.031791607701479
 20
95.141501759601709
 30
0.0
 11
46.031791607701813
 21
104.0548992192232
 31
0.0
  0
LINE
  5
F979
  8
2
 10
46.031791607701813
 20
104.0548992192232
 30
0.0
 11
45.53179160770182
 21
105.0548992192233
 31
0.0
  0
LINE
  5
F97A
  8
2
 10
45.531791607701528
 20
95.430176894196535
 30
0.0
 11
46.181791607701513
 21
95.054899219223245
 31
0.0
  0
LINE
  5
F97B
  8
2
 10
45.53179160770199
 20
106.9153349683945
 30
0.0
 11
40.531791607701933
 21
106.9153349683946
 31
0.0
  0
LINE
  5
F97C
  8
2
 10
43.031791607702047
 20
108.3587106413687
 30
0.0
 11
40.531791607701933
 21
106.9153349683946
 31
0.0
  0
LINE
  5
F97D
  8
2
 10
43.035507060640413
 20
109.3548992192233
 30
0.0
 11
41.535507060640413
 21
109.3548992192233
 31
0.0
1001
GENIUS_GENBH_13
1002
{
1000
ML
1040
1.0000000099999991
1002
}
1002
{
1000
OE
1000
CON1
1002
}
1001
GENIUS_GENOREF_13
1005
0
  0
LINE
  5
F97E
  8
2
 10
41.535507060640413
 20
109.3548992192233
 30
0.0
 11
40.539222513578828
 21
108.7796940677879
 31
0.0
1001
GENIUS_GENBH_13
1002
{
1000
ML
1040
1.0000000099999991
1002
}
1002
{
1000
OE
1000
CON1
1002
}
1001
GENIUS_GENOREF_13
1005
0
  0
LINE
  5
F97F
  8
2
 10
43.031791607702047
 20
108.3587106413687
 30
0.0
 11
45.53179160770199
 21
106.9153349683945
 31
0.0
  0
LINE
  5
F980
  8
2
 10
44.535507060640413
 20
109.3548992192233
 30
0.0
 11
45.53179160770199
 21
108.7796940677879
 31
0.0
1001
GENIUS_GENBH_13
1002
{
1000
ML
1040
1.0000000099999991
1002
}
1002
{
1000
OE
1000
CON1
1002
}
1001
GENIUS_GENOREF_13
1005
0
  0
LINE
  5
F981
  8
2
 10
43.035507060640413
 20
109.3548992192233
 30
0.0
 11
44.535507060640413
 21
109.3548992192233
 31
0.0
1001
GENIUS_GENBH_13
1002
{
1000
ML
1040
1.0000000099999991
1002
}
1002
{
1000
OE
1000
CON1
1002
}
1001
GENIUS_GENOREF_13
1005
0
  0
LINE
  5
F982
  8
2
 10
48.781791607701869
 20
106.90330569292171
 30
0.0
 11
48.781791607701869
 21
100.0548992192233
 31
0.0
  0
LINE
  5
F983
  8
2
 10
47.031791607701471
 20
100.0548992192233
 30
0.0
 11
48.78179160770182
 21
100.0548992192233
 31
0.0
  0
LINE
  5
F984
  8
2
 10
47.031791607701471
 20
95.054899219223358
 30
0.0
 11
47.031791607701471
 21
100.0548992192233
 31
0.0
  0
LINE
  5
F985
  8
3
 10
53.50786930211612
 20
108.6374696262033
 30
0.0
 11
53.519894831077949
 21
108.7336738578976
 31
0.0
  0
LINE
  5
F986
  8
3
 10
53.549958653482427
 20
108.1444229387689
 30
0.0
 11
53.53192036003972
 21
108.2466399349444
 31
0.0
  0
LINE
  5
F987
  8
3
 10
53.604073533810627
 20
107.9580272398609
 30
0.0
 11
53.574009711406028
 21
108.0542314715555
 31
0.0
  0
LINE
  5
F988
  8
3
 10
53.640150120695999
 20
107.8678357726474
 30
0.0
 11
53.604073533810627
 21
107.9580272398609
 31
0.0
  0
LINE
  5
F989
  8
3
 10
53.574009711406028
 20
108.0542314715555
 30
0.0
 11
53.549958653482427
 21
108.1444229387689
 31
0.0
  0
LINE
  5
F98A
  8
3
 10
53.513882066596999
 20
108.3428441666389
 30
0.0
 11
53.50786930211612
 21
108.4390483983334
 31
0.0
  0
LINE
  5
F98B
  8
3
 10
53.50786930211612
 20
108.4390483983334
 30
0.0
 11
53.50786930211612
 21
108.5412653945088
 31
0.0
  0
LINE
  5
F98C
  8
3
 10
53.50786930211612
 20
108.5412653945088
 30
0.0
 11
53.50786930211612
 21
108.6374696262033
 31
0.0
  0
LINE
  5
F98D
  8
3
 10
53.53192036003972
 20
108.2466399349444
 30
0.0
 11
53.513882066596999
 21
108.3428441666389
 31
0.0
  0
LINE
  5
F98E
  8
3
 10
53.8686351709704
 20
109.5814736497055
 30
0.0
 11
54.043005340916658
 21
109.7738821130944
 31
0.0
  0
LINE
  5
F98F
  8
3
 10
53.84458411304675
 20
109.539384298339
 30
0.0
 11
53.8686351709704
 21
109.5814736497055
 31
0.0
  0
LINE
  5
F990
  8
3
 10
53.58002247588697
 20
109.0222865529811
 30
0.0
 11
53.61008629829152
 21
109.1184907846756
 31
0.0
  0
LINE
  5
F991
  8
3
 10
53.53192036003972
 20
108.8298780895922
 30
0.0
 11
53.55597141796337
 21
108.9320950857675
 31
0.0
  0
LINE
  5
F992
  8
3
 10
53.519894831077949
 20
108.7336738578976
 30
0.0
 11
53.53192036003972
 21
108.8298780895922
 31
0.0
  0
LINE
  5
F993
  8
3
 10
53.55597141796337
 20
108.9320950857675
 30
0.0
 11
53.58002247588697
 21
109.0222865529811
 31
0.0
  0
LINE
  5
F994
  8
3
 10
53.61008629829152
 20
109.1184907846756
 30
0.0
 11
53.68825223654332
 21
109.3048864835837
 31
0.0
  0
LINE
  5
F995
  8
3
 10
53.838571348565921
 20
109.5213460048962
 30
0.0
 11
53.84458411304675
 21
109.539384298339
 31
0.0
  0
LINE
  5
F996
  8
3
 10
53.826545819604092
 20
109.5093204759345
 30
0.0
 11
53.838571348565921
 21
109.5213460048962
 31
0.0
  0
LINE
  5
F997
  8
3
 10
53.814520290642257
 20
109.4912821824918
 30
0.0
 11
53.826545819604092
 21
109.5093204759345
 31
0.0
  0
LINE
  5
F998
  8
3
 10
53.802494761680428
 20
109.473243889049
 30
0.0
 11
53.814520290642257
 21
109.4912821824918
 31
0.0
  0
LINE
  5
F999
  8
3
 10
53.79648199719955
 20
109.4612183600872
 30
0.0
 11
53.802494761680428
 21
109.473243889049
 31
0.0
  0
LINE
  5
F99A
  8
3
 10
53.784456468237721
 20
109.4431800666445
 30
0.0
 11
53.79648199719955
 21
109.4612183600872
 31
0.0
  0
LINE
  5
F99B
  8
3
 10
53.772430939275949
 20
109.4251417732018
 30
0.0
 11
53.784456468237721
 21
109.4431800666445
 31
0.0
  0
LINE
  5
F99C
  8
3
 10
53.760405410314121
 20
109.4071034797591
 30
0.0
 11
53.772430939275949
 21
109.4251417732018
 31
0.0
  0
LINE
  5
F99D
  8
3
 10
53.748379881352292
 20
109.3950779507974
 30
0.0
 11
53.760405410314121
 21
109.4071034797591
 31
0.0
  0
LINE
  5
F99E
  8
3
 10
53.736354352390521
 20
109.3770396573545
 30
0.0
 11
53.748379881352292
 21
109.3950779507974
 31
0.0
  0
LINE
  5
F99F
  8
3
 10
53.700277765505092
 20
109.3229247770263
 30
0.0
 11
53.712303294466857
 21
109.3409630704691
 31
0.0
  0
LINE
  5
F9A0
  8
3
 10
53.68825223654332
 20
109.3048864835837
 30
0.0
 11
53.700277765505092
 21
109.3229247770263
 31
0.0
  0
LINE
  5
F9A1
  8
3
 10
53.712303294466857
 20
109.3409630704691
 30
0.0
 11
53.724328823428692
 21
109.3590013639118
 31
0.0
  0
LINE
  5
F9A2
  8
3
 10
53.724328823428692
 20
109.3590013639118
 30
0.0
 11
53.736354352390521
 21
109.3770396573545
 31
0.0
  0
LINE
  5
F9A3
  8
3
 10
54.373707387366458
 20
110.0023671633687
 30
0.0
 11
54.39174568080918
 21
110.0143926923305
 31
0.0
  0
LINE
  5
F9A4
  8
3
 10
54.337630800481037
 20
109.984328869926
 30
0.0
 11
54.355669093923751
 21
109.9903416344069
 31
0.0
  0
LINE
  5
F9A5
  8
3
 10
54.28952868463378
 20
109.9602778120023
 30
0.0
 11
54.337630800481037
 21
109.984328869926
 31
0.0
  0
LINE
  5
F9A6
  8
3
 10
54.271490391191072
 20
109.9422395185596
 30
0.0
 11
54.28952868463378
 21
109.9602778120023
 31
0.0
  0
LINE
  5
F9A7
  8
3
 10
54.247439333267408
 20
109.9302139895979
 30
0.0
 11
54.271490391191072
 21
109.9422395185596
 31
0.0
  0
LINE
  5
F9A8
  8
3
 10
54.229401039824751
 20
109.918188460636
 30
0.0
 11
54.247439333267408
 21
109.9302139895979
 31
0.0
  0
LINE
  5
F9A9
  8
3
 10
54.211362746382036
 20
109.9061629316742
 30
0.0
 11
54.229401039824751
 21
109.918188460636
 31
0.0
  0
LINE
  5
F9AA
  8
3
 10
54.193324452939258
 20
109.8941374027124
 30
0.0
 11
54.211362746382036
 21
109.9061629316742
 31
0.0
  0
LINE
  5
F9AB
  8
3
 10
54.355669093923751
 20
109.9903416344069
 30
0.0
 11
54.373707387366458
 21
110.0023671633687
 31
0.0
  0
LINE
  5
F9AC
  8
3
 10
54.163260630534779
 20
109.864073580308
 30
0.0
 11
54.181298923977486
 21
109.8760991092697
 31
0.0
  0
LINE
  5
F9AD
  8
3
 10
54.145222337092058
 20
109.8520480513461
 30
0.0
 11
54.163260630534779
 21
109.864073580308
 31
0.0
  0
LINE
  5
F9AE
  8
3
 10
54.127184043649351
 20
109.8340097579034
 30
0.0
 11
54.145222337092058
 21
109.8520480513461
 31
0.0
  0
LINE
  5
F9AF
  8
3
 10
54.109145750206629
 20
109.8219842289416
 30
0.0
 11
54.127184043649351
 21
109.8340097579034
 31
0.0
  0
LINE
  5
F9B0
  8
3
 10
54.079081927802093
 20
109.7979331710179
 30
0.0
 11
54.097120221244801
 21
109.8099586999798
 31
0.0
  0
LINE
  5
F9B1
  8
3
 10
54.061043634359379
 20
109.7859076420562
 30
0.0
 11
54.079081927802093
 21
109.7979331710179
 31
0.0
  0
LINE
  5
F9B2
  8
3
 10
54.043005340916658
 20
109.7738821130944
 30
0.0
 11
54.061043634359379
 21
109.7859076420562
 31
0.0
  0
LINE
  5
F9B3
  8
3
 10
54.097120221244801
 20
109.8099586999798
 30
0.0
 11
54.109145750206629
 21
109.8219842289416
 31
0.0
  0
LINE
  5
F9B4
  8
3
 10
54.181298923977486
 20
109.8760991092697
 30
0.0
 11
54.193324452939258
 21
109.8941374027124
 31
0.0
  0
LINE
  5
F9B5
  8
3
 10
54.48794991250363
 20
110.0624948081778
 30
0.0
 11
54.505988205946409
 21
110.0685075726587
 31
0.0
  0
LINE
  5
F9B6
  8
3
 10
54.451873325618209
 20
110.044456514735
 30
0.0
 11
54.46991161906098
 21
110.050469279216
 31
0.0
  0
LINE
  5
F9B7
  8
3
 10
54.433835032175502
 20
110.0324309857733
 30
0.0
 11
54.451873325618209
 21
110.044456514735
 31
0.0
  0
LINE
  5
F9B8
  8
3
 10
54.409783974251887
 20
110.0264182212923
 30
0.0
 11
54.433835032175502
 21
110.0324309857733
 31
0.0
  0
LINE
  5
F9B9
  8
3
 10
54.39174568080918
 20
110.0143926923305
 30
0.0
 11
54.409783974251887
 21
110.0264182212923
 31
0.0
  0
LINE
  5
F9BA
  8
3
 10
54.46991161906098
 20
110.050469279216
 30
0.0
 11
54.48794991250363
 21
110.0624948081778
 31
0.0
  0
LINE
  5
F9BB
  8
3
 10
54.067056398840272
 20
107.29061038248039
 30
0.0
 11
54.036992576435779
 21
107.32067420488499
 31
0.0
  0
LINE
  5
F9BC
  8
3
 10
53.724328823428692
 20
107.7175166606247
 30
0.0
 11
53.712303294466857
 21
107.7355549540674
 31
0.0
  0
LINE
  5
F9BD
  8
3
 10
53.92275005129855
 20
107.43491673002219
 30
0.0
 11
53.89869899337495
 21
107.4649805524267
 31
0.0
  0
LINE
  5
F9BE
  8
3
 10
53.730341587909571
 20
107.70549113166309
 30
0.0
 11
53.724328823428692
 21
107.7175166606247
 31
0.0
  0
LINE
  5
F9BF
  8
3
 10
53.748379881352292
 20
107.6754273092583
 30
0.0
 11
53.736354352390521
 21
107.6874528382202
 31
0.0
  0
LINE
  5
F9C0
  8
3
 10
53.754392645833242
 20
107.6573890158157
 30
0.0
 11
53.748379881352292
 21
107.6754273092583
 31
0.0
  0
LINE
  5
F9C1
  8
3
 10
53.760405410314121
 20
107.639350722373
 30
0.0
 11
53.754392645833242
 21
107.6573890158157
 31
0.0
  0
LINE
  5
F9C2
  8
3
 10
53.772430939275949
 20
107.6273251934111
 30
0.0
 11
53.760405410314121
 21
107.639350722373
 31
0.0
  0
LINE
  5
F9C3
  8
3
 10
53.778443703756828
 20
107.6152996644494
 30
0.0
 11
53.772430939275949
 21
107.6273251934111
 31
0.0
  0
LINE
  5
F9C4
  8
3
 10
53.790469232718657
 20
107.6032741354876
 30
0.0
 11
53.778443703756828
 21
107.6152996644494
 31
0.0
  0
LINE
  5
F9C5
  8
3
 10
53.802494761680428
 20
107.5852358420448
 30
0.0
 11
53.790469232718657
 21
107.6032741354876
 31
0.0
  0
LINE
  5
F9C6
  8
3
 10
53.808507526161321
 20
107.5792230775639
 30
0.0
 11
53.802494761680428
 21
107.5852358420448
 31
0.0
  0
LINE
  5
F9C7
  8
3
 10
53.820533055123143
 20
107.5671975486021
 30
0.0
 11
53.808507526161321
 21
107.5792230775639
 31
0.0
  0
LINE
  5
F9C8
  8
3
 10
53.838571348565921
 20
107.5611847841212
 30
0.0
 11
53.820533055123143
 21
107.5671975486021
 31
0.0
  0
LINE
  5
F9C9
  8
3
 10
53.874647935451343
 20
107.49504437483129
 30
0.0
 11
53.838571348565921
 21
107.5611847841212
 31
0.0
  0
LINE
  5
F9CA
  8
3
 10
53.89869899337495
 20
107.4649805524267
 30
0.0
 11
53.874647935451343
 21
107.49504437483129
 31
0.0
  0
LINE
  5
F9CB
  8
3
 10
53.736354352390521
 20
107.6874528382202
 30
0.0
 11
53.730341587909571
 21
107.70549113166309
 31
0.0
  0
LINE
  5
F9CC
  8
3
 10
53.9468011092222
 20
107.40485290761769
 30
0.0
 11
53.92275005129855
 21
107.43491673002219
 31
0.0
  0
LINE
  5
F9CD
  8
3
 10
53.97686493162675
 20
107.3747890852131
 30
0.0
 11
53.9468011092222
 21
107.40485290761769
 31
0.0
  0
LINE
  5
F9CE
  8
3
 10
54.006928754031229
 20
107.3447252628085
 30
0.0
 11
53.97686493162675
 21
107.3747890852131
 31
0.0
  0
LINE
  5
F9CF
  8
3
 10
54.036992576435779
 20
107.32067420488499
 30
0.0
 11
54.006928754031229
 21
107.3447252628085
 31
0.0
  0
LINE
  5
F9D0
  8
3
 10
53.712303294466857
 20
107.7355549540674
 30
0.0
 11
53.706290529986028
 21
107.7475804830293
 31
0.0
  0
LINE
  5
F9D1
  8
3
 10
53.706290529986028
 20
107.7475804830293
 30
0.0
 11
53.68825223654332
 21
107.7776443054337
 31
0.0
  0
LINE
  5
F9D2
  8
3
 10
54.097120221244801
 20
107.26655932455689
 30
0.0
 11
54.067056398840272
 21
107.29061038248039
 31
0.0
  0
LINE
  5
F9D3
  8
3
 10
54.46389885458003
 20
107.02604874532059
 30
0.0
 11
54.28952868463378
 21
107.12826574149599
 31
0.0
  0
LINE
  5
F9D4
  8
3
 10
54.223388275343858
 20
107.17035509286229
 30
0.0
 11
54.193324452939258
 21
107.1883933863049
 31
0.0
  0
LINE
  5
F9D5
  8
3
 10
54.253452097748351
 20
107.14630403493869
 30
0.0
 11
54.223388275343858
 21
107.17035509286229
 31
0.0
  0
LINE
  5
F9D6
  8
3
 10
54.28952868463378
 20
107.12826574149599
 30
0.0
 11
54.253452097748351
 21
107.14630403493869
 31
0.0
  0
LINE
  5
F9D7
  8
3
 10
54.157247866053893
 20
107.21244444422879
 30
0.0
 11
54.127184043649351
 21
107.24250826663319
 31
0.0
  0
LINE
  5
F9D8
  8
3
 10
54.127184043649351
 20
107.24250826663319
 30
0.0
 11
54.097120221244801
 21
107.26655932455689
 31
0.0
  0
LINE
  5
F9D9
  8
3
 10
54.193324452939258
 20
107.1883933863049
 30
0.0
 11
54.157247866053893
 21
107.21244444422879
 31
0.0
  0
LINE
  5
F9DA
  8
3
 10
53.68825223654332
 20
107.7776443054337
 30
0.0
 11
53.640150120695999
 21
107.8678357726474
 31
0.0
  0
LINE
  5
F9DB
  8
1
 10
59.535507060640299
 20
106.80357645952699
 30
0.0
 11
59.535507060640171
 21
90.054899219227764
 31
0.0
  0
LINE
  5
F9DC
  8
3
 10
62.478913907626662
 20
108.8178525606304
 30
0.0
 11
64.024194379219324
 21
108.835890854073
 31
0.0
  0
LINE
  5
F9DD
  8
3
 10
62.62322025516832
 20
109.0343120819429
 30
0.0
 11
62.508977730031141
 21
109.0343120819429
 31
0.0
  0
LINE
  5
F9DE
  8
3
 10
62.466888378664827
 20
109.8760991092697
 30
0.0
 11
62.695373428939227
 21
110.0805331016206
 31
0.0
  0
LINE
  5
F9DF
  8
3
 10
62.55106708139752
 20
107.08016362564879
 30
0.0
 11
62.496952201069377
 21
107.13427850597699
 31
0.0
  0
LINE
  5
F9E0
  8
3
 10
58.504476585748328
 20
109.9362267540788
 30
0.0
 11
58.582642524000079
 21
109.9723033409641
 31
0.0
  0
LINE
  5
F9E1
  8
3
 10
58.534540408152822
 20
107.02604874532059
 30
0.0
 11
58.504476585748328
 21
107.04408703876349
 31
0.0
  0
LINE
  5
F9E2
  8
3
 10
56.403015399672
 20
110.0023671633687
 30
0.0
 11
56.38356094641054
 21
111.1994817630129
 31
0.0
  0
LINE
  5
F9E3
  8
3
 10
56.231651611966157
 20
110.2188266846813
 30
0.0
 11
56.219626083004329
 21
109.1786184294847
 31
0.0
  0
LINE
  5
F9E4
  8
3
 10
54.698396669335317
 20
110.1526862753914
 30
0.0
 11
54.728460491739916
 21
110.1586990398722
 31
0.0
  0
LINE
  5
F9E5
  8
3
 10
57.464268330551789
 20
110.2669288005285
 30
0.0
 11
57.470281095032611
 21
110.0204054568114
 31
0.0
  0
LINE
  5
F9E6
  8
3
 10
56.12943461579075
 20
108.6795589775696
 30
0.0
 11
56.12943461579075
 21
108.6314568617223
 31
0.0
  0
LINE
  5
F9E7
  8
3
 10
56.375957959507872
 20
108.5532909234705
 30
0.0
 11
56.369945195026993
 21
108.7877887382259
 31
0.0
  0
LINE
  5
F9E8
  8
3
 10
55.624362399394762
 20
108.2225888770208
 30
0.0
 11
55.534170932181119
 21
108.2225888770208
 31
0.0
  0
LINE
  5
F9E9
  8
3
 10
55.504107109776641
 20
107.9039123595328
 30
0.0
 11
55.630375163875641
 21
107.9039123595328
 31
0.0
  0
LINE
  5
F9EA
  8
3
 10
54.70440943381621
 20
108.1865122901352
 30
0.0
 11
54.70440943381621
 21
108.1804995256544
 31
0.0
  0
LINE
  5
F9EB
  8
3
 10
54.740486020701638
 20
108.1203718808454
 30
0.0
 11
54.818651958953488
 21
108.0602442360363
 31
0.0
  0
LINE
  5
F9EC
  8
3
 10
54.728460491739916
 20
108.1263846453263
 30
0.0
 11
54.740486020701638
 21
108.1203718808454
 31
0.0
  0
LINE
  5
F9ED
  8
3
 10
54.728460491739916
 20
108.1323974098073
 30
0.0
 11
54.728460491739916
 21
108.1263846453263
 31
0.0
  0
LINE
  5
F9EE
  8
3
 10
54.722447727258981
 20
108.1444229387689
 30
0.0
 11
54.728460491739916
 21
108.1323974098073
 31
0.0
  0
LINE
  5
F9EF
  8
3
 10
54.716434962778031
 20
108.1504357032499
 30
0.0
 11
54.722447727258981
 21
108.1444229387689
 31
0.0
  0
LINE
  5
F9F0
  8
3
 10
54.716434962778031
 20
108.1564484677308
 30
0.0
 11
54.716434962778031
 21
108.1504357032499
 31
0.0
  0
LINE
  5
F9F1
  8
3
 10
54.710422198297152
 20
108.1624612322116
 30
0.0
 11
54.716434962778031
 21
108.1564484677308
 31
0.0
  0
LINE
  5
F9F2
  8
3
 10
54.710422198297152
 20
108.1744867611735
 30
0.0
 11
54.710422198297152
 21
108.1624612322116
 31
0.0
  0
LINE
  5
F9F3
  8
3
 10
54.70440943381621
 20
108.1804995256544
 30
0.0
 11
54.710422198297152
 21
108.1744867611735
 31
0.0
  0
LINE
  5
F9F4
  8
3
 10
54.818651958953488
 20
108.0602442360363
 30
0.0
 11
54.914856190647889
 21
108.0121421201891
 31
0.0
  0
LINE
  5
F9F5
  8
3
 10
54.914856190647889
 20
108.0121421201891
 30
0.0
 11
55.023085951304239
 21
107.9700527688228
 31
0.0
  0
LINE
  5
F9F6
  8
3
 10
55.023085951304239
 20
107.9700527688228
 30
0.0
 11
55.137328476441411
 21
107.9460017108992
 31
0.0
  0
LINE
  5
F9F7
  8
3
 10
55.37783905567764
 20
107.9099251240136
 30
0.0
 11
55.504107109776641
 21
107.9039123595328
 31
0.0
  0
LINE
  5
F9F8
  8
3
 10
55.257583766059533
 20
107.9219506529755
 30
0.0
 11
55.37783905567764
 21
107.9099251240136
 31
0.0
  0
LINE
  5
F9F9
  8
3
 10
55.137328476441411
 20
107.9460017108992
 30
0.0
 11
55.257583766059533
 21
107.9219506529755
 31
0.0
  0
LINE
  5
F9FA
  8
3
 10
54.90884342616701
 20
108.2286016415016
 30
0.0
 11
54.740486020701638
 21
108.2225888770208
 31
0.0
  0
LINE
  5
F9FB
  8
3
 10
54.70440943381621
 20
108.1925250546163
 30
0.0
 11
54.70440943381621
 21
108.1865122901352
 31
0.0
  0
LINE
  5
F9FC
  8
3
 10
54.710422198297152
 20
108.2045505835781
 30
0.0
 11
54.70440943381621
 21
108.1925250546163
 31
0.0
  0
LINE
  5
F9FD
  8
3
 10
54.710422198297152
 20
108.2105633480589
 30
0.0
 11
54.710422198297152
 21
108.2045505835781
 31
0.0
  0
LINE
  5
F9FE
  8
3
 10
54.716434962778031
 20
108.2105633480589
 30
0.0
 11
54.710422198297152
 21
108.2105633480589
 31
0.0
  0
LINE
  5
F9FF
  8
3
 10
54.728460491739916
 20
108.2165761125398
 30
0.0
 11
54.716434962778031
 21
108.2105633480589
 31
0.0
  0
LINE
  5
FA00
  8
3
 10
54.740486020701638
 20
108.2225888770208
 30
0.0
 11
54.728460491739916
 21
108.2165761125398
 31
0.0
  0
LINE
  5
FA01
  8
3
 10
55.263596530540411
 20
108.2286016415016
 30
0.0
 11
55.17340506332684
 21
108.2286016415016
 31
0.0
  0
LINE
  5
FA02
  8
3
 10
55.17340506332684
 20
108.2286016415016
 30
0.0
 11
55.083213596113261
 21
108.2286016415016
 31
0.0
  0
LINE
  5
FA03
  8
3
 10
54.999034893380582
 20
108.2286016415016
 30
0.0
 11
54.90884342616701
 21
108.2286016415016
 31
0.0
  0
LINE
  5
FA04
  8
3
 10
55.083213596113261
 20
108.2286016415016
 30
0.0
 11
54.999034893380582
 21
108.2286016415016
 31
0.0
  0
LINE
  5
FA05
  8
3
 10
55.443979464967612
 20
108.2225888770208
 30
0.0
 11
55.353787997753983
 21
108.2225888770208
 31
0.0
  0
LINE
  5
FA06
  8
3
 10
55.534170932181119
 20
108.2225888770208
 30
0.0
 11
55.443979464967612
 21
108.2225888770208
 31
0.0
  0
LINE
  5
FA07
  8
3
 10
55.353787997753983
 20
108.2225888770208
 30
0.0
 11
55.263596530540411
 21
108.2286016415016
 31
0.0
  0
LINE
  5
FA08
  8
3
 10
56.412034546393301
 20
108.0903080584409
 30
0.0
 11
56.3879834884697
 21
108.3187931087152
 31
0.0
  0
LINE
  5
FA09
  8
3
 10
56.267728198851579
 20
107.9339761819373
 30
0.0
 11
56.3879834884697
 21
107.9399889464183
 31
0.0
  0
LINE
  5
FA0A
  8
3
 10
55.985128268249042
 20
107.9159378884947
 30
0.0
 11
56.087345264424442
 21
107.9219506529755
 31
0.0
  0
LINE
  5
FA0B
  8
3
 10
55.630375163875641
 20
107.9039123595328
 30
0.0
 11
55.750630453493748
 21
107.9039123595328
 31
0.0
  0
LINE
  5
FA0C
  8
3
 10
55.750630453493748
 20
107.9039123595328
 30
0.0
 11
55.87088574311187
 21
107.9099251240136
 31
0.0
  0
LINE
  5
FA0D
  8
3
 10
55.87088574311187
 20
107.9099251240136
 30
0.0
 11
55.985128268249042
 21
107.9159378884947
 31
0.0
  0
LINE
  5
FA0E
  8
3
 10
56.18354949611895
 20
107.9279634174563
 30
0.0
 11
56.267728198851579
 21
107.9339761819373
 31
0.0
  0
LINE
  5
FA0F
  8
3
 10
56.087345264424442
 20
107.9219506529755
 30
0.0
 11
56.18354949611895
 21
107.9279634174563
 31
0.0
  0
LINE
  5
FA10
  8
3
 10
56.369945195026993
 20
107.8978995950519
 30
0.0
 11
56.35791966606515
 21
107.8497974792047
 31
0.0
  0
LINE
  5
FA11
  8
3
 10
56.3879834884697
 20
107.9399889464183
 30
0.0
 11
56.369945195026993
 21
107.8978995950519
 31
0.0
  0
LINE
  5
FA12
  8
3
 10
56.448111133278729
 20
107.8618230081664
 30
0.0
 11
56.412034546393301
 21
108.0903080584409
 31
0.0
  0
LINE
  5
FA13
  8
3
 10
56.12943461579075
 20
108.4029718114479
 30
0.0
 11
56.12943461579075
 21
108.3608824600816
 31
0.0
  0
LINE
  5
FA14
  8
3
 10
56.12943461579075
 20
108.3608824600816
 30
0.0
 11
56.12943461579075
 21
108.3187931087152
 31
0.0
  0
LINE
  5
FA15
  8
3
 10
56.12943461579075
 20
108.4510739272952
 30
0.0
 11
56.12943461579075
 21
108.4029718114479
 31
0.0
  0
LINE
  5
FA16
  8
3
 10
56.12943461579075
 20
108.5893675103561
 30
0.0
 11
56.12943461579075
 21
108.5412653945088
 31
0.0
  0
LINE
  5
FA17
  8
3
 10
56.12943461579075
 20
108.6314568617223
 30
0.0
 11
56.12943461579075
 21
108.5893675103561
 31
0.0
  0
LINE
  5
FA18
  8
3
 10
56.12943461579075
 20
108.4991760431424
 30
0.0
 11
56.12943461579075
 21
108.4510739272952
 31
0.0
  0
LINE
  5
FA19
  8
3
 10
56.12943461579075
 20
108.5412653945088
 30
0.0
 11
56.12943461579075
 21
108.4991760431424
 31
0.0
  0
LINE
  5
FA1A
  8
3
 10
56.141460144752592
 20
108.2346144059826
 30
0.0
 11
56.057281442019963
 21
108.2286016415016
 31
0.0
  0
LINE
  5
FA1B
  8
3
 10
56.12943461579075
 20
108.3187931087152
 30
0.0
 11
56.141460144752592
 21
108.2346144059826
 31
0.0
  0
LINE
  5
FA1C
  8
3
 10
55.888924036554577
 20
108.2225888770208
 30
0.0
 11
55.798732569340963
 21
108.2225888770208
 31
0.0
  0
LINE
  5
FA1D
  8
3
 10
55.714553866608327
 20
108.2225888770208
 30
0.0
 11
55.624362399394762
 21
108.2225888770208
 31
0.0
  0
LINE
  5
FA1E
  8
3
 10
55.798732569340963
 20
108.2225888770208
 30
0.0
 11
55.714553866608327
 21
108.2225888770208
 31
0.0
  0
LINE
  5
FA1F
  8
3
 10
55.97310273928727
 20
108.2225888770208
 30
0.0
 11
55.888924036554577
 21
108.2225888770208
 31
0.0
  0
LINE
  5
FA20
  8
3
 10
56.057281442019963
 20
108.2286016415016
 30
0.0
 11
55.97310273928727
 21
108.2225888770208
 31
0.0
  0
LINE
  5
FA21
  8
3
 10
56.3879834884697
 20
108.3187931087152
 30
0.0
 11
56.375957959507872
 21
108.5532909234705
 31
0.0
  0
LINE
  5
FA22
  8
3
 10
56.381970723988758
 20
109.292860954622
 30
0.0
 11
56.393996252950643
 21
109.5634353562626
 31
0.0
  0
LINE
  5
FA23
  8
3
 10
54.782575372068003
 20
108.9441206147295
 30
0.0
 11
56.099370793386271
 21
108.9381078502485
 31
0.0
  0
LINE
  5
FA24
  8
3
 10
55.558221990104776
 20
109.160580136042
 30
0.0
 11
55.456004993929383
 21
109.1665929005229
 31
0.0
  0
LINE
  5
FA25
  8
3
 10
54.999034893380582
 20
109.1184907846756
 30
0.0
 11
54.914856190647889
 21
109.0824141977903
 31
0.0
  0
LINE
  5
FA26
  8
3
 10
54.914856190647889
 20
109.0824141977903
 30
0.0
 11
54.770549843106231
 21
108.9801972016148
 31
0.0
  0
LINE
  5
FA27
  8
3
 10
54.77656260758706
 20
108.9441206147295
 30
0.0
 11
54.782575372068003
 21
108.9441206147295
 31
0.0
  0
LINE
  5
FA28
  8
3
 10
54.77656260758706
 20
108.9501333792103
 30
0.0
 11
54.77656260758706
 21
108.9441206147295
 31
0.0
  0
LINE
  5
FA29
  8
3
 10
54.770549843106231
 20
108.9501333792103
 30
0.0
 11
54.77656260758706
 21
108.9501333792103
 31
0.0
  0
LINE
  5
FA2A
  8
3
 10
54.770549843106231
 20
108.9561461436912
 30
0.0
 11
54.770549843106231
 21
108.9501333792103
 31
0.0
  0
LINE
  5
FA2B
  8
3
 10
54.770549843106231
 20
108.9621589081721
 30
0.0
 11
54.770549843106231
 21
108.9561461436912
 31
0.0
  0
LINE
  5
FA2C
  8
3
 10
54.770549843106231
 20
108.9681716726531
 30
0.0
 11
54.770549843106231
 21
108.9621589081721
 31
0.0
  0
LINE
  5
FA2D
  8
3
 10
54.770549843106231
 20
108.974184437134
 30
0.0
 11
54.770549843106231
 21
108.9681716726531
 31
0.0
  0
LINE
  5
FA2E
  8
3
 10
54.770549843106231
 20
108.9801972016148
 30
0.0
 11
54.770549843106231
 21
108.974184437134
 31
0.0
  0
LINE
  5
FA2F
  8
3
 10
55.083213596113261
 20
109.1425418425993
 30
0.0
 11
54.999034893380582
 21
109.1184907846756
 31
0.0
  0
LINE
  5
FA30
  8
3
 10
55.269609295021347
 20
109.1665929005229
 30
0.0
 11
55.17340506332684
 21
109.154567371561
 31
0.0
  0
LINE
  5
FA31
  8
3
 10
55.359800762234919
 20
109.1665929005229
 30
0.0
 11
55.269609295021347
 21
109.1665929005229
 31
0.0
  0
LINE
  5
FA32
  8
3
 10
55.456004993929383
 20
109.1665929005229
 30
0.0
 11
55.359800762234919
 21
109.1665929005229
 31
0.0
  0
LINE
  5
FA33
  8
3
 10
55.17340506332684
 20
109.154567371561
 30
0.0
 11
55.083213596113261
 21
109.1425418425993
 31
0.0
  0
LINE
  5
FA34
  8
3
 10
56.375957959507872
 20
109.0403248464238
 30
0.0
 11
56.381970723988758
 21
109.292860954622
 31
0.0
  0
LINE
  5
FA35
  8
3
 10
56.12943461579075
 20
108.7216483289359
 30
0.0
 11
56.12943461579075
 21
108.6795589775696
 31
0.0
  0
LINE
  5
FA36
  8
3
 10
56.123421851309871
 20
108.7697504447832
 30
0.0
 11
56.12943461579075
 21
108.7216483289359
 31
0.0
  0
LINE
  5
FA37
  8
3
 10
56.123421851309871
 20
108.8118397961496
 30
0.0
 11
56.123421851309871
 21
108.7697504447832
 31
0.0
  0
LINE
  5
FA38
  8
3
 10
56.117409086828978
 20
108.8539291475157
 30
0.0
 11
56.123421851309871
 21
108.8118397961496
 31
0.0
  0
LINE
  5
FA39
  8
3
 10
56.105383557867214
 20
108.8960184988821
 30
0.0
 11
56.117409086828978
 21
108.8539291475157
 31
0.0
  0
LINE
  5
FA3A
  8
3
 10
56.099370793386271
 20
108.9381078502485
 30
0.0
 11
56.105383557867214
 21
108.8960184988821
 31
0.0
  0
LINE
  5
FA3B
  8
3
 10
56.369945195026993
 20
108.7877887382259
 30
0.0
 11
56.375957959507872
 21
109.0403248464238
 31
0.0
  0
LINE
  5
FA3C
  8
3
 10
55.750630453493748
 20
109.154567371561
 30
0.0
 11
55.654426221799241
 21
109.154567371561
 31
0.0
  0
LINE
  5
FA3D
  8
3
 10
55.654426221799241
 20
109.154567371561
 30
0.0
 11
55.558221990104776
 21
109.160580136042
 31
0.0
  0
LINE
  5
FA3E
  8
3
 10
56.219626083004329
 20
109.1786184294847
 30
0.0
 11
56.12943461579075
 21
109.160580136042
 31
0.0
  0
LINE
  5
FA3F
  8
3
 10
56.039243148577178
 20
109.1485546070802
 30
0.0
 11
55.943038916882728
 21
109.1485546070802
 31
0.0
  0
LINE
  5
FA40
  8
3
 10
55.943038916882728
 20
109.1485546070802
 30
0.0
 11
55.84683468518822
 21
109.1485546070802
 31
0.0
  0
LINE
  5
FA41
  8
3
 10
56.12943461579075
 20
109.160580136042
 30
0.0
 11
56.039243148577178
 21
109.1485546070802
 31
0.0
  0
LINE
  5
FA42
  8
3
 10
55.84683468518822
 20
109.1485546070802
 30
0.0
 11
55.750630453493748
 21
109.154567371561
 31
0.0
  0
LINE
  5
FA43
  8
3
 10
54.668332846930838
 20
110.1466735109106
 30
0.0
 11
54.698396669335317
 21
110.1526862753914
 31
0.0
  0
LINE
  5
FA44
  8
3
 10
54.638269024526302
 20
110.1406607464295
 30
0.0
 11
54.668332846930838
 21
110.1466735109106
 31
0.0
  0
LINE
  5
FA45
  8
3
 10
54.602192437640859
 20
110.1166096885059
 30
0.0
 11
54.638269024526302
 21
110.1406607464295
 31
0.0
  0
LINE
  5
FA46
  8
3
 10
54.584154144198152
 20
110.1045841595441
 30
0.0
 11
54.602192437640859
 21
110.1166096885059
 31
0.0
  0
LINE
  5
FA47
  8
3
 10
54.566115850755381
 20
110.0925586305824
 30
0.0
 11
54.584154144198152
 21
110.1045841595441
 31
0.0
  0
LINE
  5
FA48
  8
3
 10
54.548077557312723
 20
110.0865458661014
 30
0.0
 11
54.566115850755381
 21
110.0925586305824
 31
0.0
  0
LINE
  5
FA49
  8
3
 10
54.530039263869952
 20
110.0745203371396
 30
0.0
 11
54.548077557312723
 21
110.0865458661014
 31
0.0
  0
LINE
  5
FA4A
  8
3
 10
56.400009017431529
 20
109.8520480513461
 30
0.0
 11
56.403015399672
 21
110.0023671633687
 31
0.0
  0
LINE
  5
FA4B
  8
3
 10
56.393996252950643
 20
109.5634353562626
 30
0.0
 11
56.400009017431529
 21
109.8520480513461
 31
0.0
  0
LINE
  5
FA4C
  8
3
 10
57.63863850049799
 20
108.6374696262033
 30
0.0
 11
57.63863850049799
 21
108.6855717420505
 31
0.0
  0
LINE
  5
FA4D
  8
3
 10
57.482306623994447
 20
108.8238653251113
 30
0.0
 11
57.482306623994447
 21
108.6254440972415
 31
0.0
  0
LINE
  5
FA4E
  8
3
 10
57.692753380826133
 20
108.0361931781127
 30
0.0
 11
57.650664029459762
 21
108.1985378190972
 31
0.0
  0
LINE
  5
FA4F
  8
3
 10
57.494332152956218
 20
108.2947420507916
 30
0.0
 11
57.494332152956218
 21
108.1744867611735
 31
0.0
  0
LINE
  5
FA50
  8
3
 10
57.548447033284418
 20
107.8798613016092
 30
0.0
 11
57.560472562246183
 21
107.8377719502428
 31
0.0
  0
LINE
  5
FA51
  8
3
 10
57.71680443874974
 20
107.9580272398609
 30
0.0
 11
57.692753380826133
 21
108.0361931781127
 31
0.0
  0
LINE
  5
FA52
  8
3
 10
57.746868261154219
 20
107.8798613016092
 30
0.0
 11
57.71680443874974
 21
107.9580272398609
 31
0.0
  0
LINE
  5
FA53
  8
3
 10
57.494332152956218
 20
108.1744867611735
 30
0.0
 11
57.506357681918047
 21
108.0361931781127
 31
0.0
  0
LINE
  5
FA54
  8
3
 10
57.51237044639899
 20
107.9941038267463
 30
0.0
 11
57.524395975360761
 21
107.9580272398609
 31
0.0
  0
LINE
  5
FA55
  8
3
 10
57.506357681918047
 20
108.0361931781127
 30
0.0
 11
57.51237044639899
 21
107.9941038267463
 31
0.0
  0
LINE
  5
FA56
  8
3
 10
57.536421504322533
 20
107.9159378884947
 30
0.0
 11
57.548447033284418
 21
107.8798613016092
 31
0.0
  0
LINE
  5
FA57
  8
3
 10
57.524395975360761
 20
107.9580272398609
 30
0.0
 11
57.536421504322533
 21
107.9159378884947
 31
0.0
  0
LINE
  5
FA58
  8
3
 10
57.488319388475333
 20
108.4450611628144
 30
0.0
 11
57.494332152956218
 21
108.2947420507916
 31
0.0
  0
LINE
  5
FA59
  8
3
 10
57.63262573601704
 20
108.3608824600816
 30
0.0
 11
57.63262573601704
 21
108.4149973404097
 31
0.0
  0
LINE
  5
FA5A
  8
3
 10
57.63863850049799
 20
108.3067675797535
 30
0.0
 11
57.63262573601704
 21
108.3608824600816
 31
0.0
  0
LINE
  5
FA5B
  8
3
 10
57.63262573601704
 20
108.4149973404097
 30
0.0
 11
57.63262573601704
 21
108.4751249852188
 31
0.0
  0
LINE
  5
FA5C
  8
3
 10
57.63262573601704
 20
108.5833547458751
 30
0.0
 11
57.63863850049799
 21
108.6374696262033
 31
0.0
  0
LINE
  5
FA5D
  8
3
 10
57.63262573601704
 20
108.4751249852188
 30
0.0
 11
57.63262573601704
 21
108.5292398655469
 31
0.0
  0
LINE
  5
FA5E
  8
3
 10
57.482306623994447
 20
108.6254440972415
 30
0.0
 11
57.488319388475333
 21
108.4450611628144
 31
0.0
  0
LINE
  5
FA5F
  8
3
 10
57.63262573601704
 20
108.5292398655469
 30
0.0
 11
57.63262573601704
 21
108.5833547458751
 31
0.0
  0
LINE
  5
FA60
  8
3
 10
57.63863850049799
 20
108.2526526994253
 30
0.0
 11
57.63863850049799
 21
108.3067675797535
 31
0.0
  0
LINE
  5
FA61
  8
3
 10
57.650664029459762
 20
108.1985378190972
 30
0.0
 11
57.63863850049799
 21
108.2526526994253
 31
0.0
  0
LINE
  5
FA62
  8
3
 10
57.470281095032611
 20
109.7678693486135
 30
0.0
 11
57.476293859513497
 21
109.5213460048962
 31
0.0
  0
LINE
  5
FA63
  8
3
 10
57.969340546947727
 20
109.5093204759345
 30
0.0
 11
58.02946819175682
 21
109.5754608852244
 31
0.0
  0
LINE
  5
FA64
  8
3
 10
57.476293859513497
 20
109.2748226611791
 30
0.0
 11
57.482306623994447
 21
109.0463376109048
 31
0.0
  0
LINE
  5
FA65
  8
3
 10
57.728829967711562
 20
109.0764014333092
 30
0.0
 11
57.740855496673333
 21
109.1004524912329
 31
0.0
  0
LINE
  5
FA66
  8
3
 10
57.71680443874974
 20
109.0583631398666
 30
0.0
 11
57.728829967711562
 21
109.0764014333092
 31
0.0
  0
LINE
  5
FA67
  8
3
 10
57.68674061634519
 20
108.9501333792103
 30
0.0
 11
57.71680443874974
 21
109.0583631398666
 31
0.0
  0
LINE
  5
FA68
  8
3
 10
57.482306623994447
 20
109.0463376109048
 30
0.0
 11
57.482306623994447
 21
108.8238653251113
 31
0.0
  0
LINE
  5
FA69
  8
3
 10
57.674715087383419
 20
108.9020312633631
 30
0.0
 11
57.68674061634519
 21
108.9501333792103
 31
0.0
  0
LINE
  5
FA6A
  8
3
 10
57.66268955842154
 20
108.847916383035
 30
0.0
 11
57.674715087383419
 21
108.9020312633631
 31
0.0
  0
LINE
  5
FA6B
  8
3
 10
57.656676793940697
 20
108.7938015027067
 30
0.0
 11
57.66268955842154
 21
108.847916383035
 31
0.0
  0
LINE
  5
FA6C
  8
3
 10
57.644651264978883
 20
108.7396866223786
 30
0.0
 11
57.656676793940697
 21
108.7938015027067
 31
0.0
  0
LINE
  5
FA6D
  8
3
 10
57.63863850049799
 20
108.6855717420505
 30
0.0
 11
57.644651264978883
 21
108.7396866223786
 31
0.0
  0
LINE
  5
FA6E
  8
3
 10
57.813008670444191
 20
109.2447588387746
 30
0.0
 11
57.825034199406019
 21
109.2688098966983
 31
0.0
  0
LINE
  5
FA6F
  8
3
 10
57.740855496673333
 20
109.1004524912329
 30
0.0
 11
57.752881025635162
 21
109.1245035491565
 31
0.0
  0
LINE
  5
FA70
  8
3
 10
57.800983141482419
 20
109.220707780851
 30
0.0
 11
57.813008670444191
 21
109.2447588387746
 31
0.0
  0
LINE
  5
FA71
  8
3
 10
57.788957612520647
 20
109.1966567229274
 30
0.0
 11
57.800983141482419
 21
109.220707780851
 31
0.0
  0
LINE
  5
FA72
  8
3
 10
57.776932083558762
 20
109.1726056650038
 30
0.0
 11
57.788957612520647
 21
109.1966567229274
 31
0.0
  0
LINE
  5
FA73
  8
3
 10
57.476293859513497
 20
109.5213460048962
 30
0.0
 11
57.476293859513497
 21
109.2748226611791
 31
0.0
  0
LINE
  5
FA74
  8
3
 10
57.752881025635162
 20
109.1245035491565
 30
0.0
 11
57.76490655459699
 21
109.1485546070802
 31
0.0
  0
LINE
  5
FA75
  8
3
 10
57.76490655459699
 20
109.1485546070802
 30
0.0
 11
57.776932083558762
 21
109.1726056650038
 31
0.0
  0
LINE
  5
FA76
  8
3
 10
57.849085257329619
 20
109.3169120125456
 30
0.0
 11
57.861110786291441
 21
109.3409630704691
 31
0.0
  0
LINE
  5
FA77
  8
3
 10
57.837059728367791
 20
109.292860954622
 30
0.0
 11
57.849085257329619
 21
109.3169120125456
 31
0.0
  0
LINE
  5
FA78
  8
3
 10
57.825034199406019
 20
109.2688098966983
 30
0.0
 11
57.837059728367791
 21
109.292860954622
 31
0.0
  0
LINE
  5
FA79
  8
3
 10
57.873136315253213
 20
109.3650141283928
 30
0.0
 11
57.885161844215048
 21
109.3890651863163
 31
0.0
  0
LINE
  5
FA7A
  8
3
 10
57.861110786291441
 20
109.3409630704691
 30
0.0
 11
57.873136315253213
 21
109.3650141283928
 31
0.0
  0
LINE
  5
FA7B
  8
3
 10
57.915225666619591
 20
109.4371673021636
 30
0.0
 11
57.969340546947727
 21
109.5093204759345
 31
0.0
  0
LINE
  5
FA7C
  8
3
 10
57.885161844215048
 20
109.3890651863163
 30
0.0
 11
57.915225666619591
 21
109.4371673021636
 31
0.0
  0
LINE
  5
FA7D
  8
3
 10
57.470281095032611
 20
110.0204054568114
 30
0.0
 11
57.470281095032611
 21
109.7678693486135
 31
0.0
  0
LINE
  5
FA7E
  8
3
 10
58.288017064435699
 20
109.8039459354988
 30
0.0
 11
58.360170238206621
 21
109.8520480513461
 31
0.0
  0
LINE
  5
FA7F
  8
3
 10
58.221876655145792
 20
109.7498310551707
 30
0.0
 11
58.288017064435699
 21
109.8039459354988
 31
0.0
  0
LINE
  5
FA80
  8
3
 10
58.155736245855877
 20
109.6957161748426
 30
0.0
 11
58.221876655145792
 21
109.7498310551707
 31
0.0
  0
LINE
  5
FA81
  8
3
 10
58.089595836565849
 20
109.6355885300335
 30
0.0
 11
58.155736245855877
 21
109.6957161748426
 31
0.0
  0
LINE
  5
FA82
  8
3
 10
58.02946819175682
 20
109.5754608852244
 30
0.0
 11
58.089595836565849
 21
109.6355885300335
 31
0.0
  0
LINE
  5
FA83
  8
3
 10
58.432323411977421
 20
109.8941374027123
 30
0.0
 11
58.504476585748328
 21
109.9362267540788
 31
0.0
  0
LINE
  5
FA84
  8
3
 10
58.360170238206621
 20
109.8520480513461
 30
0.0
 11
58.432323411977421
 21
109.8941374027123
 31
0.0
  0
LINE
  5
FA85
  8
3
 10
57.464268330551789
 20
110.5134521442457
 30
0.0
 11
57.464268330551789
 21
110.2669288005285
 31
0.0
  0
LINE
  5
FA86
  8
3
 10
55.119290182998697
 20
110.2128139202003
 30
0.0
 11
56.231651611966157
 21
110.2188266846813
 31
0.0
  0
LINE
  5
FA87
  8
3
 10
54.788588136548888
 20
110.1707245688341
 30
0.0
 11
54.824664723434317
 21
110.176737333315
 31
0.0
  0
LINE
  5
FA88
  8
3
 10
54.75852431414441
 20
110.1647118043532
 30
0.0
 11
54.788588136548888
 21
110.1707245688341
 31
0.0
  0
LINE
  5
FA89
  8
3
 10
54.728460491739916
 20
110.1586990398722
 30
0.0
 11
54.75852431414441
 21
110.1647118043532
 31
0.0
  0
LINE
  5
FA8A
  8
3
 10
54.824664723434317
 20
110.176737333315
 30
0.0
 11
54.854728545838931
 21
110.1827500977959
 31
0.0
  0
LINE
  5
FA8B
  8
3
 10
55.119290182998697
 20
110.2128139202003
 30
0.0
 11
55.119290182998697
 21
110.2128139202003
 31
0.0
  0
LINE
  5
FA8C
  8
3
 10
55.029098715785132
 20
110.2068011557194
 30
0.0
 11
55.059162538189611
 21
110.2068011557194
 31
0.0
  0
LINE
  5
FA8D
  8
3
 10
54.999034893380582
 20
110.2007883912386
 30
0.0
 11
55.029098715785132
 21
110.2068011557194
 31
0.0
  0
LINE
  5
FA8E
  8
3
 10
54.974983835456982
 20
110.1947756267577
 30
0.0
 11
54.999034893380582
 21
110.2007883912386
 31
0.0
  0
LINE
  5
FA8F
  8
3
 10
54.944920013052439
 20
110.1947756267577
 30
0.0
 11
54.974983835456982
 21
110.1947756267577
 31
0.0
  0
LINE
  5
FA90
  8
3
 10
54.914856190647889
 20
110.1887628622768
 30
0.0
 11
54.944920013052439
 21
110.1947756267577
 31
0.0
  0
LINE
  5
FA91
  8
3
 10
54.88479236824341
 20
110.1827500977959
 30
0.0
 11
54.914856190647889
 21
110.1887628622768
 31
0.0
  0
LINE
  5
FA92
  8
3
 10
54.854728545838931
 20
110.1827500977959
 30
0.0
 11
54.88479236824341
 21
110.1827500977959
 31
0.0
  0
LINE
  5
FA93
  8
3
 10
55.059162538189611
 20
110.2068011557194
 30
0.0
 11
55.119290182998697
 21
110.2128139202003
 31
0.0
  0
LINE
  5
FA94
  8
3
 10
57.45825556607079
 20
111.1994817630129
 30
0.0
 11
56.38356094641054
 21
111.1994817630129
 31
0.0
  0
LINE
  5
FA95
  8
3
 10
57.45825556607079
 20
110.9950477706622
 30
0.0
 11
57.464268330551789
 21
110.74193719452001
 31
0.0
  0
LINE
  5
FA96
  8
3
 10
57.464268330551789
 20
110.74193719452001
 30
0.0
 11
57.464268330551789
 21
110.5134521442457
 31
0.0
  0
LINE
  5
FA97
  8
3
 10
57.45825556607079
 20
111.1994817630129
 30
0.0
 11
57.45825556607079
 21
110.9950477706622
 31
0.0
  0
LINE
  5
FA98
  8
3
 10
58.149723481374927
 20
106.86370410433619
 30
0.0
 11
56.838940824537609
 21
106.86370410433619
 31
0.0
  0
LINE
  5
FA99
  8
3
 10
56.339881372622443
 20
107.7535932475102
 30
0.0
 11
56.33386860814155
 21
107.70549113166309
 31
0.0
  0
LINE
  5
FA9A
  8
3
 10
55.594298576990212
 20
106.86370410433619
 30
0.0
 11
55.486068816333933
 21
106.85769133985529
 31
0.0
  0
LINE
  5
FA9B
  8
3
 10
54.854728545838931
 20
106.90579345570259
 30
0.0
 11
54.752511549663467
 21
106.92984451362609
 31
0.0
  0
LINE
  5
FA9C
  8
3
 10
54.650294553488067
 20
106.95389557154969
 30
0.0
 11
54.554090321793602
 21
106.98997215843529
 31
0.0
  0
LINE
  5
FA9D
  8
3
 10
54.752511549663467
 20
106.92984451362609
 30
0.0
 11
54.650294553488067
 21
106.95389557154969
 31
0.0
  0
LINE
  5
FA9E
  8
3
 10
55.27562205950224
 20
106.86370410433619
 30
0.0
 11
55.16739229884589
 21
106.86971686881709
 31
0.0
  0
LINE
  5
FA9F
  8
3
 10
55.059162538189611
 20
106.87572963329799
 30
0.0
 11
54.956945542014267
 21
106.88775516225989
 31
0.0
  0
LINE
  5
FAA0
  8
3
 10
54.956945542014267
 20
106.88775516225989
 30
0.0
 11
54.854728545838931
 21
106.90579345570259
 31
0.0
  0
LINE
  5
FAA1
  8
3
 10
55.16739229884589
 20
106.86971686881709
 30
0.0
 11
55.059162538189611
 21
106.87572963329799
 31
0.0
  0
LINE
  5
FAA2
  8
3
 10
55.383851820158519
 20
106.85769133985529
 30
0.0
 11
55.27562205950224
 21
106.86370410433619
 31
0.0
  0
LINE
  5
FAA3
  8
3
 10
55.486068816333933
 20
106.85769133985529
 30
0.0
 11
55.383851820158519
 21
106.85769133985529
 31
0.0
  0
LINE
  5
FAA4
  8
3
 10
56.279753727813407
 20
107.30864867592319
 30
0.0
 11
56.273740963332529
 21
107.25453379559509
 31
0.0
  0
LINE
  5
FAA5
  8
3
 10
56.658557890110472
 20
107.17035509286229
 30
0.0
 11
56.568366422896901
 21
107.40485290761769
 31
0.0
  0
LINE
  5
FAA6
  8
3
 10
56.057281442019963
 20
106.92383174914529
 30
0.0
 11
56.033230384096299
 21
106.91180622018339
 31
0.0
  0
LINE
  5
FAA7
  8
3
 10
56.009179326172642
 20
106.89978069122159
 30
0.0
 11
55.985128268249042
 21
106.89376792674079
 31
0.0
  0
LINE
  5
FAA8
  8
3
 10
55.985128268249042
 20
106.89376792674079
 30
0.0
 11
55.961077210325442
 21
106.88174239777879
 31
0.0
  0
LINE
  5
FAA9
  8
3
 10
56.033230384096299
 20
106.91180622018339
 30
0.0
 11
56.009179326172642
 21
106.89978069122159
 31
0.0
  0
LINE
  5
FAAA
  8
3
 10
55.918987858959071
 20
106.87572963329799
 30
0.0
 11
55.810758098302777
 21
106.86971686881709
 31
0.0
  0
LINE
  5
FAAB
  8
3
 10
55.702528337646498
 20
106.86370410433619
 30
0.0
 11
55.594298576990212
 21
106.86370410433619
 31
0.0
  0
LINE
  5
FAAC
  8
3
 10
55.810758098302777
 20
106.86971686881709
 30
0.0
 11
55.702528337646498
 21
106.86370410433619
 31
0.0
  0
LINE
  5
FAAD
  8
3
 10
55.961077210325442
 20
106.88174239777879
 30
0.0
 11
55.918987858959071
 21
106.87572963329799
 31
0.0
  0
LINE
  5
FAAE
  8
3
 10
56.219626083004329
 20
107.07415086116789
 30
0.0
 11
56.2076005540425
 21
107.05009980324429
 31
0.0
  0
LINE
  5
FAAF
  8
3
 10
56.0813324999435
 20
106.93585727810709
 30
0.0
 11
56.057281442019963
 21
106.92383174914529
 31
0.0
  0
LINE
  5
FAB0
  8
3
 10
56.099370793386271
 20
106.94788280706879
 30
0.0
 11
56.0813324999435
 21
106.93585727810709
 31
0.0
  0
LINE
  5
FAB1
  8
3
 10
56.123421851309871
 20
106.95990833603069
 30
0.0
 11
56.099370793386271
 21
106.94788280706879
 31
0.0
  0
LINE
  5
FAB2
  8
3
 10
56.141460144752592
 20
106.97794662947339
 30
0.0
 11
56.123421851309871
 21
106.95990833603069
 31
0.0
  0
LINE
  5
FAB3
  8
3
 10
56.1594984381953
 20
106.99598492291599
 30
0.0
 11
56.141460144752592
 21
106.97794662947339
 31
0.0
  0
LINE
  5
FAB4
  8
3
 10
56.177536731638007
 20
107.01402321635889
 30
0.0
 11
56.1594984381953
 21
106.99598492291599
 31
0.0
  0
LINE
  5
FAB5
  8
3
 10
56.195575025080721
 20
107.03206150980149
 30
0.0
 11
56.177536731638007
 21
107.01402321635889
 31
0.0
  0
LINE
  5
FAB6
  8
3
 10
56.2076005540425
 20
107.05009980324429
 30
0.0
 11
56.195575025080721
 21
107.03206150980149
 31
0.0
  0
LINE
  5
FAB7
  8
3
 10
56.237664376447043
 20
107.09820191909149
 30
0.0
 11
56.219626083004329
 21
107.07415086116789
 31
0.0
  0
LINE
  5
FAB8
  8
3
 10
56.261715434370643
 20
107.20041891526679
 30
0.0
 11
56.237664376447043
 21
107.09820191909149
 31
0.0
  0
LINE
  5
FAB9
  8
3
 10
56.273740963332529
 20
107.25453379559509
 30
0.0
 11
56.261715434370643
 21
107.20041891526679
 31
0.0
  0
LINE
  5
FABA
  8
3
 10
56.796851473171238
 20
106.92383174914529
 30
0.0
 11
56.790838708690352
 21
106.92383174914529
 31
0.0
  0
LINE
  5
FABB
  8
3
 10
56.772800415247588
 20
106.92984451362609
 30
0.0
 11
56.658557890110472
 21
107.17035509286229
 31
0.0
  0
LINE
  5
FABC
  8
3
 10
56.77881317972853
 20
106.92383174914529
 30
0.0
 11
56.772800415247588
 21
106.92984451362609
 31
0.0
  0
LINE
  5
FABD
  8
3
 10
56.784825944209473
 20
106.92383174914529
 30
0.0
 11
56.77881317972853
 21
106.92383174914529
 31
0.0
  0
LINE
  5
FABE
  8
3
 10
56.790838708690352
 20
106.92383174914529
 30
0.0
 11
56.784825944209473
 21
106.92383174914529
 31
0.0
  0
LINE
  5
FABF
  8
3
 10
56.796851473171238
 20
106.91781898466439
 30
0.0
 11
56.796851473171238
 21
106.92383174914529
 31
0.0
  0
LINE
  5
FAC0
  8
3
 10
56.802864237652187
 20
106.91781898466439
 30
0.0
 11
56.796851473171238
 21
106.91781898466439
 31
0.0
  0
LINE
  5
FAC1
  8
3
 10
56.80887700213308
 20
106.91781898466439
 30
0.0
 11
56.802864237652187
 21
106.91781898466439
 31
0.0
  0
LINE
  5
FAC2
  8
3
 10
56.814889766613959
 20
106.91781898466439
 30
0.0
 11
56.80887700213308
 21
106.91781898466439
 31
0.0
  0
LINE
  5
FAC3
  8
3
 10
56.814889766613959
 20
106.90579345570259
 30
0.0
 11
56.814889766613959
 21
106.91781898466439
 31
0.0
  0
LINE
  5
FAC4
  8
3
 10
56.814889766613959
 20
106.89978069122159
 30
0.0
 11
56.814889766613959
 21
106.90579345570259
 31
0.0
  0
LINE
  5
FAC5
  8
3
 10
56.820902531094902
 20
106.89376792674079
 30
0.0
 11
56.814889766613959
 21
106.89978069122159
 31
0.0
  0
LINE
  5
FAC6
  8
3
 10
56.820902531094902
 20
106.88775516225989
 30
0.0
 11
56.820902531094902
 21
106.89376792674079
 31
0.0
  0
LINE
  5
FAC7
  8
3
 10
56.826915295575787
 20
106.88174239777879
 30
0.0
 11
56.820902531094902
 21
106.88775516225989
 31
0.0
  0
LINE
  5
FAC8
  8
3
 10
56.826915295575787
 20
106.87572963329799
 30
0.0
 11
56.826915295575787
 21
106.88174239777879
 31
0.0
  0
LINE
  5
FAC9
  8
3
 10
56.826915295575787
 20
106.86971686881709
 30
0.0
 11
56.826915295575787
 21
106.87572963329799
 31
0.0
  0
LINE
  5
FACA
  8
3
 10
56.832928060056673
 20
106.86370410433619
 30
0.0
 11
56.826915295575787
 21
106.86971686881709
 31
0.0
  0
LINE
  5
FACB
  8
3
 10
56.838940824537609
 20
106.86370410433619
 30
0.0
 11
56.832928060056673
 21
106.86370410433619
 31
0.0
  0
LINE
  5
FACC
  8
3
 10
56.309817550217957
 20
107.53713372619769
 30
0.0
 11
56.303804785737022
 21
107.4830188458694
 31
0.0
  0
LINE
  5
FACD
  8
3
 10
56.291779256775243
 20
107.3687763207322
 30
0.0
 11
56.279753727813407
 21
107.30864867592319
 31
0.0
  0
LINE
  5
FACE
  8
3
 10
56.297792021256129
 20
107.42289120106039
 30
0.0
 11
56.291779256775243
 21
107.3687763207322
 31
0.0
  0
LINE
  5
FACF
  8
3
 10
56.303804785737022
 20
107.4830188458694
 30
0.0
 11
56.297792021256129
 21
107.42289120106039
 31
0.0
  0
LINE
  5
FAD0
  8
3
 10
56.568366422896901
 20
107.40485290761769
 30
0.0
 11
56.502226013606872
 21
107.633337957892
 31
0.0
  0
LINE
  5
FAD1
  8
3
 10
56.315830314698843
 20
107.5972613710066
 30
0.0
 11
56.309817550217957
 21
107.53713372619769
 31
0.0
  0
LINE
  5
FAD2
  8
3
 10
56.327855843660608
 20
107.6513762513348
 30
0.0
 11
56.315830314698843
 21
107.5972613710066
 31
0.0
  0
LINE
  5
FAD3
  8
3
 10
56.33386860814155
 20
107.70549113166309
 30
0.0
 11
56.327855843660608
 21
107.6513762513348
 31
0.0
  0
LINE
  5
FAD4
  8
3
 10
56.351906901584272
 20
107.8016953633574
 30
0.0
 11
56.339881372622443
 21
107.7535932475102
 31
0.0
  0
LINE
  5
FAD5
  8
3
 10
57.596549149131619
 20
107.7295421895866
 30
0.0
 11
57.60857467809344
 21
107.6934656027009
 31
0.0
  0
LINE
  5
FAD6
  8
3
 10
57.849085257329619
 20
107.6694145447774
 30
0.0
 11
57.813008670444191
 21
107.7355549540674
 31
0.0
  0
LINE
  5
FAD7
  8
3
 10
58.209851126183963
 20
107.24250826663319
 30
0.0
 11
58.149723481374927
 21
107.29662314696139
 31
0.0
  0
LINE
  5
FAD8
  8
3
 10
57.800983141482419
 20
107.28459761799949
 30
0.0
 11
57.825034199406019
 21
107.24852103111409
 31
0.0
  0
LINE
  5
FAD9
  8
3
 10
58.083583072084963
 20
106.92984451362609
 30
0.0
 11
58.149723481374927
 21
106.86370410433619
 31
0.0
  0
LINE
  5
FADA
  8
3
 10
58.05351924968042
 20
106.96592110051169
 30
0.0
 11
58.083583072084963
 21
106.92984451362609
 31
0.0
  0
LINE
  5
FADB
  8
3
 10
58.023455427275877
 20
107.00199768739699
 30
0.0
 11
58.05351924968042
 21
106.96592110051169
 31
0.0
  0
LINE
  5
FADC
  8
3
 10
58.348144709244743
 20
107.14630403493869
 30
0.0
 11
58.275991535473928
 21
107.19440615078589
 31
0.0
  0
LINE
  5
FADD
  8
3
 10
58.275991535473928
 20
107.19440615078589
 30
0.0
 11
58.209851126183963
 21
107.24250826663319
 31
0.0
  0
LINE
  5
FADE
  8
3
 10
58.408272354053821
 20
107.10421468357239
 30
0.0
 11
58.348144709244743
 21
107.14630403493869
 31
0.0
  0
LINE
  5
FADF
  8
3
 10
58.438336176458357
 20
107.08016362564879
 30
0.0
 11
58.408272354053821
 21
107.10421468357239
 31
0.0
  0
LINE
  5
FAE0
  8
3
 10
58.474412763343793
 20
107.06212533220609
 30
0.0
 11
58.438336176458357
 21
107.08016362564879
 31
0.0
  0
LINE
  5
FAE1
  8
3
 10
58.504476585748328
 20
107.04408703876349
 30
0.0
 11
58.474412763343793
 21
107.06212533220609
 31
0.0
  0
LINE
  5
FAE2
  8
3
 10
57.963327782466848
 20
107.06813809668699
 30
0.0
 11
57.993391604871327
 21
107.03206150980149
 31
0.0
  0
LINE
  5
FAE3
  8
3
 10
57.933263960062298
 20
107.10421468357239
 30
0.0
 11
57.963327782466848
 21
107.06813809668699
 31
0.0
  0
LINE
  5
FAE4
  8
3
 10
57.909212902138698
 20
107.13427850597699
 30
0.0
 11
57.933263960062298
 21
107.10421468357239
 31
0.0
  0
LINE
  5
FAE5
  8
3
 10
57.879149079734162
 20
107.17035509286229
 30
0.0
 11
57.909212902138698
 21
107.13427850597699
 31
0.0
  0
LINE
  5
FAE6
  8
3
 10
57.855098021810562
 20
107.20643167974779
 30
0.0
 11
57.879149079734162
 21
107.17035509286229
 31
0.0
  0
LINE
  5
FAE7
  8
3
 10
57.825034199406019
 20
107.24852103111409
 30
0.0
 11
57.855098021810562
 21
107.20643167974779
 31
0.0
  0
LINE
  5
FAE8
  8
3
 10
57.993391604871327
 20
107.03206150980149
 30
0.0
 11
58.023455427275877
 21
107.00199768739699
 31
0.0
  0
LINE
  5
FAE9
  8
3
 10
57.620600207055219
 20
107.6573890158157
 30
0.0
 11
57.63262573601704
 21
107.6213124289303
 31
0.0
  0
LINE
  5
FAEA
  8
3
 10
57.60857467809344
 20
107.6934656027009
 30
0.0
 11
57.620600207055219
 21
107.6573890158157
 31
0.0
  0
LINE
  5
FAEB
  8
3
 10
57.674715087383419
 20
107.5190954327549
 30
0.0
 11
57.710791674268791
 21
107.4649805524267
 31
0.0
  0
LINE
  5
FAEC
  8
3
 10
57.66268955842154
 20
107.5551720196403
 30
0.0
 11
57.674715087383419
 21
107.5190954327549
 31
0.0
  0
LINE
  5
FAED
  8
3
 10
57.650664029459762
 20
107.5852358420448
 30
0.0
 11
57.66268955842154
 21
107.5551720196403
 31
0.0
  0
LINE
  5
FAEE
  8
3
 10
57.63262573601704
 20
107.6213124289303
 30
0.0
 11
57.650664029459762
 21
107.5852358420448
 31
0.0
  0
LINE
  5
FAEF
  8
3
 10
57.776932083558762
 20
107.32668696936589
 30
0.0
 11
57.800983141482419
 21
107.28459761799949
 31
0.0
  0
LINE
  5
FAF0
  8
3
 10
57.752881025635162
 20
107.3687763207322
 30
0.0
 11
57.776932083558762
 21
107.32668696936589
 31
0.0
  0
LINE
  5
FAF1
  8
3
 10
57.728829967711562
 20
107.41687843657949
 30
0.0
 11
57.752881025635162
 21
107.3687763207322
 31
0.0
  0
LINE
  5
FAF2
  8
3
 10
57.710791674268791
 20
107.4649805524267
 30
0.0
 11
57.728829967711562
 21
107.41687843657949
 31
0.0
  0
LINE
  5
FAF3
  8
3
 10
58.149723481374927
 20
107.29662314696139
 30
0.0
 11
58.089595836565849
 21
107.35073802728949
 31
0.0
  0
LINE
  5
FAF4
  8
3
 10
58.089595836565849
 20
107.35073802728949
 30
0.0
 11
58.035480956237713
 21
107.41086567209859
 31
0.0
  0
LINE
  5
FAF5
  8
3
 10
57.891174608695991
 20
107.5972613710066
 30
0.0
 11
57.849085257329619
 21
107.6694145447774
 31
0.0
  0
LINE
  5
FAF6
  8
3
 10
57.981366075909563
 20
107.47099331690769
 30
0.0
 11
57.939276724543191
 21
107.53713372619769
 31
0.0
  0
LINE
  5
FAF7
  8
3
 10
57.939276724543191
 20
107.53713372619769
 30
0.0
 11
57.891174608695991
 21
107.5972613710066
 31
0.0
  0
LINE
  5
FAF8
  8
3
 10
58.035480956237713
 20
107.41086567209859
 30
0.0
 11
57.981366075909563
 21
107.47099331690769
 31
0.0
  0
LINE
  5
FAF9
  8
3
 10
57.584523620169847
 20
107.7656187764719
 30
0.0
 11
57.596549149131619
 21
107.7295421895866
 31
0.0
  0
LINE
  5
FAFA
  8
3
 10
57.572498091207962
 20
107.8016953633574
 30
0.0
 11
57.584523620169847
 21
107.7656187764719
 31
0.0
  0
LINE
  5
FAFB
  8
3
 10
57.813008670444191
 20
107.7355549540674
 30
0.0
 11
57.776932083558762
 21
107.8077081278383
 31
0.0
  0
LINE
  5
FAFC
  8
3
 10
56.502226013606872
 20
107.633337957892
 30
0.0
 11
56.448111133278729
 21
107.8618230081664
 31
0.0
  0
LINE
  5
FAFD
  8
3
 10
56.35791966606515
 20
107.8497974792047
 30
0.0
 11
56.351906901584272
 21
107.8016953633574
 31
0.0
  0
LINE
  5
FAFE
  8
3
 10
57.776932083558762
 20
107.8077081278383
 30
0.0
 11
57.746868261154219
 21
107.8798613016092
 31
0.0
  0
LINE
  5
FAFF
  8
3
 10
57.560472562246183
 20
107.8377719502428
 30
0.0
 11
57.572498091207962
 21
107.8016953633574
 31
0.0
  0
LINE
  5
FB00
  8
3
 10
60.807365381935
 20
108.2466399349444
 30
0.0
 11
60.771288795049571
 21
108.2947420507916
 31
0.0
  0
LINE
  5
FB01
  8
3
 10
60.759263266087743
 20
109.5694481207435
 30
0.0
 11
60.795339852973228
 21
109.6235630010716
 31
0.0
  0
LINE
  5
FB02
  8
3
 10
60.951671729476722
 20
108.1023335874028
 30
0.0
 11
60.843441968820372
 21
108.1985378190972
 31
0.0
  0
LINE
  5
FB03
  8
3
 10
60.957684493957657
 20
107.8497974792047
 30
0.0
 11
60.957684493957657
 21
107.8618230081664
 31
0.0
  0
LINE
  5
FB04
  8
3
 10
60.951671729476722
 20
107.8497974792047
 30
0.0
 11
60.957684493957657
 21
107.8497974792047
 31
0.0
  0
LINE
  5
FB05
  8
3
 10
60.957684493957657
 20
108.0662570005172
 30
0.0
 11
60.951671729476722
 21
108.1023335874028
 31
0.0
  0
LINE
  5
FB06
  8
3
 10
60.963697258438494
 20
108.0482187070745
 30
0.0
 11
60.957684493957657
 21
108.0662570005172
 31
0.0
  0
LINE
  5
FB07
  8
3
 10
60.969710022919429
 20
107.9820782977845
 30
0.0
 11
60.969710022919429
 21
108.0061293557082
 31
0.0
  0
LINE
  5
FB08
  8
3
 10
60.969710022919429
 20
107.9640400043419
 30
0.0
 11
60.969710022919429
 21
107.9820782977845
 31
0.0
  0
LINE
  5
FB09
  8
3
 10
60.969710022919429
 20
108.0061293557082
 30
0.0
 11
60.963697258438494
 21
108.0301804136318
 31
0.0
  0
LINE
  5
FB0A
  8
3
 10
60.963697258438494
 20
108.0301804136318
 30
0.0
 11
60.963697258438494
 21
108.0482187070745
 31
0.0
  0
LINE
  5
FB0B
  8
3
 10
60.969710022919429
 20
107.9219506529755
 30
0.0
 11
60.969710022919429
 21
107.9399889464183
 31
0.0
  0
LINE
  5
FB0C
  8
3
 10
60.969710022919429
 20
107.9039123595328
 30
0.0
 11
60.969710022919429
 21
107.9219506529755
 31
0.0
  0
LINE
  5
FB0D
  8
3
 10
60.963697258438494
 20
107.8738485371283
 30
0.0
 11
60.963697258438494
 21
107.8858740660901
 31
0.0
  0
LINE
  5
FB0E
  8
3
 10
60.957684493957657
 20
107.8618230081664
 30
0.0
 11
60.963697258438494
 21
107.8738485371283
 31
0.0
  0
LINE
  5
FB0F
  8
3
 10
60.963697258438494
 20
107.8858740660901
 30
0.0
 11
60.969710022919429
 21
107.9039123595328
 31
0.0
  0
LINE
  5
FB10
  8
3
 10
60.969710022919429
 20
107.9399889464183
 30
0.0
 11
60.969710022919429
 21
107.9640400043419
 31
0.0
  0
LINE
  5
FB11
  8
3
 10
60.843441968820372
 20
108.1985378190972
 30
0.0
 11
60.807365381935
 21
108.2466399349444
 31
0.0
  0
LINE
  5
FB12
  8
3
 10
60.837429204339543
 20
109.6716651169189
 30
0.0
 11
60.879518555705857
 21
109.725779997247
 31
0.0
  0
LINE
  5
FB13
  8
3
 10
60.795339852973228
 20
109.6235630010716
 30
0.0
 11
60.837429204339543
 21
109.6716651169189
 31
0.0
  0
LINE
  5
FB14
  8
3
 10
61.077939783575708
 20
109.9001501671933
 30
0.0
 11
61.132054663903908
 21
109.9422395185596
 31
0.0
  0
LINE
  5
FB15
  8
3
 10
61.023824903247572
 20
109.858060815827
 30
0.0
 11
61.077939783575708
 21
109.9001501671933
 31
0.0
  0
LINE
  5
FB16
  8
3
 10
60.975722787400308
 20
109.8159714644606
 30
0.0
 11
61.023824903247572
 21
109.858060815827
 31
0.0
  0
LINE
  5
FB17
  8
3
 10
60.879518555705857
 20
109.725779997247
 30
0.0
 11
60.927620671553107
 21
109.7738821130944
 31
0.0
  0
LINE
  5
FB18
  8
3
 10
60.927620671553107
 20
109.7738821130944
 30
0.0
 11
60.975722787400308
 21
109.8159714644606
 31
0.0
  0
LINE
  5
FB19
  8
3
 10
60.248178285210862
 20
108.655507919646
 30
0.0
 11
60.248178285210862
 21
108.6134185682797
 31
0.0
  0
LINE
  5
FB1A
  8
3
 10
60.645020740950571
 20
108.5893675103561
 30
0.0
 11
60.626982447507856
 21
108.649495155165
 31
0.0
  0
LINE
  5
FB1B
  8
3
 10
60.254191049691741
 20
108.1384101742882
 30
0.0
 11
58.877267983564451
 21
108.1323974098073
 31
0.0
  0
LINE
  5
FB1C
  8
3
 10
59.141829620724216
 20
107.8618230081664
 30
0.0
 11
59.159867914166938
 21
107.8437847147238
 31
0.0
  0
LINE
  5
FB1D
  8
3
 10
58.877267983564451
 20
108.1323974098073
 30
0.0
 11
58.877267983564451
 21
108.1143591163646
 31
0.0
  0
LINE
  5
FB1E
  8
3
 10
58.895306277007158
 20
108.0722697649981
 30
0.0
 11
58.913344570449823
 21
108.0482187070745
 31
0.0
  0
LINE
  5
FB1F
  8
3
 10
58.88328074804533
 20
108.0903080584409
 30
0.0
 11
58.895306277007158
 21
108.0722697649981
 31
0.0
  0
LINE
  5
FB20
  8
3
 10
58.877267983564451
 20
108.1143591163646
 30
0.0
 11
58.88328074804533
 21
108.0903080584409
 31
0.0
  0
LINE
  5
FB21
  8
3
 10
58.985497744220737
 20
107.9820782977845
 30
0.0
 11
59.009548802144337
 21
107.9580272398609
 31
0.0
  0
LINE
  5
FB22
  8
3
 10
58.955433921816187
 20
108.0061293557082
 30
0.0
 11
58.985497744220737
 21
107.9820782977845
 31
0.0
  0
LINE
  5
FB23
  8
3
 10
58.93739562837348
 20
108.024167649151
 30
0.0
 11
58.955433921816187
 21
108.0061293557082
 31
0.0
  0
LINE
  5
FB24
  8
3
 10
58.913344570449823
 20
108.0482187070745
 30
0.0
 11
58.93739562837348
 21
108.024167649151
 31
0.0
  0
LINE
  5
FB25
  8
3
 10
59.117778562800623
 20
107.8738485371283
 30
0.0
 11
59.141829620724216
 21
107.8618230081664
 31
0.0
  0
LINE
  5
FB26
  8
3
 10
59.087714740396137
 20
107.891886830571
 30
0.0
 11
59.117778562800623
 21
107.8738485371283
 31
0.0
  0
LINE
  5
FB27
  8
3
 10
59.063663682472537
 20
107.9159378884947
 30
0.0
 11
59.087714740396137
 21
107.891886830571
 31
0.0
  0
LINE
  5
FB28
  8
3
 10
59.033599860067937
 20
107.9339761819373
 30
0.0
 11
59.063663682472537
 21
107.9159378884947
 31
0.0
  0
LINE
  5
FB29
  8
3
 10
59.009548802144337
 20
107.9580272398609
 30
0.0
 11
59.033599860067937
 21
107.9339761819373
 31
0.0
  0
LINE
  5
FB2A
  8
3
 10
60.260203814172627
 20
108.1865122901352
 30
0.0
 11
60.260203814172627
 21
108.1804995256544
 31
0.0
  0
LINE
  5
FB2B
  8
3
 10
60.254191049691741
 20
108.1444229387689
 30
0.0
 11
60.254191049691741
 21
108.1384101742882
 31
0.0
  0
LINE
  5
FB2C
  8
3
 10
60.254191049691741
 20
108.1504357032499
 30
0.0
 11
60.254191049691741
 21
108.1444229387689
 31
0.0
  0
LINE
  5
FB2D
  8
3
 10
60.254191049691741
 20
108.1564484677308
 30
0.0
 11
60.254191049691741
 21
108.1504357032499
 31
0.0
  0
LINE
  5
FB2E
  8
3
 10
60.254191049691741
 20
108.1624612322116
 30
0.0
 11
60.254191049691741
 21
108.1564484677308
 31
0.0
  0
LINE
  5
FB2F
  8
3
 10
60.260203814172627
 20
108.1624612322116
 30
0.0
 11
60.254191049691741
 21
108.1624612322116
 31
0.0
  0
LINE
  5
FB30
  8
3
 10
60.260203814172627
 20
108.1684739966926
 30
0.0
 11
60.260203814172627
 21
108.1624612322116
 31
0.0
  0
LINE
  5
FB31
  8
3
 10
60.260203814172627
 20
108.1744867611735
 30
0.0
 11
60.260203814172627
 21
108.1684739966926
 31
0.0
  0
LINE
  5
FB32
  8
3
 10
60.260203814172627
 20
108.1804995256544
 30
0.0
 11
60.260203814172627
 21
108.1744867611735
 31
0.0
  0
LINE
  5
FB33
  8
3
 10
60.254191049691741
 20
108.3849335180051
 30
0.0
 11
60.254191049691741
 21
108.3488569311198
 31
0.0
  0
LINE
  5
FB34
  8
3
 10
60.741224972645028
 20
108.3488569311198
 30
0.0
 11
60.711161150240478
 21
108.4089845759289
 31
0.0
  0
LINE
  5
FB35
  8
3
 10
60.254191049691741
 20
108.3488569311198
 30
0.0
 11
60.260203814172627
 21
108.3127803442343
 31
0.0
  0
LINE
  5
FB36
  8
3
 10
60.771288795049571
 20
108.2947420507916
 30
0.0
 11
60.741224972645028
 21
108.3488569311198
 31
0.0
  0
LINE
  5
FB37
  8
3
 10
60.254191049691741
 20
108.4570866917761
 30
0.0
 11
60.254191049691741
 21
108.4210101048908
 31
0.0
  0
LINE
  5
FB38
  8
3
 10
60.711161150240478
 20
108.4089845759289
 30
0.0
 11
60.687110092316878
 21
108.4630994562569
 31
0.0
  0
LINE
  5
FB39
  8
3
 10
60.254191049691741
 20
108.4210101048908
 30
0.0
 11
60.254191049691741
 21
108.3849335180051
 31
0.0
  0
LINE
  5
FB3A
  8
3
 10
60.248178285210862
 20
108.6134185682797
 30
0.0
 11
60.254191049691741
 21
108.5713292169132
 31
0.0
  0
LINE
  5
FB3B
  8
3
 10
60.254191049691741
 20
108.4931632786616
 30
0.0
 11
60.254191049691741
 21
108.4570866917761
 31
0.0
  0
LINE
  5
FB3C
  8
3
 10
60.254191049691741
 20
108.5292398655469
 30
0.0
 11
60.254191049691741
 21
108.4931632786616
 31
0.0
  0
LINE
  5
FB3D
  8
3
 10
60.687110092316878
 20
108.4630994562569
 30
0.0
 11
60.663059034393278
 21
108.5292398655469
 31
0.0
  0
LINE
  5
FB3E
  8
3
 10
60.254191049691741
 20
108.5713292169132
 30
0.0
 11
60.254191049691741
 21
108.5292398655469
 31
0.0
  0
LINE
  5
FB3F
  8
3
 10
60.663059034393278
 20
108.5292398655469
 30
0.0
 11
60.645020740950571
 21
108.5893675103561
 31
0.0
  0
LINE
  5
FB40
  8
3
 10
60.260203814172627
 20
108.3127803442343
 30
0.0
 11
60.260203814172627
 21
108.276703757349
 31
0.0
  0
LINE
  5
FB41
  8
3
 10
60.260203814172627
 20
108.1925250546163
 30
0.0
 11
60.260203814172627
 21
108.1865122901352
 31
0.0
  0
LINE
  5
FB42
  8
3
 10
60.260203814172627
 20
108.1985378190972
 30
0.0
 11
60.260203814172627
 21
108.1925250546163
 31
0.0
  0
LINE
  5
FB43
  8
3
 10
60.266216578653513
 20
108.2045505835781
 30
0.0
 11
60.260203814172627
 21
108.1985378190972
 31
0.0
  0
LINE
  5
FB44
  8
3
 10
60.260203814172627
 20
108.276703757349
 30
0.0
 11
60.266216578653513
 21
108.2045505835781
 31
0.0
  0
LINE
  5
FB45
  8
3
 10
60.163999582478162
 20
109.1184907846756
 30
0.0
 11
60.067795350783648
 21
109.1184907846756
 31
0.0
  0
LINE
  5
FB46
  8
3
 10
58.919357334930773
 20
108.8659546764776
 30
0.0
 11
60.242165520729912
 21
108.8659546764776
 31
0.0
  0
LINE
  5
FB47
  8
3
 10
59.189931736571481
 20
110.1346479819487
 30
0.0
 11
60.344382516905313
 21
110.1346479819487
 31
0.0
  0
LINE
  5
FB48
  8
3
 10
59.280123203785053
 20
109.1004524912329
 30
0.0
 11
59.195944501052423
 21
109.0764014333092
 31
0.0
  0
LINE
  5
FB49
  8
3
 10
58.90733180596893
 20
108.8659546764776
 30
0.0
 11
58.919357334930773
 21
108.8659546764776
 31
0.0
  0
LINE
  5
FB4A
  8
3
 10
58.901319041488051
 20
108.8659546764776
 30
0.0
 11
58.90733180596893
 21
108.8659546764776
 31
0.0
  0
LINE
  5
FB4B
  8
3
 10
58.901319041488051
 20
108.8719674409585
 30
0.0
 11
58.901319041488051
 21
108.8659546764776
 31
0.0
  0
LINE
  5
FB4C
  8
3
 10
58.895306277007158
 20
108.8719674409585
 30
0.0
 11
58.901319041488051
 21
108.8719674409585
 31
0.0
  0
LINE
  5
FB4D
  8
3
 10
58.895306277007158
 20
108.8779802054394
 30
0.0
 11
58.895306277007158
 21
108.8719674409585
 31
0.0
  0
LINE
  5
FB4E
  8
3
 10
58.889293512526223
 20
108.8779802054394
 30
0.0
 11
58.895306277007158
 21
108.8779802054394
 31
0.0
  0
LINE
  5
FB4F
  8
3
 10
58.889293512526223
 20
108.8839929699203
 30
0.0
 11
58.889293512526223
 21
108.8779802054394
 31
0.0
  0
LINE
  5
FB50
  8
3
 10
58.889293512526223
 20
108.8900057344014
 30
0.0
 11
58.889293512526223
 21
108.8839929699203
 31
0.0
  0
LINE
  5
FB51
  8
3
 10
58.889293512526223
 20
108.8960184988821
 30
0.0
 11
58.889293512526223
 21
108.8900057344014
 31
0.0
  0
LINE
  5
FB52
  8
3
 10
58.889293512526223
 20
108.9020312633631
 30
0.0
 11
58.889293512526223
 21
108.8960184988821
 31
0.0
  0
LINE
  5
FB53
  8
3
 10
59.027587095587101
 20
109.0102610240194
 30
0.0
 11
58.889293512526223
 21
108.9020312633631
 31
0.0
  0
LINE
  5
FB54
  8
3
 10
59.111765798319787
 20
109.0463376109048
 30
0.0
 11
59.027587095587101
 21
109.0102610240194
 31
0.0
  0
LINE
  5
FB55
  8
3
 10
59.195944501052423
 20
109.0764014333092
 30
0.0
 11
59.111765798319787
 21
109.0463376109048
 31
0.0
  0
LINE
  5
FB56
  8
3
 10
59.370314670998681
 20
109.1124780201948
 30
0.0
 11
59.280123203785053
 21
109.1004524912329
 31
0.0
  0
LINE
  5
FB57
  8
3
 10
59.965578354608247
 20
109.1184907846756
 30
0.0
 11
59.863361358432911
 21
109.1245035491565
 31
0.0
  0
LINE
  5
FB58
  8
3
 10
59.466518902693082
 20
109.1245035491565
 30
0.0
 11
59.370314670998681
 21
109.1124780201948
 31
0.0
  0
LINE
  5
FB59
  8
3
 10
60.067795350783648
 20
109.1184907846756
 30
0.0
 11
59.965578354608247
 21
109.1184907846756
 31
0.0
  0
LINE
  5
FB5A
  8
3
 10
59.863361358432911
 20
109.1245035491565
 30
0.0
 11
59.761144362257511
 21
109.1245035491565
 31
0.0
  0
LINE
  5
FB5B
  8
3
 10
59.761144362257511
 20
109.1245035491565
 30
0.0
 11
59.658927366082111
 21
109.1245035491565
 31
0.0
  0
LINE
  5
FB5C
  8
3
 10
59.658927366082111
 20
109.1245035491565
 30
0.0
 11
59.562723134387589
 21
109.1245035491565
 31
0.0
  0
LINE
  5
FB5D
  8
3
 10
59.562723134387589
 20
109.1245035491565
 30
0.0
 11
59.466518902693082
 21
109.1245035491565
 31
0.0
  0
LINE
  5
FB5E
  8
3
 10
58.660808462251872
 20
110.0023671633687
 30
0.0
 11
58.744987164984572
 21
110.0324309857733
 31
0.0
  0
LINE
  5
FB5F
  8
3
 10
58.582642524000079
 20
109.9723033409641
 30
0.0
 11
58.660808462251872
 21
110.0023671633687
 31
0.0
  0
LINE
  5
FB60
  8
3
 10
59.129804091762452
 20
110.1166096885059
 30
0.0
 11
59.135816856243402
 21
110.1166096885059
 31
0.0
  0
LINE
  5
FB61
  8
3
 10
59.093727504877023
 20
110.1226224529868
 30
0.0
 11
59.099740269357909
 21
110.1166096885059
 31
0.0
  0
LINE
  5
FB62
  8
3
 10
58.913344570449823
 20
110.0805331016206
 30
0.0
 11
59.093727504877023
 21
110.1226224529868
 31
0.0
  0
LINE
  5
FB63
  8
3
 10
59.117778562800623
 20
110.1166096885059
 30
0.0
 11
59.129804091762452
 21
110.1166096885059
 31
0.0
  0
LINE
  5
FB64
  8
3
 10
59.111765798319787
 20
110.1166096885059
 30
0.0
 11
59.117778562800623
 21
110.1166096885059
 31
0.0
  0
LINE
  5
FB65
  8
3
 10
59.105753033838852
 20
110.1166096885059
 30
0.0
 11
59.111765798319787
 21
110.1166096885059
 31
0.0
  0
LINE
  5
FB66
  8
3
 10
59.099740269357909
 20
110.1166096885059
 30
0.0
 11
59.105753033838852
 21
110.1166096885059
 31
0.0
  0
LINE
  5
FB67
  8
3
 10
58.829165867717187
 20
110.0564820436969
 30
0.0
 11
58.913344570449823
 21
110.0805331016206
 31
0.0
  0
LINE
  5
FB68
  8
3
 10
58.744987164984572
 20
110.0324309857733
 30
0.0
 11
58.829165867717187
 21
110.0564820436969
 31
0.0
  0
LINE
  5
FB69
  8
3
 10
59.14182962072428
 20
110.1166096885059
 30
0.0
 11
59.147842385205173
 21
110.1226224529868
 31
0.0
  0
LINE
  5
FB6A
  8
3
 10
59.135816856243402
 20
110.1166096885059
 30
0.0
 11
59.14182962072428
 21
110.1166096885059
 31
0.0
  0
LINE
  5
FB6B
  8
3
 10
59.159867914166938
 20
110.1226224529868
 30
0.0
 11
59.159867914166938
 21
110.1286352174677
 31
0.0
  0
LINE
  5
FB6C
  8
3
 10
59.153855149686052
 20
110.1226224529868
 30
0.0
 11
59.159867914166938
 21
110.1226224529868
 31
0.0
  0
LINE
  5
FB6D
  8
3
 10
59.147842385205173
 20
110.1226224529868
 30
0.0
 11
59.153855149686052
 21
110.1226224529868
 31
0.0
  0
LINE
  5
FB6E
  8
3
 10
59.159867914166938
 20
110.1286352174677
 30
0.0
 11
59.165880678647881
 21
110.1286352174677
 31
0.0
  0
LINE
  5
FB6F
  8
3
 10
59.189931736571481
 20
110.1346479819487
 30
0.0
 11
59.189931736571481
 21
110.1346479819487
 31
0.0
  0
LINE
  5
FB70
  8
3
 10
59.177906207609709
 20
110.1286352174677
 30
0.0
 11
59.189931736571481
 21
110.1346479819487
 31
0.0
  0
LINE
  5
FB71
  8
3
 10
59.171893443128774
 20
110.1286352174677
 30
0.0
 11
59.177906207609709
 21
110.1286352174677
 31
0.0
  0
LINE
  5
FB72
  8
3
 10
59.165880678647881
 20
110.1286352174677
 30
0.0
 11
59.171893443128774
 21
110.1286352174677
 31
0.0
  0
LINE
  5
FB73
  8
3
 10
60.356408045867141
 20
109.5754608852244
 30
0.0
 11
60.356408045867141
 21
109.5093204759345
 31
0.0
  0
LINE
  5
FB74
  8
3
 10
60.723186679202321
 20
109.5213460048962
 30
0.0
 11
60.759263266087743
 21
109.5694481207435
 31
0.0
  0
LINE
  5
FB75
  8
3
 10
60.590905860622428
 20
109.0463376109048
 30
0.0
 11
60.614956918546021
 21
109.1786184294847
 31
0.0
  0
LINE
  5
FB76
  8
3
 10
60.248178285210862
 20
108.7036100354932
 30
0.0
 11
60.248178285210862
 21
108.655507919646
 31
0.0
  0
LINE
  5
FB77
  8
3
 10
60.242165520729912
 20
108.7517121513404
 30
0.0
 11
60.248178285210862
 21
108.7036100354932
 31
0.0
  0
LINE
  5
FB78
  8
3
 10
60.242165520729912
 20
108.8058270316686
 30
0.0
 11
60.242165520729912
 21
108.7517121513404
 31
0.0
  0
LINE
  5
FB79
  8
3
 10
60.242165520729912
 20
108.8659546764776
 30
0.0
 11
60.242165520729912
 21
108.8058270316686
 31
0.0
  0
LINE
  5
FB7A
  8
3
 10
60.590905860622428
 20
108.9801972016148
 30
0.0
 11
60.590905860622428
 21
109.0463376109048
 31
0.0
  0
LINE
  5
FB7B
  8
3
 10
60.590905860622428
 20
108.914056792325
 30
0.0
 11
60.590905860622428
 21
108.9801972016148
 31
0.0
  0
LINE
  5
FB7C
  8
3
 10
60.59691862510337
 20
108.847916383035
 30
0.0
 11
60.590905860622428
 21
108.914056792325
 31
0.0
  0
LINE
  5
FB7D
  8
3
 10
60.602931389584199
 20
108.7817759737449
 30
0.0
 11
60.59691862510337
 21
108.847916383035
 31
0.0
  0
LINE
  5
FB7E
  8
3
 10
60.614956918546021
 20
108.715635564455
 30
0.0
 11
60.602931389584199
 21
108.7817759737449
 31
0.0
  0
LINE
  5
FB7F
  8
3
 10
60.626982447507856
 20
108.649495155165
 30
0.0
 11
60.614956918546021
 21
108.715635564455
 31
0.0
  0
LINE
  5
FB80
  8
3
 10
60.266216578653513
 20
109.1245035491565
 30
0.0
 11
60.163999582478162
 21
109.1184907846756
 31
0.0
  0
LINE
  5
FB81
  8
3
 10
60.711161150240542
 20
109.5093204759345
 30
0.0
 11
60.717173914721428
 21
109.5093204759345
 31
0.0
  0
LINE
  5
FB82
  8
3
 10
60.711161150240542
 20
109.5033077114536
 30
0.0
 11
60.711161150240542
 21
109.5093204759345
 31
0.0
  0
LINE
  5
FB83
  8
3
 10
60.705148385759593
 20
109.4972949469727
 30
0.0
 11
60.711161150240542
 21
109.5033077114536
 31
0.0
  0
LINE
  5
FB84
  8
3
 10
60.705148385759593
 20
109.4912821824918
 30
0.0
 11
60.705148385759593
 21
109.4972949469727
 31
0.0
  0
LINE
  5
FB85
  8
3
 10
60.705148385759593
 20
109.485269418011
 30
0.0
 11
60.705148385759593
 21
109.4912821824918
 31
0.0
  0
LINE
  5
FB86
  8
3
 10
60.705148385759593
 20
109.4792566535299
 30
0.0
 11
60.705148385759593
 21
109.485269418011
 31
0.0
  0
LINE
  5
FB87
  8
3
 10
60.705148385759593
 20
109.473243889049
 30
0.0
 11
60.705148385759593
 21
109.4792566535299
 31
0.0
  0
LINE
  5
FB88
  8
3
 10
60.699135621278707
 20
109.4672311245681
 30
0.0
 11
60.705148385759593
 21
109.473243889049
 31
0.0
  0
LINE
  5
FB89
  8
3
 10
60.699135621278707
 20
109.4612183600872
 30
0.0
 11
60.699135621278707
 21
109.4672311245681
 31
0.0
  0
LINE
  5
FB8A
  8
3
 10
60.699135621278707
 20
109.4552055956063
 30
0.0
 11
60.699135621278707
 21
109.4612183600872
 31
0.0
  0
LINE
  5
FB8B
  8
3
 10
60.699135621278707
 20
109.4491928311255
 30
0.0
 11
60.699135621278707
 21
109.4552055956063
 31
0.0
  0
LINE
  5
FB8C
  8
3
 10
60.699135621278707
 20
109.4431800666445
 30
0.0
 11
60.699135621278707
 21
109.4491928311255
 31
0.0
  0
LINE
  5
FB8D
  8
3
 10
60.699135621278707
 20
109.4371673021636
 30
0.0
 11
60.699135621278707
 21
109.4431800666445
 31
0.0
  0
LINE
  5
FB8E
  8
3
 10
60.681097327836
 20
109.4071034797591
 30
0.0
 11
60.699135621278707
 21
109.4371673021636
 31
0.0
  0
LINE
  5
FB8F
  8
3
 10
60.669071798874171
 20
109.3830524218355
 30
0.0
 11
60.675084563355057
 21
109.3950779507974
 31
0.0
  0
LINE
  5
FB90
  8
3
 10
60.675084563355057
 20
109.3950779507974
 30
0.0
 11
60.681097327836
 21
109.4071034797591
 31
0.0
  0
LINE
  5
FB91
  8
3
 10
60.350395281386199
 20
109.3830524218355
 30
0.0
 11
60.356408045867141
 21
109.3229247770263
 31
0.0
  0
LINE
  5
FB92
  8
3
 10
60.651033505431514
 20
109.3169120125456
 30
0.0
 11
60.657046269912399
 21
109.3349503059882
 31
0.0
  0
LINE
  5
FB93
  8
3
 10
60.356408045867141
 20
109.3229247770263
 30
0.0
 11
60.356408045867141
 21
109.2567843677364
 31
0.0
  0
LINE
  5
FB94
  8
3
 10
60.651033505431514
 20
109.2988737191028
 30
0.0
 11
60.651033505431514
 21
109.3169120125456
 31
0.0
  0
LINE
  5
FB95
  8
3
 10
60.645020740950571
 20
109.286848190141
 30
0.0
 11
60.651033505431514
 21
109.2988737191028
 31
0.0
  0
LINE
  5
FB96
  8
3
 10
60.639007976469692
 20
109.2688098966983
 30
0.0
 11
60.645020740950571
 21
109.286848190141
 31
0.0
  0
LINE
  5
FB97
  8
3
 10
60.639007976469692
 20
109.2507716032557
 30
0.0
 11
60.639007976469692
 21
109.2688098966983
 31
0.0
  0
LINE
  5
FB98
  8
3
 10
60.632995211988742
 20
109.2327333098127
 30
0.0
 11
60.639007976469692
 21
109.2507716032557
 31
0.0
  0
LINE
  5
FB99
  8
3
 10
60.626982447507856
 20
109.2146950163701
 30
0.0
 11
60.632995211988742
 21
109.2327333098127
 31
0.0
  0
LINE
  5
FB9A
  8
3
 10
60.620969683026907
 20
109.1966567229274
 30
0.0
 11
60.626982447507856
 21
109.2146950163701
 31
0.0
  0
LINE
  5
FB9B
  8
3
 10
60.614956918546021
 20
109.1786184294847
 30
0.0
 11
60.620969683026907
 21
109.1966567229274
 31
0.0
  0
LINE
  5
FB9C
  8
3
 10
60.663059034393278
 20
109.3650141283928
 30
0.0
 11
60.669071798874171
 21
109.3830524218355
 31
0.0
  0
LINE
  5
FB9D
  8
3
 10
60.657046269912399
 20
109.3529885994309
 30
0.0
 11
60.663059034393278
 21
109.3650141283928
 31
0.0
  0
LINE
  5
FB9E
  8
3
 10
60.657046269912399
 20
109.3349503059882
 30
0.0
 11
60.657046269912399
 21
109.3529885994309
 31
0.0
  0
LINE
  5
FB9F
  8
3
 10
60.356408045867141
 20
109.5093204759345
 30
0.0
 11
60.356408045867141
 21
109.4491928311255
 31
0.0
  0
LINE
  5
FBA0
  8
3
 10
60.356408045867141
 20
109.4491928311255
 30
0.0
 11
60.350395281386199
 21
109.3830524218355
 31
0.0
  0
LINE
  5
FBA1
  8
3
 10
60.717173914721428
 20
109.5093204759345
 30
0.0
 11
60.723186679202321
 21
109.5213460048962
 31
0.0
  0
LINE
  5
FBA2
  8
3
 10
60.368433574828913
 20
109.1365290781183
 30
0.0
 11
60.266216578653513
 21
109.1245035491565
 31
0.0
  0
LINE
  5
FBA3
  8
3
 10
60.356408045867141
 20
109.2567843677364
 30
0.0
 11
60.368433574828913
 21
109.1365290781183
 31
0.0
  0
LINE
  5
FBA4
  8
3
 10
60.350395281386199
 20
110.0685075726587
 30
0.0
 11
60.356408045867141
 21
110.0083799278497
 31
0.0
  0
LINE
  5
FBA5
  8
3
 10
60.356408045867141
 20
109.6355885300335
 30
0.0
 11
60.356408045867141
 21
109.5754608852244
 31
0.0
  0
LINE
  5
FBA6
  8
3
 10
60.362420810348027
 20
109.6957161748426
 30
0.0
 11
60.356408045867141
 21
109.6355885300335
 31
0.0
  0
LINE
  5
FBA7
  8
3
 10
60.362420810348027
 20
109.7618565841324
 30
0.0
 11
60.362420810348027
 21
109.6957161748426
 31
0.0
  0
LINE
  5
FBA8
  8
3
 10
60.362420810348027
 20
109.8219842289416
 30
0.0
 11
60.362420810348027
 21
109.7618565841324
 31
0.0
  0
LINE
  5
FBA9
  8
3
 10
60.362420810348027
 20
109.8821118737506
 30
0.0
 11
60.362420810348027
 21
109.8219842289416
 31
0.0
  0
LINE
  5
FBAA
  8
3
 10
60.356408045867141
 20
109.9482522830405
 30
0.0
 11
60.362420810348027
 21
109.8821118737506
 31
0.0
  0
LINE
  5
FBAB
  8
3
 10
60.356408045867141
 20
110.0083799278497
 30
0.0
 11
60.356408045867141
 21
109.9482522830405
 31
0.0
  0
LINE
  5
FBAC
  8
3
 10
60.344382516905313
 20
110.1346479819487
 30
0.0
 11
60.350395281386199
 21
110.0685075726587
 31
0.0
  0
LINE
  5
FBAD
  8
3
 10
60.813378146415893
 20
106.80958922400799
 30
0.0
 11
60.765276030568678
 21
106.80958922400799
 31
0.0
  0
LINE
  5
FBAE
  8
3
 10
60.86148026226315
 20
106.81560198848889
 30
0.0
 11
60.813378146415893
 21
106.80958922400799
 31
0.0
  0
LINE
  5
FBAF
  8
3
 10
60.909582378110343
 20
106.81560198848889
 30
0.0
 11
60.86148026226315
 21
106.81560198848889
 31
0.0
  0
LINE
  5
FBB0
  8
3
 10
61.047875961171229
 20
106.82762751745069
 30
0.0
 11
60.999773845323972
 21
106.82161475296989
 31
0.0
  0
LINE
  5
FBB1
  8
3
 10
61.09597807701843
 20
106.83965304641249
 30
0.0
 11
61.047875961171229
 21
106.82762751745069
 31
0.0
  0
LINE
  5
FBB2
  8
3
 10
60.951671729476722
 20
106.82161475296989
 30
0.0
 11
60.909582378110343
 21
106.81560198848889
 31
0.0
  0
LINE
  5
FBB3
  8
3
 10
60.999773845323972
 20
106.82161475296989
 30
0.0
 11
60.951671729476722
 21
106.82161475296989
 31
0.0
  0
LINE
  5
FBB4
  8
3
 10
59.857348593951968
 20
106.82161475296989
 30
0.0
 11
59.779182655700218
 21
106.80958922400799
 31
0.0
  0
LINE
  5
FBB5
  8
3
 10
60.626982447507856
 20
106.80958922400799
 30
0.0
 11
60.584893096141542
 21
106.81560198848889
 31
0.0
  0
LINE
  5
FBB6
  8
3
 10
59.448480609250431
 20
106.80958922400799
 30
0.0
 11
59.370314670998681
 21
106.81560198848889
 31
0.0
  0
LINE
  5
FBB7
  8
3
 10
59.695003952967539
 20
106.80958922400799
 30
0.0
 11
59.616838014715789
 21
106.80357645952699
 31
0.0
  0
LINE
  5
FBB8
  8
3
 10
59.779182655700218
 20
106.80958922400799
 30
0.0
 11
59.695003952967539
 21
106.80958922400799
 31
0.0
  0
LINE
  5
FBB9
  8
3
 10
59.616838014715789
 20
106.80357645952699
 30
0.0
 11
59.53265931198311
 21
106.80357645952699
 31
0.0
  0
LINE
  5
FBBA
  8
3
 10
59.53265931198311
 20
106.80357645952699
 30
0.0
 11
59.448480609250431
 21
106.80958922400799
 31
0.0
  0
LINE
  5
FBBB
  8
3
 10
60.675084563355057
 20
106.80958922400799
 30
0.0
 11
60.626982447507856
 21
106.80958922400799
 31
0.0
  0
LINE
  5
FBBC
  8
3
 10
60.723186679202321
 20
106.80958922400799
 30
0.0
 11
60.675084563355057
 21
106.80958922400799
 31
0.0
  0
LINE
  5
FBBD
  8
3
 10
60.765276030568678
 20
106.80958922400799
 30
0.0
 11
60.723186679202321
 21
106.80958922400799
 31
0.0
  0
LINE
  5
FBBE
  8
3
 10
60.073808115264541
 20
107.7716315409529
 30
0.0
 11
60.182037875920891
 21
107.7776443054337
 31
0.0
  0
LINE
  5
FBBF
  8
3
 10
60.091846408707312
 20
106.88174239777879
 30
0.0
 11
60.013680470455512
 21
106.85769133985529
 31
0.0
  0
LINE
  5
FBC0
  8
3
 10
58.600680817442793
 20
106.98997215843529
 30
0.0
 11
58.5706169950383
 21
107.00801045187789
 31
0.0
  0
LINE
  5
FBC1
  8
3
 10
58.5706169950383
 20
107.00801045187789
 30
0.0
 11
58.534540408152822
 21
107.02604874532059
 31
0.0
  0
LINE
  5
FBC2
  8
3
 10
59.370314670998681
 20
106.81560198848889
 30
0.0
 11
59.286135968266002
 21
106.82161475296989
 31
0.0
  0
LINE
  5
FBC3
  8
3
 10
59.286135968266002
 20
106.82161475296989
 30
0.0
 11
59.201957265533302
 21
106.83364028193169
 31
0.0
  0
LINE
  5
FBC4
  8
3
 10
58.775050987389051
 20
106.91781898466439
 30
0.0
 11
58.738974400503558
 21
106.92984451362609
 31
0.0
  0
LINE
  5
FBC5
  8
3
 10
58.811127574274479
 20
106.89978069122159
 30
0.0
 11
58.775050987389051
 21
106.91781898466439
 31
0.0
  0
LINE
  5
FBC6
  8
3
 10
58.847204161159908
 20
106.88775516225989
 30
0.0
 11
58.811127574274479
 21
106.89978069122159
 31
0.0
  0
LINE
  5
FBC7
  8
3
 10
58.889293512526223
 20
106.88174239777879
 30
0.0
 11
58.847204161159908
 21
106.88775516225989
 31
0.0
  0
LINE
  5
FBC8
  8
3
 10
59.045625389029759
 20
106.85769133985529
 30
0.0
 11
58.889293512526223
 21
106.88174239777879
 31
0.0
  0
LINE
  5
FBC9
  8
3
 10
59.123791327281509
 20
106.84566581089349
 30
0.0
 11
59.045625389029759
 21
106.85769133985529
 31
0.0
  0
LINE
  5
FBCA
  8
3
 10
58.702897813618193
 20
106.94187004258789
 30
0.0
 11
58.666821226732758
 21
106.95990833603069
 31
0.0
  0
LINE
  5
FBCB
  8
3
 10
58.636757404328222
 20
106.97193386499239
 30
0.0
 11
58.600680817442793
 21
106.98997215843529
 31
0.0
  0
LINE
  5
FBCC
  8
3
 10
58.666821226732758
 20
106.95990833603069
 30
0.0
 11
58.636757404328222
 21
106.97193386499239
 31
0.0
  0
LINE
  5
FBCD
  8
3
 10
58.738974400503558
 20
106.92984451362609
 30
0.0
 11
58.702897813618193
 21
106.94187004258789
 31
0.0
  0
LINE
  5
FBCE
  8
3
 10
59.201957265533302
 20
106.83364028193169
 30
0.0
 11
59.123791327281509
 21
106.84566581089349
 31
0.0
  0
LINE
  5
FBCF
  8
3
 10
60.013680470455512
 20
106.85769133985529
 30
0.0
 11
59.941527296684647
 21
106.83364028193169
 31
0.0
  0
LINE
  5
FBD0
  8
3
 10
59.941527296684647
 20
106.83364028193169
 30
0.0
 11
59.857348593951968
 21
106.82161475296989
 31
0.0
  0
LINE
  5
FBD1
  8
3
 10
59.30417426170871
 20
107.8077081278383
 30
0.0
 11
59.418416786845881
 21
107.8016953633574
 31
0.0
  0
LINE
  5
FBD2
  8
3
 10
59.195944501052423
 20
107.8257464212809
 30
0.0
 11
59.30417426170871
 21
107.8077081278383
 31
0.0
  0
LINE
  5
FBD3
  8
3
 10
59.965578354608247
 20
107.7716315409529
 30
0.0
 11
60.073808115264541
 21
107.7716315409529
 31
0.0
  0
LINE
  5
FBD4
  8
3
 10
59.749118833295682
 20
107.7776443054337
 30
0.0
 11
59.857348593951968
 21
107.7776443054337
 31
0.0
  0
LINE
  5
FBD5
  8
3
 10
59.857348593951968
 20
107.7776443054337
 30
0.0
 11
59.965578354608247
 21
107.7716315409529
 31
0.0
  0
LINE
  5
FBD6
  8
3
 10
59.640889072639389
 20
107.7836570699147
 30
0.0
 11
59.749118833295682
 21
107.7776443054337
 31
0.0
  0
LINE
  5
FBD7
  8
3
 10
59.526646547502168
 20
107.7896698343956
 30
0.0
 11
59.640889072639389
 21
107.7836570699147
 31
0.0
  0
LINE
  5
FBD8
  8
3
 10
59.418416786845881
 20
107.8016953633574
 30
0.0
 11
59.526646547502168
 21
107.7896698343956
 31
0.0
  0
LINE
  5
FBD9
  8
3
 10
60.422548455157063
 20
107.5431464906785
 30
0.0
 11
60.41653569067617
 21
107.7896698343956
 31
0.0
  0
ARC
  5
FBDA
  8
3
 10
60.444411751385267
 20
107.65801307605651
 30
0.0
 40
0.1345755430122404
 50
101.9548373798295
 51
174.968359139189
  0
LINE
  5
FBDB
  8
3
 10
60.284254872096277
 20
107.31466144040409
 30
0.0
 11
60.278242107615341
 21
107.26054656007599
 31
0.0
  0
LINE
  5
FBDC
  8
3
 10
60.428561219637942
 20
107.24852103111409
 30
0.0
 11
60.428561219637942
 21
107.30263591144229
 31
0.0
  0
LINE
  5
FBDD
  8
3
 10
60.584893096141542
 20
106.81560198848889
 30
0.0
 11
60.536790980294278
 21
106.81560198848889
 31
0.0
  0
LINE
  5
FBDE
  8
3
 10
60.536790980294278
 20
106.81560198848889
 30
0.0
 11
60.446599513080663
 21
106.81560198848889
 31
0.0
  0
LINE
  5
FBDF
  8
3
 10
60.218114462806263
 20
107.00199768739699
 30
0.0
 11
60.170012346959048
 21
106.91180622018339
 31
0.0
  0
LINE
  5
FBE0
  8
3
 10
60.170012346959048
 20
106.91180622018339
 30
0.0
 11
60.091846408707312
 21
106.88174239777879
 31
0.0
  0
LINE
  5
FBE1
  8
3
 10
60.446599513080663
 20
106.81560198848889
 30
0.0
 11
60.44058674859977
 21
106.87572963329799
 31
0.0
  0
LINE
  5
FBE2
  8
3
 10
60.23615275624902
 20
107.05009980324429
 30
0.0
 11
60.218114462806263
 21
107.00199768739699
 31
0.0
  0
LINE
  5
FBE3
  8
3
 10
60.254191049691741
 20
107.10421468357239
 30
0.0
 11
60.23615275624902
 21
107.05009980324429
 31
0.0
  0
LINE
  5
FBE4
  8
3
 10
60.266216578653513
 20
107.15231679941959
 30
0.0
 11
60.254191049691741
 21
107.10421468357239
 31
0.0
  0
LINE
  5
FBE5
  8
3
 10
60.272229343134512
 20
107.20643167974779
 30
0.0
 11
60.266216578653513
 21
107.15231679941959
 31
0.0
  0
LINE
  5
FBE6
  8
3
 10
60.278242107615341
 20
107.26054656007599
 30
0.0
 11
60.272229343134512
 21
107.20643167974779
 31
0.0
  0
LINE
  5
FBE7
  8
3
 10
60.428561219637942
 20
107.20041891526679
 30
0.0
 11
60.428561219637942
 21
107.24852103111409
 31
0.0
  0
LINE
  5
FBE8
  8
3
 10
60.428561219637942
 20
107.15832956390059
 30
0.0
 11
60.428561219637942
 21
107.20041891526679
 31
0.0
  0
LINE
  5
FBE9
  8
3
 10
60.428561219637942
 20
107.12225297701499
 30
0.0
 11
60.428561219637942
 21
107.15832956390059
 31
0.0
  0
LINE
  5
FBEA
  8
3
 10
60.428561219637942
 20
107.08617639012959
 30
0.0
 11
60.428561219637942
 21
107.12225297701499
 31
0.0
  0
LINE
  5
FBEB
  8
3
 10
60.428561219637942
 20
107.05009980324429
 30
0.0
 11
60.428561219637942
 21
107.08617639012959
 31
0.0
  0
LINE
  5
FBEC
  8
3
 10
60.428561219637942
 20
107.01402321635889
 30
0.0
 11
60.428561219637942
 21
107.05009980324429
 31
0.0
  0
LINE
  5
FBED
  8
3
 10
60.428561219637942
 20
106.97794662947339
 30
0.0
 11
60.428561219637942
 21
107.01402321635889
 31
0.0
  0
LINE
  5
FBEE
  8
3
 10
60.434573984118877
 20
106.92984451362609
 30
0.0
 11
60.428561219637942
 21
106.97794662947339
 31
0.0
  0
LINE
  5
FBEF
  8
3
 10
60.44058674859977
 20
106.87572963329799
 30
0.0
 11
60.434573984118877
 21
106.92984451362609
 31
0.0
  0
LINE
  5
FBF0
  8
3
 10
60.310354806592812
 20
107.66981614049109
 30
0.0
 11
60.302293165538991
 21
107.5972613710066
 31
0.0
  0
LINE
  5
FBF1
  8
3
 10
60.29026763657717
 20
107.3747890852131
 30
0.0
 11
60.284254872096277
 21
107.31466144040409
 31
0.0
  0
LINE
  5
FBF2
  8
3
 10
60.29026763657717
 20
107.4289039655412
 30
0.0
 11
60.29026763657717
 21
107.3747890852131
 31
0.0
  0
LINE
  5
FBF3
  8
3
 10
60.296280401058048
 20
107.4830188458694
 30
0.0
 11
60.29026763657717
 21
107.4289039655412
 31
0.0
  0
LINE
  5
FBF4
  8
3
 10
60.296280401058048
 20
107.5431464906785
 30
0.0
 11
60.296280401058048
 21
107.4830188458694
 31
0.0
  0
LINE
  5
FBF5
  8
3
 10
60.428561219637942
 20
107.4469422589839
 30
0.0
 11
60.422548455157063
 21
107.5431464906785
 31
0.0
  0
LINE
  5
FBF6
  8
3
 10
60.428561219637942
 20
107.3687763207322
 30
0.0
 11
60.428561219637942
 21
107.4469422589839
 31
0.0
  0
LINE
  5
FBF7
  8
3
 10
60.428561219637942
 20
107.30263591144229
 30
0.0
 11
60.428561219637942
 21
107.3687763207322
 31
0.0
  0
LINE
  5
FBF8
  8
3
 10
60.302293165538991
 20
107.5972613710066
 30
0.0
 11
60.296280401058048
 21
107.5431464906785
 31
0.0
  0
LINE
  5
FBF9
  8
3
 10
60.506727157889692
 20
107.7956825988765
 30
0.0
 11
60.614956918546021
 21
107.8077081278383
 31
0.0
  0
LINE
  5
FBFA
  8
3
 10
60.614956918546021
 20
107.8077081278383
 30
0.0
 11
60.729199443683257
 21
107.8197336568002
 31
0.0
  0
LINE
  5
FBFB
  8
3
 10
60.182037875920891
 20
107.7776443054337
 30
0.0
 11
60.29026763657717
 21
107.7776443054337
 31
0.0
  0
LINE
  5
FBFC
  8
3
 10
60.29026763657717
 20
107.7776443054337
 30
0.0
 11
60.398497397233449
 21
107.7896698343956
 31
0.0
  0
LINE
  5
FBFD
  8
3
 10
60.41653569067617
 20
107.7896698343956
 30
0.0
 11
60.398497397233449
 21
107.7896698343956
 31
0.0
  0
LINE
  5
FBFE
  8
3
 10
60.398497397233449
 20
107.7896698343956
 30
0.0
 11
60.506727157889692
 21
107.7956825988765
 31
0.0
  0
LINE
  5
FBFF
  8
3
 10
60.729199443683257
 20
107.8197336568002
 30
0.0
 11
60.951671729476722
 21
107.8497974792047
 31
0.0
  0
LINE
  5
FC00
  8
3
 10
59.159867914166938
 20
107.8437847147238
 30
0.0
 11
59.195944501052423
 21
107.8257464212809
 31
0.0
  0
LINE
  5
FC01
  8
3
 10
62.31055650216129
 20
108.6134185682797
 30
0.0
 11
62.334607560084891
 21
108.6615206841268
 31
0.0
  0
LINE
  5
FC02
  8
3
 10
61.805484285765232
 20
108.649495155165
 30
0.0
 11
61.835548108169768
 21
108.6194313327605
 31
0.0
  0
LINE
  5
FC03
  8
3
 10
61.973841691230596
 20
108.1865122901352
 30
0.0
 11
61.985867220192432
 21
108.1083463518837
 31
0.0
  0
LINE
  5
FC04
  8
3
 10
62.166250154619519
 20
108.1564484677308
 30
0.0
 11
62.178275683581347
 21
108.2165761125398
 31
0.0
  0
LINE
  5
FC05
  8
3
 10
62.154224625657747
 20
108.0361931781127
 30
0.0
 11
62.160237390138633
 21
108.0963208229217
 31
0.0
  0
LINE
  5
FC06
  8
3
 10
61.985867220192432
 20
108.1083463518837
 30
0.0
 11
61.991879984673318
 21
108.0361931781127
 31
0.0
  0
LINE
  5
FC07
  8
3
 10
62.160237390138633
 20
108.0963208229217
 30
0.0
 11
62.166250154619519
 21
108.1564484677308
 31
0.0
  0
LINE
  5
FC08
  8
3
 10
62.154224625657747
 20
107.9760655333036
 30
0.0
 11
62.154224625657747
 21
108.0361931781127
 31
0.0
  0
LINE
  5
FC09
  8
3
 10
61.991879984673318
 20
108.0361931781127
 30
0.0
 11
61.991879984673318
 21
107.9580272398609
 31
0.0
  0
LINE
  5
FC0A
  8
3
 10
62.154224625657747
 20
107.9159378884947
 30
0.0
 11
62.154224625657747
 21
107.9760655333036
 31
0.0
  0
LINE
  5
FC0B
  8
3
 10
61.991879984673318
 20
107.9580272398609
 30
0.0
 11
61.991879984673318
 21
107.8858740660901
 31
0.0
  0
LINE
  5
FC0C
  8
3
 10
62.190301212543169
 20
108.276703757349
 30
0.0
 11
62.20232674150494
 21
108.3368314021579
 31
0.0
  0
LINE
  5
FC0D
  8
3
 10
61.943777868826061
 20
108.330818637677
 30
0.0
 11
61.961816162268768
 21
108.2586654639062
 31
0.0
  0
LINE
  5
FC0E
  8
3
 10
62.20232674150494
 20
108.3368314021579
 30
0.0
 11
62.220365034947662
 21
108.3969590469671
 31
0.0
  0
LINE
  5
FC0F
  8
3
 10
61.925739575383353
 20
108.4029718114479
 30
0.0
 11
61.943777868826061
 21
108.330818637677
 31
0.0
  0
LINE
  5
FC10
  8
3
 10
62.220365034947662
 20
108.3969590469671
 30
0.0
 11
62.238403328390433
 21
108.4510739272952
 31
0.0
  0
LINE
  5
FC11
  8
3
 10
61.89567575297886
 20
108.4751249852188
 30
0.0
 11
61.925739575383353
 21
108.4029718114479
 31
0.0
  0
LINE
  5
FC12
  8
3
 10
62.28049267975674
 20
108.5593036879515
 30
0.0
 11
62.31055650216129
 21
108.6134185682797
 31
0.0
  0
LINE
  5
FC13
  8
3
 10
61.835548108169768
 20
108.6194313327605
 30
0.0
 11
61.865611930574318
 21
108.5472781589896
 31
0.0
  0
LINE
  5
FC14
  8
3
 10
62.238403328390433
 20
108.4510739272952
 30
0.0
 11
62.262454386314033
 21
108.5051888076233
 31
0.0
  0
LINE
  5
FC15
  8
3
 10
62.262454386314033
 20
108.5051888076233
 30
0.0
 11
62.28049267975674
 21
108.5593036879515
 31
0.0
  0
LINE
  5
FC16
  8
3
 10
61.865611930574318
 20
108.5472781589896
 30
0.0
 11
61.89567575297886
 21
108.4751249852188
 31
0.0
  0
LINE
  5
FC17
  8
3
 10
62.178275683581347
 20
108.2165761125398
 30
0.0
 11
62.190301212543169
 21
108.276703757349
 31
0.0
  0
LINE
  5
FC18
  8
3
 10
61.961816162268768
 20
108.2586654639062
 30
0.0
 11
61.973841691230596
 21
108.1865122901352
 31
0.0
  0
LINE
  5
FC19
  8
3
 10
62.232390563909547
 20
110.1226224529868
 30
0.0
 11
62.232390563909547
 21
109.0764014333092
 31
0.0
  0
LINE
  5
FC1A
  8
3
 10
62.370684146970383
 20
109.5273587693771
 30
0.0
 11
62.382709675932148
 21
109.5754608852244
 31
0.0
  0
LINE
  5
FC1B
  8
3
 10
62.250428857352262
 20
109.0764014333092
 30
0.0
 11
62.274479915275862
 21
109.1184907846756
 31
0.0
  0
LINE
  5
FC1C
  8
3
 10
62.334607560084891
 20
108.6615206841268
 30
0.0
 11
62.364671382489441
 21
108.7096227999741
 31
0.0
  0
LINE
  5
FC1D
  8
3
 10
62.508977730031141
 20
109.0343120819429
 30
0.0
 11
62.292518208718583
 21
109.0643759043475
 31
0.0
  0
LINE
  5
FC1E
  8
3
 10
62.178275683581347
 20
109.0523503753857
 30
0.0
 11
62.130173567734147
 21
109.0523503753857
 31
0.0
  0
LINE
  5
FC1F
  8
3
 10
62.088084216367783
 20
109.0523503753857
 30
0.0
 11
62.045994865001461
 21
109.0523503753857
 31
0.0
  0
LINE
  5
FC20
  8
3
 10
62.130173567734147
 20
109.0523503753857
 30
0.0
 11
62.088084216367783
 21
109.0523503753857
 31
0.0
  0
LINE
  5
FC21
  8
3
 10
62.232390563909547
 20
109.0583631398666
 30
0.0
 11
62.178275683581347
 21
109.0523503753857
 31
0.0
  0
LINE
  5
FC22
  8
3
 10
62.292518208718583
 20
109.0643759043475
 30
0.0
 11
62.232390563909547
 21
109.0583631398666
 31
0.0
  0
LINE
  5
FC23
  8
3
 10
62.238403328390433
 20
109.0703886688284
 30
0.0
 11
62.250428857352262
 21
109.0764014333092
 31
0.0
  0
LINE
  5
FC24
  8
3
 10
62.232390563909547
 20
109.0703886688284
 30
0.0
 11
62.238403328390433
 21
109.0703886688284
 31
0.0
  0
LINE
  5
FC25
  8
3
 10
62.232390563909547
 20
109.0764014333092
 30
0.0
 11
62.232390563909547
 21
109.0703886688284
 31
0.0
  0
LINE
  5
FC26
  8
3
 10
61.79345875680346
 20
108.6615206841268
 30
0.0
 11
61.805484285765232
 21
108.649495155165
 31
0.0
  0
LINE
  5
FC27
  8
3
 10
61.787445992322517
 20
108.6795589775696
 30
0.0
 11
61.79345875680346
 21
108.6615206841268
 31
0.0
  0
LINE
  5
FC28
  8
3
 10
61.775420463360753
 20
108.6975972710124
 30
0.0
 11
61.787445992322517
 21
108.6795589775696
 31
0.0
  0
LINE
  5
FC29
  8
3
 10
61.763394934398917
 20
108.7096227999741
 30
0.0
 11
61.775420463360753
 21
108.6975972710124
 31
0.0
  0
LINE
  5
FC2A
  8
3
 10
61.751369405437082
 20
108.7276610934168
 30
0.0
 11
61.763394934398917
 21
108.7096227999741
 31
0.0
  0
LINE
  5
FC2B
  8
3
 10
61.73934387647526
 20
108.7456993868597
 30
0.0
 11
61.751369405437082
 21
108.7276610934168
 31
0.0
  0
LINE
  5
FC2C
  8
3
 10
61.727318347513432
 20
108.7577249158213
 30
0.0
 11
61.73934387647526
 21
108.7456993868597
 31
0.0
  0
LINE
  5
FC2D
  8
3
 10
61.71529281855166
 20
108.775763209264
 30
0.0
 11
61.727318347513432
 21
108.7577249158213
 31
0.0
  0
LINE
  5
FC2E
  8
3
 10
61.703267289589888
 20
108.7877887382259
 30
0.0
 11
61.71529281855166
 21
108.775763209264
 31
0.0
  0
LINE
  5
FC2F
  8
3
 10
61.787445992322517
 20
109.0583631398666
 30
0.0
 11
61.757382169918031
 21
109.0523503753857
 31
0.0
  0
LINE
  5
FC30
  8
3
 10
61.81750981472706
 20
109.0583631398666
 30
0.0
 11
61.787445992322517
 21
109.0583631398666
 31
0.0
  0
LINE
  5
FC31
  8
3
 10
61.847573637131603
 20
109.0583631398666
 30
0.0
 11
61.81750981472706
 21
109.0583631398666
 31
0.0
  0
LINE
  5
FC32
  8
3
 10
61.877637459536089
 20
109.0583631398666
 30
0.0
 11
61.847573637131603
 21
109.0583631398666
 31
0.0
  0
LINE
  5
FC33
  8
3
 10
61.907701281940632
 20
109.0583631398666
 30
0.0
 11
61.877637459536089
 21
109.0583631398666
 31
0.0
  0
LINE
  5
FC34
  8
3
 10
61.943777868826061
 20
109.0583631398666
 30
0.0
 11
61.907701281940632
 21
109.0583631398666
 31
0.0
  0
LINE
  5
FC35
  8
3
 10
61.973841691230596
 20
109.0583631398666
 30
0.0
 11
61.943777868826061
 21
109.0583631398666
 31
0.0
  0
LINE
  5
FC36
  8
3
 10
62.009918278116032
 20
109.0523503753857
 30
0.0
 11
61.973841691230596
 21
109.0583631398666
 31
0.0
  0
LINE
  5
FC37
  8
3
 10
62.045994865001461
 20
109.0523503753857
 30
0.0
 11
62.009918278116032
 21
109.0523503753857
 31
0.0
  0
LINE
  5
FC38
  8
3
 10
61.685228996147181
 20
108.8178525606304
 30
0.0
 11
61.69124176062806
 21
108.8058270316686
 31
0.0
  0
LINE
  5
FC39
  8
3
 10
61.673203467185338
 20
108.8298780895922
 30
0.0
 11
61.685228996147181
 21
108.8178525606304
 31
0.0
  0
LINE
  5
FC3A
  8
3
 10
61.66117793822351
 20
108.8419036185541
 30
0.0
 11
61.673203467185338
 21
108.8298780895922
 31
0.0
  0
LINE
  5
FC3B
  8
3
 10
61.649152409261738
 20
108.8599419119967
 30
0.0
 11
61.66117793822351
 21
108.8419036185541
 31
0.0
  0
LINE
  5
FC3C
  8
3
 10
61.637126880299917
 20
108.8839929699203
 30
0.0
 11
61.649152409261738
 21
108.8599419119967
 31
0.0
  0
LINE
  5
FC3D
  8
3
 10
61.637126880299917
 20
108.8960184988821
 30
0.0
 11
61.637126880299917
 21
108.8839929699203
 31
0.0
  0
LINE
  5
FC3E
  8
3
 10
61.631114115818981
 20
108.908044027844
 30
0.0
 11
61.637126880299917
 21
108.8960184988821
 31
0.0
  0
LINE
  5
FC3F
  8
3
 10
61.631114115818981
 20
108.9260823212867
 30
0.0
 11
61.631114115818981
 21
108.908044027844
 31
0.0
  0
LINE
  5
FC40
  8
3
 10
61.631114115818981
 20
108.9381078502485
 30
0.0
 11
61.631114115818981
 21
108.9260823212867
 31
0.0
  0
LINE
  5
FC41
  8
3
 10
61.637126880299917
 20
108.9501333792103
 30
0.0
 11
61.631114115818981
 21
108.9381078502485
 31
0.0
  0
LINE
  5
FC42
  8
3
 10
61.637126880299917
 20
108.9621589081721
 30
0.0
 11
61.637126880299917
 21
108.9501333792103
 31
0.0
  0
LINE
  5
FC43
  8
3
 10
61.643139644780803
 20
108.974184437134
 30
0.0
 11
61.637126880299917
 21
108.9621589081721
 31
0.0
  0
LINE
  5
FC44
  8
3
 10
61.643139644780803
 20
108.9862099660958
 30
0.0
 11
61.643139644780803
 21
108.974184437134
 31
0.0
  0
LINE
  5
FC45
  8
3
 10
61.649152409261738
 20
108.9982354950576
 30
0.0
 11
61.643139644780803
 21
108.9862099660958
 31
0.0
  0
LINE
  5
FC46
  8
3
 10
61.655165173742631
 20
109.0102610240194
 30
0.0
 11
61.649152409261738
 21
108.9982354950576
 31
0.0
  0
LINE
  5
FC47
  8
3
 10
61.66117793822351
 20
109.0222865529811
 30
0.0
 11
61.655165173742631
 21
109.0102610240194
 31
0.0
  0
LINE
  5
FC48
  8
3
 10
61.673203467185338
 20
109.028299317462
 30
0.0
 11
61.66117793822351
 21
109.0222865529811
 31
0.0
  0
LINE
  5
FC49
  8
3
 10
61.679216231666231
 20
109.0343120819429
 30
0.0
 11
61.673203467185338
 21
109.028299317462
 31
0.0
  0
LINE
  5
FC4A
  8
3
 10
61.69124176062806
 20
109.0463376109048
 30
0.0
 11
61.679216231666231
 21
109.0343120819429
 31
0.0
  0
LINE
  5
FC4B
  8
3
 10
61.69124176062806
 20
108.8058270316686
 30
0.0
 11
61.703267289589888
 21
108.7877887382259
 31
0.0
  0
LINE
  5
FC4C
  8
3
 10
61.757382169918031
 20
109.0523503753857
 30
0.0
 11
61.69124176062806
 21
109.0463376109048
 31
0.0
  0
LINE
  5
FC4D
  8
3
 10
62.47290114314572
 20
108.8118397961496
 30
0.0
 11
62.478913907626662
 21
108.8178525606304
 31
0.0
  0
LINE
  5
FC4E
  8
3
 10
62.466888378664827
 20
108.8118397961496
 30
0.0
 11
62.47290114314572
 21
108.8118397961496
 31
0.0
  0
LINE
  5
FC4F
  8
3
 10
62.460875614183891
 20
108.8118397961496
 30
0.0
 11
62.466888378664827
 21
108.8118397961496
 31
0.0
  0
LINE
  5
FC50
  8
3
 10
62.454862849703062
 20
108.8058270316686
 30
0.0
 11
62.460875614183891
 21
108.8118397961496
 31
0.0
  0
LINE
  5
FC51
  8
3
 10
62.448850085222119
 20
108.8058270316686
 30
0.0
 11
62.454862849703062
 21
108.8058270316686
 31
0.0
  0
LINE
  5
FC52
  8
3
 10
62.442837320741177
 20
108.8058270316686
 30
0.0
 11
62.448850085222119
 21
108.8058270316686
 31
0.0
  0
LINE
  5
FC53
  8
3
 10
62.442837320741177
 20
108.7998142671877
 30
0.0
 11
62.442837320741177
 21
108.8058270316686
 31
0.0
  0
LINE
  5
FC54
  8
3
 10
62.364671382489441
 20
108.7096227999741
 30
0.0
 11
62.436824556260291
 21
108.7998142671877
 31
0.0
  0
LINE
  5
FC55
  8
3
 10
62.436824556260291
 20
108.7998142671877
 30
0.0
 11
62.442837320741177
 21
108.7998142671877
 31
0.0
  0
LINE
  5
FC56
  8
3
 10
62.358658618008548
 20
109.4191290087209
 30
0.0
 11
62.364671382489441
 21
109.473243889049
 31
0.0
  0
LINE
  5
FC57
  8
3
 10
62.274479915275862
 20
109.1184907846756
 30
0.0
 11
62.298530973199462
 21
109.1665929005229
 31
0.0
  0
LINE
  5
FC58
  8
3
 10
62.340620324565769
 20
109.3169120125456
 30
0.0
 11
62.352645853527598
 21
109.3710268928736
 31
0.0
  0
LINE
  5
FC59
  8
3
 10
62.328594795603948
 20
109.2688098966983
 30
0.0
 11
62.340620324565769
 21
109.3169120125456
 31
0.0
  0
LINE
  5
FC5A
  8
3
 10
62.316569266642183
 20
109.2146950163701
 30
0.0
 11
62.328594795603948
 21
109.2688098966983
 31
0.0
  0
LINE
  5
FC5B
  8
3
 10
62.298530973199462
 20
109.1665929005229
 30
0.0
 11
62.316569266642183
 21
109.2146950163701
 31
0.0
  0
LINE
  5
FC5C
  8
3
 10
62.352645853527598
 20
109.3710268928736
 30
0.0
 11
62.358658618008548
 21
109.4191290087209
 31
0.0
  0
LINE
  5
FC5D
  8
3
 10
62.364671382489441
 20
109.473243889049
 30
0.0
 11
62.370684146970383
 21
109.5273587693771
 31
0.0
  0
LINE
  5
FC5E
  8
3
 10
61.576999235490881
 20
110.1226224529868
 30
0.0
 11
61.613075822376317
 21
110.1226224529868
 31
0.0
  0
LINE
  5
FC5F
  8
3
 10
61.246297189041087
 20
110.0083799278497
 30
0.0
 11
61.306424833850109
 21
110.038443750254
 31
0.0
  0
LINE
  5
FC60
  8
3
 10
61.186169544232058
 20
109.9783161054452
 30
0.0
 11
61.246297189041087
 21
110.0083799278497
 31
0.0
  0
LINE
  5
FC61
  8
3
 10
61.372565243140151
 20
110.0685075726587
 30
0.0
 11
61.438705652430052
 21
110.0865458661014
 31
0.0
  0
LINE
  5
FC62
  8
3
 10
61.306424833850109
 20
110.038443750254
 30
0.0
 11
61.372565243140151
 21
110.0685075726587
 31
0.0
  0
LINE
  5
FC63
  8
3
 10
61.438705652430052
 20
110.0865458661014
 30
0.0
 11
61.576999235490881
 21
110.1226224529868
 31
0.0
  0
LINE
  5
FC64
  8
3
 10
62.406760733855748
 20
109.731792761728
 30
0.0
 11
62.424799027298462
 21
109.7798948775752
 31
0.0
  0
LINE
  5
FC65
  8
3
 10
62.394735204893969
 20
109.6776778813999
 30
0.0
 11
62.406760733855748
 21
109.731792761728
 31
0.0
  0
LINE
  5
FC66
  8
3
 10
62.388722440413027
 20
109.6295757655526
 30
0.0
 11
62.394735204893969
 21
109.6776778813999
 31
0.0
  0
LINE
  5
FC67
  8
3
 10
62.382709675932148
 20
109.5754608852244
 30
0.0
 11
62.388722440413027
 21
109.6295757655526
 31
0.0
  0
LINE
  5
FC68
  8
3
 10
62.424799027298462
 20
109.7798948775752
 30
0.0
 11
62.466888378664827
 21
109.8760991092697
 31
0.0
  0
LINE
  5
FC69
  8
3
 10
62.10612250981054
 20
110.1226224529868
 30
0.0
 11
62.148211861176861
 21
110.1226224529868
 31
0.0
  0
LINE
  5
FC6A
  8
3
 10
62.064033158444182
 20
110.1226224529868
 30
0.0
 11
62.10612250981054
 21
110.1226224529868
 31
0.0
  0
LINE
  5
FC6B
  8
3
 10
62.02795657155874
 20
110.1226224529868
 30
0.0
 11
62.064033158444182
 21
110.1226224529868
 31
0.0
  0
LINE
  5
FC6C
  8
3
 10
62.148211861176861
 20
110.1226224529868
 30
0.0
 11
62.232390563909547
 21
110.1226224529868
 31
0.0
  0
LINE
  5
FC6D
  8
3
 10
61.943777868826061
 20
110.1226224529868
 30
0.0
 11
61.985867220192432
 21
110.1226224529868
 31
0.0
  0
LINE
  5
FC6E
  8
3
 10
61.901688517459739
 20
110.1226224529868
 30
0.0
 11
61.943777868826061
 21
110.1226224529868
 31
0.0
  0
LINE
  5
FC6F
  8
3
 10
61.865611930574318
 20
110.1226224529868
 30
0.0
 11
61.901688517459739
 21
110.1226224529868
 31
0.0
  0
LINE
  5
FC70
  8
3
 10
61.82352257920801
 20
110.1226224529868
 30
0.0
 11
61.865611930574318
 21
110.1226224529868
 31
0.0
  0
LINE
  5
FC71
  8
3
 10
61.781433227841632
 20
110.1226224529868
 30
0.0
 11
61.82352257920801
 21
110.1226224529868
 31
0.0
  0
LINE
  5
FC72
  8
3
 10
61.73934387647526
 20
110.1226224529868
 30
0.0
 11
61.781433227841632
 21
110.1226224529868
 31
0.0
  0
LINE
  5
FC73
  8
3
 10
61.697254525108953
 20
110.1226224529868
 30
0.0
 11
61.73934387647526
 21
110.1226224529868
 31
0.0
  0
LINE
  5
FC74
  8
3
 10
61.985867220192432
 20
110.1226224529868
 30
0.0
 11
62.02795657155874
 21
110.1226224529868
 31
0.0
  0
LINE
  5
FC75
  8
3
 10
61.613075822376317
 20
110.1226224529868
 30
0.0
 11
61.655165173742631
 21
110.1226224529868
 31
0.0
  0
LINE
  5
FC76
  8
3
 10
61.655165173742631
 20
110.1226224529868
 30
0.0
 11
61.697254525108953
 21
110.1226224529868
 31
0.0
  0
LINE
  5
FC77
  8
3
 10
62.20232674150494
 20
107.6694145447774
 30
0.0
 11
62.184288448062233
 21
107.7475804830293
 31
0.0
  0
LINE
  5
FC78
  8
3
 10
61.973841691230596
 20
107.7355549540674
 30
0.0
 11
61.955803397787889
 21
107.6634017802966
 31
0.0
  0
LINE
  5
FC79
  8
3
 10
61.637126880299917
 20
107.12225297701499
 30
0.0
 11
61.595037528933538
 21
107.08617639012959
 31
0.0
  0
LINE
  5
FC7A
  8
3
 10
61.402629065544581
 20
106.95389557154969
 30
0.0
 11
61.354526949697373
 21
106.92383174914529
 31
0.0
  0
LINE
  5
FC7B
  8
3
 10
61.354526949697373
 20
106.92383174914529
 30
0.0
 11
61.300412069369173
 21
106.89978069122159
 31
0.0
  0
LINE
  5
FC7C
  8
3
 10
61.192182308712937
 20
106.86370410433619
 30
0.0
 11
61.14408019286568
 21
106.84566581089349
 31
0.0
  0
LINE
  5
FC7D
  8
3
 10
61.300412069369173
 20
106.89978069122159
 30
0.0
 11
61.192182308712937
 21
106.86370410433619
 31
0.0
  0
LINE
  5
FC7E
  8
3
 10
61.552948177567231
 20
107.04408703876349
 30
0.0
 11
61.504846061719967
 21
107.01402321635889
 31
0.0
  0
LINE
  5
FC7F
  8
3
 10
61.595037528933538
 20
107.08617639012959
 30
0.0
 11
61.552948177567231
 21
107.04408703876349
 31
0.0
  0
LINE
  5
FC80
  8
3
 10
61.45674394587278
 20
106.97794662947339
 30
0.0
 11
61.402629065544581
 21
106.95389557154969
 31
0.0
  0
LINE
  5
FC81
  8
3
 10
61.504846061719967
 20
107.01402321635889
 30
0.0
 11
61.45674394587278
 21
106.97794662947339
 31
0.0
  0
LINE
  5
FC82
  8
3
 10
62.406760733855748
 20
107.24852103111409
 30
0.0
 11
62.364671382489441
 21
107.31466144040409
 31
0.0
  0
LINE
  5
FC83
  8
3
 10
61.79345875680346
 20
107.30263591144229
 30
0.0
 11
61.757382169918031
 21
107.25453379559509
 31
0.0
  0
LINE
  5
FC84
  8
3
 10
61.757382169918031
 20
107.25453379559509
 30
0.0
 11
61.721305583032603
 21
107.20643167974779
 31
0.0
  0
LINE
  5
FC85
  8
3
 10
61.679216231666231
 20
107.16434232838149
 30
0.0
 11
61.637126880299917
 21
107.12225297701499
 31
0.0
  0
LINE
  5
FC86
  8
3
 10
61.721305583032603
 20
107.20643167974779
 30
0.0
 11
61.679216231666231
 21
107.16434232838149
 31
0.0
  0
LINE
  5
FC87
  8
3
 10
62.496952201069377
 20
107.13427850597699
 30
0.0
 11
62.448850085222119
 21
107.1883933863049
 31
0.0
  0
LINE
  5
FC88
  8
3
 10
62.448850085222119
 20
107.1883933863049
 30
0.0
 11
62.406760733855748
 21
107.24852103111409
 31
0.0
  0
LINE
  5
FC89
  8
3
 10
62.364671382489441
 20
107.31466144040409
 30
0.0
 11
62.322582031123119
 21
107.3747890852131
 31
0.0
  0
LINE
  5
FC8A
  8
3
 10
62.226377799428612
 20
107.5912486065258
 30
0.0
 11
62.20232674150494
 21
107.6694145447774
 31
0.0
  0
LINE
  5
FC8B
  8
3
 10
61.955803397787889
 20
107.6634017802966
 30
0.0
 11
61.937765104345168
 21
107.5912486065258
 31
0.0
  0
LINE
  5
FC8C
  8
3
 10
62.28650544423769
 20
107.4469422589839
 30
0.0
 11
62.25644162183309
 21
107.5190954327549
 31
0.0
  0
LINE
  5
FC8D
  8
3
 10
62.322582031123119
 20
107.3747890852131
 30
0.0
 11
62.28650544423769
 21
107.4469422589839
 31
0.0
  0
LINE
  5
FC8E
  8
3
 10
61.82352257920801
 20
107.35073802728949
 30
0.0
 11
61.79345875680346
 21
107.30263591144229
 31
0.0
  0
LINE
  5
FC8F
  8
3
 10
61.853586401612489
 20
107.40485290761769
 30
0.0
 11
61.82352257920801
 21
107.35073802728949
 31
0.0
  0
LINE
  5
FC90
  8
3
 10
61.883650224017032
 20
107.4589677879458
 30
0.0
 11
61.853586401612489
 21
107.40485290761769
 31
0.0
  0
LINE
  5
FC91
  8
3
 10
62.25644162183309
 20
107.5190954327549
 30
0.0
 11
62.226377799428612
 21
107.5912486065258
 31
0.0
  0
LINE
  5
FC92
  8
3
 10
61.937765104345168
 20
107.5912486065258
 30
0.0
 11
61.883650224017032
 21
107.4589677879458
 31
0.0
  0
LINE
  5
FC93
  8
3
 10
61.979854455711482
 20
107.8077081278383
 30
0.0
 11
61.973841691230596
 21
107.7355549540674
 31
0.0
  0
LINE
  5
FC94
  8
3
 10
61.991879984673318
 20
107.8858740660901
 30
0.0
 11
61.979854455711482
 21
107.8077081278383
 31
0.0
  0
LINE
  5
FC95
  8
3
 10
62.184288448062233
 20
107.7475804830293
 30
0.0
 11
62.154224625657747
 21
107.9159378884947
 31
0.0
  0
LINE
  5
FC96
  8
3
 10
61.14408019286568
 20
106.84566581089349
 30
0.0
 11
61.09597807701843
 21
106.83965304641249
 31
0.0
  0
LINE
  5
FC97
  8
3
 10
61.132054663903908
 20
109.9422395185596
 30
0.0
 11
61.186169544232058
 21
109.9783161054452
 31
0.0
  0
LINE
  5
FC98
  8
2
 10
70.289222513580654
 20
106.9033056929199
 30
0.0
 11
70.289222513579574
 21
100.0548992192216
 31
0.0
  0
LINE
  5
FC99
  8
3
 10
63.19443288085435
 20
109.0583631398666
 30
0.0
 11
63.080190355717122
 21
109.0523503753857
 31
0.0
  0
LINE
  5
FC9A
  8
3
 10
63.09221588467895
 20
110.1045841595441
 30
0.0
 11
63.140318000526207
 21
110.1045841595441
 31
0.0
  0
LINE
  5
FC9B
  8
3
 10
63.080190355717122
 20
109.0523503753857
 30
0.0
 11
62.965947830580014
 21
109.0463376109048
 31
0.0
  0
LINE
  5
FC9C
  8
3
 10
62.965947830580014
 20
109.0463376109048
 30
0.0
 11
62.851705305442771
 21
109.0403248464238
 31
0.0
  0
LINE
  5
FC9D
  8
3
 10
62.737462780305549
 20
109.0343120819429
 30
0.0
 11
62.62322025516832
 21
109.0343120819429
 31
0.0
  0
LINE
  5
FC9E
  8
3
 10
62.851705305442771
 20
109.0403248464238
 30
0.0
 11
62.737462780305549
 21
109.0343120819429
 31
0.0
  0
LINE
  5
FC9F
  8
3
 10
63.038101004350807
 20
110.1045841595441
 30
0.0
 11
63.09221588467895
 21
110.1045841595441
 31
0.0
  0
LINE
  5
FCA0
  8
3
 10
62.98999888850355
 20
110.1045841595441
 30
0.0
 11
63.038101004350807
 21
110.1045841595441
 31
0.0
  0
LINE
  5
FCA1
  8
3
 10
62.941896772656342
 20
110.0985713950632
 30
0.0
 11
62.98999888850355
 21
110.1045841595441
 31
0.0
  0
LINE
  5
FCA2
  8
3
 10
62.839679776480892
 20
110.0985713950632
 30
0.0
 11
62.887781892328213
 21
110.0985713950632
 31
0.0
  0
LINE
  5
FCA3
  8
3
 10
62.791577660633692
 20
110.0925586305824
 30
0.0
 11
62.839679776480892
 21
110.0985713950632
 31
0.0
  0
LINE
  5
FCA4
  8
3
 10
62.887781892328213
 20
110.0985713950632
 30
0.0
 11
62.941896772656342
 21
110.0985713950632
 31
0.0
  0
LINE
  5
FCA5
  8
3
 10
62.695373428939227
 20
110.0805331016206
 30
0.0
 11
62.743475544786492
 21
110.0865458661014
 31
0.0
  0
LINE
  5
FCA6
  8
3
 10
62.743475544786492
 20
110.0865458661014
 30
0.0
 11
62.791577660633692
 21
110.0925586305824
 31
0.0
  0
LINE
  5
FCA7
  8
3
 10
65.268836626766614
 20
108.7577249158213
 30
0.0
 11
65.292887684690214
 21
108.5893675103561
 31
0.0
  0
LINE
  5
FCA8
  8
3
 10
65.304913213652043
 20
108.2586654639062
 30
0.0
 11
65.304913213652043
 21
108.0842952939599
 31
0.0
  0
LINE
  5
FCA9
  8
3
 10
65.304913213652043
 20
108.0842952939599
 30
0.0
 11
65.304913213652043
 21
107.9159378884947
 31
0.0
  0
LINE
  5
FCAA
  8
3
 10
65.304913213652043
 20
108.4270228693716
 30
0.0
 11
65.304913213652043
 21
108.2586654639062
 31
0.0
  0
LINE
  5
FCAB
  8
3
 10
65.292887684690214
 20
108.5893675103561
 30
0.0
 11
65.304913213652043
 21
108.4270228693716
 31
0.0
  0
LINE
  5
FCAC
  8
3
 10
64.811866526217855
 20
109.5995119431481
 30
0.0
 11
64.884019699988727
 21
109.5213460048962
 31
0.0
  0
LINE
  5
FCAD
  8
3
 10
63.934002912005631
 20
108.9320950857675
 30
0.0
 11
63.843811444792117
 21
108.9801972016148
 31
0.0
  0
LINE
  5
FCAE
  8
3
 10
63.741594448616723
 20
109.0162737885002
 30
0.0
 11
63.63937745244138
 21
109.0403248464238
 31
0.0
  0
LINE
  5
FCAF
  8
3
 10
63.843811444792117
 20
108.9801972016148
 30
0.0
 11
63.741594448616723
 21
109.0162737885002
 31
0.0
  0
LINE
  5
FCB0
  8
3
 10
63.53114769178503
 20
109.0523503753857
 30
0.0
 11
63.422917931128751
 21
109.0583631398666
 31
0.0
  0
LINE
  5
FCB1
  8
3
 10
63.308675405991572
 20
109.0583631398666
 30
0.0
 11
63.19443288085435
 21
109.0583631398666
 31
0.0
  0
LINE
  5
FCB2
  8
3
 10
63.422917931128751
 20
109.0583631398666
 30
0.0
 11
63.308675405991572
 21
109.0583631398666
 31
0.0
  0
LINE
  5
FCB3
  8
3
 10
63.63937745244138
 20
109.0403248464238
 30
0.0
 11
63.53114769178503
 21
109.0523503753857
 31
0.0
  0
LINE
  5
FCB4
  8
3
 10
64.030207143700153
 20
108.8779802054394
 30
0.0
 11
63.934002912005631
 21
108.9320950857675
 31
0.0
  0
LINE
  5
FCB5
  8
3
 10
64.024194379219324
 20
108.8659546764776
 30
0.0
 11
64.030207143700153
 21
108.8779802054394
 31
0.0
  0
LINE
  5
FCB6
  8
3
 10
64.024194379219324
 20
108.8599419119967
 30
0.0
 11
64.024194379219324
 21
108.8659546764776
 31
0.0
  0
LINE
  5
FCB7
  8
3
 10
64.024194379219324
 20
108.8539291475157
 30
0.0
 11
64.024194379219324
 21
108.8599419119967
 31
0.0
  0
LINE
  5
FCB8
  8
3
 10
64.024194379219324
 20
108.847916383035
 30
0.0
 11
64.024194379219324
 21
108.8539291475157
 31
0.0
  0
LINE
  5
FCB9
  8
3
 10
64.024194379219324
 20
108.8419036185541
 30
0.0
 11
64.024194379219324
 21
108.847916383035
 31
0.0
  0
LINE
  5
FCBA
  8
3
 10
64.024194379219324
 20
108.835890854073
 30
0.0
 11
64.024194379219324
 21
108.8419036185541
 31
0.0
  0
LINE
  5
FCBB
  8
3
 10
65.106491985782185
 20
109.2146950163701
 30
0.0
 11
65.178645159553042
 21
109.0703886688284
 31
0.0
  0
LINE
  5
FCBC
  8
3
 10
65.232760039881242
 20
108.914056792325
 30
0.0
 11
65.268836626766614
 21
108.7577249158213
 31
0.0
  0
LINE
  5
FCBD
  8
3
 10
65.178645159553042
 20
109.0703886688284
 30
0.0
 11
65.232760039881242
 21
108.914056792325
 31
0.0
  0
LINE
  5
FCBE
  8
3
 10
64.884019699988727
 20
109.5213460048962
 30
0.0
 11
65.010287754087727
 21
109.3590013639118
 31
0.0
  0
LINE
  5
FCBF
  8
3
 10
65.010287754087727
 20
109.3590013639118
 30
0.0
 11
65.106491985782185
 21
109.2146950163701
 31
0.0
  0
LINE
  5
FCC0
  8
3
 10
64.565343182500754
 20
109.7979331710179
 30
0.0
 11
64.655534649714326
 21
109.7378055262088
 31
0.0
  0
LINE
  5
FCC1
  8
3
 10
64.066283730585582
 20
110.0324309857733
 30
0.0
 11
64.174513491241868
 21
109.9963543988878
 31
0.0
  0
LINE
  5
FCC2
  8
3
 10
64.378947483592668
 20
109.9121756961551
 30
0.0
 11
64.475151715287183
 21
109.858060815827
 31
0.0
  0
LINE
  5
FCC3
  8
3
 10
64.475151715287183
 20
109.858060815827
 30
0.0
 11
64.565343182500754
 21
109.7979331710179
 31
0.0
  0
LINE
  5
FCC4
  8
3
 10
64.174513491241868
 20
109.9963543988878
 30
0.0
 11
64.276730487417268
 21
109.9542650475215
 31
0.0
  0
LINE
  5
FCC5
  8
3
 10
64.276730487417268
 20
109.9542650475215
 30
0.0
 11
64.378947483592668
 21
109.9121756961551
 31
0.0
  0
LINE
  5
FCC6
  8
3
 10
63.843811444792117
 20
110.0865458661014
 30
0.0
 11
63.958053969929303
 21
110.0624948081778
 31
0.0
  0
LINE
  5
FCC7
  8
3
 10
63.60931363003683
 20
110.1166096885059
 30
0.0
 11
63.729568919654952
 21
110.1045841595441
 31
0.0
  0
LINE
  5
FCC8
  8
3
 10
63.729568919654952
 20
110.1045841595441
 30
0.0
 11
63.843811444792117
 21
110.0865458661014
 31
0.0
  0
LINE
  5
FCC9
  8
3
 10
63.392854108724201
 20
110.110596924025
 30
0.0
 11
63.495071104899658
 21
110.1226224529868
 31
0.0
  0
LINE
  5
FCCA
  8
3
 10
63.344751992877008
 20
110.1045841595441
 30
0.0
 11
63.392854108724201
 21
110.110596924025
 31
0.0
  0
LINE
  5
FCCB
  8
3
 10
63.188420116373472
 20
110.1045841595441
 30
0.0
 11
63.2425349967016
 21
110.1045841595441
 31
0.0
  0
LINE
  5
FCCC
  8
3
 10
63.2425349967016
 20
110.1045841595441
 30
0.0
 11
63.290637112548808
 21
110.1045841595441
 31
0.0
  0
LINE
  5
FCCD
  8
3
 10
63.290637112548808
 20
110.1045841595441
 30
0.0
 11
63.344751992877008
 21
110.1045841595441
 31
0.0
  0
LINE
  5
FCCE
  8
3
 10
63.495071104899658
 20
110.1226224529868
 30
0.0
 11
63.60931363003683
 21
110.1166096885059
 31
0.0
  0
LINE
  5
FCCF
  8
3
 10
63.140318000526207
 20
110.1045841595441
 30
0.0
 11
63.188420116373472
 21
110.1045841595441
 31
0.0
  0
LINE
  5
FCD0
  8
3
 10
63.958053969929303
 20
110.0624948081778
 30
0.0
 11
64.066283730585582
 21
110.0324309857733
 31
0.0
  0
CIRCLE
  5
FCD1
  8
3
 10
65.289717619840786
 20
109.88702503276561
 30
0.0
 40
0.241100623305389
  0
LINE
  5
FCD2
  8
3
 10
64.733700587966013
 20
109.6716651169189
 30
0.0
 11
64.811866526217855
 21
109.5995119431481
 31
0.0
  0
LINE
  5
FCD3
  8
3
 10
64.655534649714326
 20
109.7378055262088
 30
0.0
 11
64.733700587966013
 21
109.6716651169189
 31
0.0
  0
LINE
  5
FCD4
  8
3
 10
65.3770663874229
 20
107.09218915461049
 30
0.0
 11
65.509347206002843
 21
106.79756369504619
 31
0.0
  0
LINE
  5
FCD5
  8
3
 10
63.158356293968922
 20
106.80357645952699
 30
0.0
 11
63.09221588467895
 21
106.81560198848889
 31
0.0
  0
LINE
  5
FCD6
  8
3
 10
64.336858132226354
 20
106.80958922400799
 30
0.0
 11
64.324832603264525
 21
106.81560198848889
 31
0.0
  0
LINE
  5
FCD7
  8
3
 10
63.76564550654038
 20
106.81560198848889
 30
0.0
 11
63.699505097250409
 21
106.80357645952699
 31
0.0
  0
LINE
  5
FCD8
  8
3
 10
64.655534649714326
 20
106.79756369504619
 30
0.0
 11
64.354896425669054
 21
106.79756369504619
 31
0.0
  0
LINE
  5
FCD9
  8
3
 10
63.224496703258893
 20
106.79756369504619
 30
0.0
 11
63.158356293968922
 21
106.80357645952699
 31
0.0
  0
LINE
  5
FCDA
  8
3
 10
63.699505097250409
 20
106.80357645952699
 30
0.0
 11
63.627351923479551
 21
106.79756369504619
 31
0.0
  0
LINE
  5
FCDB
  8
3
 10
63.56121151418958
 20
106.79155093056529
 30
0.0
 11
63.495071104899658
 21
106.78553816608439
 31
0.0
  0
LINE
  5
FCDC
  8
3
 10
63.428930695609637
 20
106.78553816608439
 30
0.0
 11
63.356777521838779
 21
106.78553816608439
 31
0.0
  0
LINE
  5
FCDD
  8
3
 10
63.495071104899658
 20
106.78553816608439
 30
0.0
 11
63.428930695609637
 21
106.78553816608439
 31
0.0
  0
LINE
  5
FCDE
  8
3
 10
63.290637112548808
 20
106.79155093056529
 30
0.0
 11
63.224496703258893
 21
106.79756369504619
 31
0.0
  0
LINE
  5
FCDF
  8
3
 10
63.356777521838779
 20
106.78553816608439
 30
0.0
 11
63.290637112548808
 21
106.79155093056529
 31
0.0
  0
LINE
  5
FCE0
  8
3
 10
63.627351923479551
 20
106.79756369504619
 30
0.0
 11
63.56121151418958
 21
106.79155093056529
 31
0.0
  0
LINE
  5
FCE1
  8
3
 10
64.34287089670724
 20
106.79756369504619
 30
0.0
 11
64.336858132226354
 21
106.80958922400799
 31
0.0
  0
LINE
  5
FCE2
  8
3
 10
64.354896425669054
 20
106.79756369504619
 30
0.0
 11
64.34287089670724
 21
106.79756369504619
 31
0.0
  0
LINE
  5
FCE3
  8
3
 10
65.509347206002843
 20
106.79756369504619
 30
0.0
 11
64.655534649714326
 21
106.79756369504619
 31
0.0
  0
LINE
  5
FCE4
  8
3
 10
63.09221588467895
 20
106.81560198848889
 30
0.0
 11
63.026075475388971
 21
106.83364028193169
 31
0.0
  0
LINE
  5
FCE5
  8
3
 10
62.857718069923664
 20
106.88174239777879
 30
0.0
 11
62.851705305442771
 21
106.88775516225989
 31
0.0
  0
LINE
  5
FCE6
  8
3
 10
62.815628718557292
 20
106.90579345570259
 30
0.0
 11
62.809615954076399
 21
106.90579345570259
 31
0.0
  0
LINE
  5
FCE7
  8
3
 10
62.809615954076399
 20
106.90579345570259
 30
0.0
 11
62.797590425114628
 21
106.91180622018339
 31
0.0
  0
LINE
  5
FCE8
  8
3
 10
62.821641483038242
 20
106.90579345570259
 30
0.0
 11
62.815628718557292
 21
106.90579345570259
 31
0.0
  0
LINE
  5
FCE9
  8
3
 10
62.821641483038242
 20
106.89978069122159
 30
0.0
 11
62.821641483038242
 21
106.90579345570259
 31
0.0
  0
LINE
  5
FCEA
  8
3
 10
62.827654247519121
 20
106.89978069122159
 30
0.0
 11
62.821641483038242
 21
106.89978069122159
 31
0.0
  0
LINE
  5
FCEB
  8
3
 10
62.833667012000063
 20
106.89978069122159
 30
0.0
 11
62.827654247519121
 21
106.89978069122159
 31
0.0
  0
LINE
  5
FCEC
  8
3
 10
62.839679776480892
 20
106.89376792674079
 30
0.0
 11
62.833667012000063
 21
106.89978069122159
 31
0.0
  0
LINE
  5
FCED
  8
3
 10
62.845692540961892
 20
106.89376792674079
 30
0.0
 11
62.839679776480892
 21
106.89376792674079
 31
0.0
  0
LINE
  5
FCEE
  8
3
 10
62.851705305442771
 20
106.88775516225989
 30
0.0
 11
62.845692540961892
 21
106.89376792674079
 31
0.0
  0
LINE
  5
FCEF
  8
3
 10
62.863730834404549
 20
106.88174239777879
 30
0.0
 11
62.857718069923664
 21
106.88174239777879
 31
0.0
  0
LINE
  5
FCF0
  8
3
 10
62.869743598885492
 20
106.87572963329799
 30
0.0
 11
62.863730834404549
 21
106.88174239777879
 31
0.0
  0
LINE
  5
FCF1
  8
3
 10
62.875756363366371
 20
106.87572963329799
 30
0.0
 11
62.869743598885492
 21
106.87572963329799
 31
0.0
  0
LINE
  5
FCF2
  8
3
 10
62.881769127847321
 20
106.86971686881709
 30
0.0
 11
62.875756363366371
 21
106.87572963329799
 31
0.0
  0
LINE
  5
FCF3
  8
3
 10
62.893794656809092
 20
106.86971686881709
 30
0.0
 11
62.881769127847321
 21
106.86971686881709
 31
0.0
  0
LINE
  5
FCF4
  8
3
 10
63.026075475388971
 20
106.83364028193169
 30
0.0
 11
62.893794656809092
 21
106.86971686881709
 31
0.0
  0
LINE
  5
FCF5
  8
3
 10
62.731450015824599
 20
106.94788280706879
 30
0.0
 11
62.665309606534692
 21
106.98997215843529
 31
0.0
  0
LINE
  5
FCF6
  8
3
 10
62.665309606534692
 20
106.98997215843529
 30
0.0
 11
62.605181961725663
 21
107.03206150980149
 31
0.0
  0
LINE
  5
FCF7
  8
3
 10
62.797590425114628
 20
106.91180622018339
 30
0.0
 11
62.731450015824599
 21
106.94788280706879
 31
0.0
  0
LINE
  5
FCF8
  8
3
 10
62.605181961725663
 20
107.03206150980149
 30
0.0
 11
62.55106708139752
 21
107.08016362564879
 31
0.0
  0
LINE
  5
FCF9
  8
3
 10
65.304913213652043
 20
107.7475804830293
 30
0.0
 11
65.310925978132985
 21
107.5792230775639
 31
0.0
  0
LINE
  5
FCFA
  8
3
 10
63.909951854082088
 20
106.84566581089349
 30
0.0
 11
63.837798680311231
 21
106.82762751745069
 31
0.0
  0
LINE
  5
FCFB
  8
3
 10
63.837798680311231
 20
106.82762751745069
 30
0.0
 11
63.76564550654038
 21
106.81560198848889
 31
0.0
  0
LINE
  5
FCFC
  8
3
 10
64.306794309821811
 20
106.83965304641249
 30
0.0
 11
64.300781545340854
 21
106.84566581089349
 31
0.0
  0
LINE
  5
FCFD
  8
3
 10
64.312807074302697
 20
106.82762751745069
 30
0.0
 11
64.306794309821811
 21
106.83965304641249
 31
0.0
  0
LINE
  5
FCFE
  8
3
 10
64.318819838783583
 20
106.82161475296989
 30
0.0
 11
64.312807074302697
 21
106.82762751745069
 31
0.0
  0
LINE
  5
FCFF
  8
3
 10
64.324832603264525
 20
106.81560198848889
 30
0.0
 11
64.318819838783583
 21
106.82161475296989
 31
0.0
  0
LINE
  5
FD00
  8
3
 10
64.300781545340854
 20
106.84566581089349
 30
0.0
 11
64.294768780859982
 21
106.85769133985529
 31
0.0
  0
LINE
  5
FD01
  8
3
 10
63.982105027852953
 20
106.86370410433619
 30
0.0
 11
63.909951854082088
 21
106.84566581089349
 31
0.0
  0
LINE
  5
FD02
  8
3
 10
64.000143321295667
 20
106.87572963329799
 30
0.0
 11
63.982105027852953
 21
106.86370410433619
 31
0.0
  0
LINE
  5
FD03
  8
3
 10
64.012168850257439
 20
106.88174239777879
 30
0.0
 11
64.000143321295667
 21
106.87572963329799
 31
0.0
  0
LINE
  5
FD04
  8
3
 10
64.024194379219324
 20
106.88775516225989
 30
0.0
 11
64.012168850257439
 21
106.88174239777879
 31
0.0
  0
LINE
  5
FD05
  8
3
 10
64.036219908181096
 20
106.89376792674079
 30
0.0
 11
64.024194379219324
 21
106.88775516225989
 31
0.0
  0
LINE
  5
FD06
  8
3
 10
64.048245437142924
 20
106.89978069122159
 30
0.0
 11
64.036219908181096
 21
106.89376792674079
 31
0.0
  0
LINE
  5
FD07
  8
3
 10
64.060270966104696
 20
106.90579345570259
 30
0.0
 11
64.048245437142924
 21
106.89978069122159
 31
0.0
  0
LINE
  5
FD08
  8
3
 10
64.07830925954741
 20
106.91180622018339
 30
0.0
 11
64.060270966104696
 21
106.90579345570259
 31
0.0
  0
LINE
  5
FD09
  8
3
 10
64.090334788509239
 20
106.91781898466439
 30
0.0
 11
64.07830925954741
 21
106.91180622018339
 31
0.0
  0
LINE
  5
FD0A
  8
3
 10
64.10236031747101
 20
106.92383174914529
 30
0.0
 11
64.090334788509239
 21
106.91781898466439
 31
0.0
  0
LINE
  5
FD0B
  8
3
 10
64.114385846432839
 20
106.92984451362609
 30
0.0
 11
64.10236031747101
 21
106.92383174914529
 31
0.0
  0
LINE
  5
FD0C
  8
3
 10
64.126411375394653
 20
106.94187004258789
 30
0.0
 11
64.114385846432839
 21
106.92984451362609
 31
0.0
  0
LINE
  5
FD0D
  8
3
 10
64.144449668837382
 20
106.94788280706879
 30
0.0
 11
64.126411375394653
 21
106.94187004258789
 31
0.0
  0
LINE
  5
FD0E
  8
3
 10
64.156475197799153
 20
106.95389557154969
 30
0.0
 11
64.144449668837382
 21
106.94788280706879
 31
0.0
  0
LINE
  5
FD0F
  8
3
 10
64.168500726760982
 20
106.95990833603069
 30
0.0
 11
64.156475197799153
 21
106.95389557154969
 31
0.0
  0
LINE
  5
FD10
  8
3
 10
64.18052625572281
 20
106.97193386499239
 30
0.0
 11
64.168500726760982
 21
106.95990833603069
 31
0.0
  0
LINE
  5
FD11
  8
3
 10
64.186539020203696
 20
106.96592110051169
 30
0.0
 11
64.18052625572281
 21
106.97193386499239
 31
0.0
  0
LINE
  5
FD12
  8
3
 10
64.192551784684582
 20
106.96592110051169
 30
0.0
 11
64.186539020203696
 21
106.96592110051169
 31
0.0
  0
LINE
  5
FD13
  8
3
 10
64.198564549165525
 20
106.96592110051169
 30
0.0
 11
64.192551784684582
 21
106.96592110051169
 31
0.0
  0
LINE
  5
FD14
  8
3
 10
64.204577313646411
 20
106.96592110051169
 30
0.0
 11
64.198564549165525
 21
106.96592110051169
 31
0.0
  0
LINE
  5
FD15
  8
3
 10
64.210590078127296
 20
106.96592110051169
 30
0.0
 11
64.204577313646411
 21
106.96592110051169
 31
0.0
  0
LINE
  5
FD16
  8
3
 10
64.216602842608225
 20
106.96592110051169
 30
0.0
 11
64.210590078127296
 21
106.96592110051169
 31
0.0
  0
LINE
  5
FD17
  8
3
 10
64.222615607089125
 20
106.96592110051169
 30
0.0
 11
64.216602842608225
 21
106.96592110051169
 31
0.0
  0
LINE
  5
FD18
  8
3
 10
64.228628371570068
 20
106.96592110051169
 30
0.0
 11
64.222615607089125
 21
106.96592110051169
 31
0.0
  0
LINE
  5
FD19
  8
3
 10
64.234641136050953
 20
106.96592110051169
 30
0.0
 11
64.228628371570068
 21
106.96592110051169
 31
0.0
  0
LINE
  5
FD1A
  8
3
 10
64.240653900531839
 20
106.95990833603069
 30
0.0
 11
64.234641136050953
 21
106.96592110051169
 31
0.0
  0
LINE
  5
FD1B
  8
3
 10
64.246666665012782
 20
106.95990833603069
 30
0.0
 11
64.240653900531839
 21
106.95990833603069
 31
0.0
  0
LINE
  5
FD1C
  8
3
 10
64.246666665012782
 20
106.95389557154969
 30
0.0
 11
64.246666665012782
 21
106.95990833603069
 31
0.0
  0
LINE
  5
FD1D
  8
3
 10
64.252679429493668
 20
106.95389557154969
 30
0.0
 11
64.246666665012782
 21
106.95389557154969
 31
0.0
  0
LINE
  5
FD1E
  8
3
 10
64.258692193974611
 20
106.95389557154969
 30
0.0
 11
64.252679429493668
 21
106.95389557154969
 31
0.0
  0
LINE
  5
FD1F
  8
3
 10
64.264704958455496
 20
106.92383174914529
 30
0.0
 11
64.258692193974611
 21
106.95389557154969
 31
0.0
  0
LINE
  5
FD20
  8
3
 10
64.270717722936382
 20
106.91180622018339
 30
0.0
 11
64.264704958455496
 21
106.92383174914529
 31
0.0
  0
LINE
  5
FD21
  8
3
 10
64.276730487417268
 20
106.89978069122159
 30
0.0
 11
64.270717722936382
 21
106.91180622018339
 31
0.0
  0
LINE
  5
FD22
  8
3
 10
64.276730487417268
 20
106.88775516225989
 30
0.0
 11
64.276730487417268
 21
106.89978069122159
 31
0.0
  0
LINE
  5
FD23
  8
3
 10
64.282743251898154
 20
106.87572963329799
 30
0.0
 11
64.276730487417268
 21
106.88775516225989
 31
0.0
  0
LINE
  5
FD24
  8
3
 10
64.288756016379097
 20
106.86971686881709
 30
0.0
 11
64.282743251898154
 21
106.87572963329799
 31
0.0
  0
LINE
  5
FD25
  8
3
 10
64.294768780859982
 20
106.85769133985529
 30
0.0
 11
64.288756016379097
 21
106.86971686881709
 31
0.0
  0
LINE
  5
FD26
  8
3
 10
65.322951507094757
 20
107.41086567209859
 30
0.0
 11
65.340989800537471
 21
107.24852103111409
 31
0.0
  0
LINE
  5
FD27
  8
3
 10
65.340989800537471
 20
107.24852103111409
 30
0.0
 11
65.3770663874229
 21
107.09218915461049
 31
0.0
  0
LINE
  5
FD28
  8
3
 10
65.310925978132985
 20
107.5792230775639
 30
0.0
 11
65.322951507094757
 21
107.41086567209859
 31
0.0
  0
POLYLINE
  5
FD29
  8
3
 66
     1
 10
0.0
 20
0.0
 30
0.0
 70
     1
  0
VERTEX
  5
FD2A
  8
3
 10
63.230509467739829
 20
108.1023335874028
 30
0.0
  0
VERTEX
  5
FD2B
  8
3
 10
64.072296495066524
 20
108.1023335874028
 30
0.0
  0
VERTEX
  5
FD2C
  8
3
 10
64.078309259547467
 20
108.0903080584409
 30
0.0
  0
VERTEX
  5
FD2D
  8
3
 10
64.08432202402841
 20
108.0782825294791
 30
0.0
  0
VERTEX
  5
FD2E
  8
3
 10
64.08432202402841
 20
108.0722697649981
 30
0.0
  0
VERTEX
  5
FD2F
  8
3
 10
64.08432202402841
 20
108.0602442360363
 30
0.0
  0
VERTEX
  5
FD30
  8
3
 10
64.078309259547467
 20
108.0542314715555
 30
0.0
  0
VERTEX
  5
FD31
  8
3
 10
64.072296495066524
 20
108.0422059425937
 30
0.0
  0
VERTEX
  5
FD32
  8
3
 10
64.066283730585639
 20
108.0301804136318
 30
0.0
  0
VERTEX
  5
FD33
  8
3
 10
64.054258201623867
 20
108.01815488467
 30
0.0
  0
VERTEX
  5
FD34
  8
3
 10
64.042232672662095
 20
108.0121421201891
 30
0.0
  0
VERTEX
  5
FD35
  8
3
 10
64.03020714370021
 20
108.0001165912272
 30
0.0
  0
VERTEX
  5
FD36
  8
3
 10
64.018181614738438
 20
107.9880910622654
 30
0.0
  0
VERTEX
  5
FD37
  8
3
 10
64.00615608577661
 20
107.9760655333036
 30
0.0
  0
VERTEX
  5
FD38
  8
3
 10
63.994130556814838
 20
107.9700527688228
 30
0.0
  0
VERTEX
  5
FD39
  8
3
 10
63.982105027852953
 20
107.9580272398609
 30
0.0
  0
VERTEX
  5
FD3A
  8
3
 10
63.964066734410288
 20
107.9399889464183
 30
0.0
  0
VERTEX
  5
FD3B
  8
3
 10
63.92799014752481
 20
107.9159378884947
 30
0.0
  0
VERTEX
  5
FD3C
  8
3
 10
63.885900796158438
 20
107.891886830571
 30
0.0
  0
VERTEX
  5
FD3D
  8
3
 10
63.849824209273073
 20
107.8738485371283
 30
0.0
  0
VERTEX
  5
FD3E
  8
3
 10
63.813747622387631
 20
107.8618230081664
 30
0.0
  0
VERTEX
  5
FD3F
  8
3
 10
63.771658271021323
 20
107.8497974792047
 30
0.0
  0
VERTEX
  5
FD40
  8
3
 10
63.735581684135887
 20
107.8377719502428
 30
0.0
  0
VERTEX
  5
FD41
  8
3
 10
63.69349233276953
 20
107.8257464212809
 30
0.0
  0
VERTEX
  5
FD42
  8
3
 10
63.651402981403209
 20
107.8197336568002
 30
0.0
  0
VERTEX
  5
FD43
  8
3
 10
63.609313630036901
 20
107.8137208923192
 30
0.0
  0
VERTEX
  5
FD44
  8
3
 10
63.567224278670523
 20
107.8137208923192
 30
0.0
  0
VERTEX
  5
FD45
  8
3
 10
63.525134927304201
 20
107.8137208923192
 30
0.0
  0
VERTEX
  5
FD46
  8
3
 10
63.483045575937837
 20
107.8137208923192
 30
0.0
  0
VERTEX
  5
FD47
  8
3
 10
63.446968989052472
 20
107.8197336568002
 30
0.0
  0
VERTEX
  5
FD48
  8
3
 10
63.404879637686093
 20
107.8257464212809
 30
0.0
  0
VERTEX
  5
FD49
  8
3
 10
63.326713699434301
 20
107.8437847147238
 30
0.0
  0
VERTEX
  5
FD4A
  8
3
 10
63.308675405991572
 20
107.8497974792047
 30
0.0
  0
VERTEX
  5
FD4B
  8
3
 10
63.2966498770298
 20
107.8558102436855
 30
0.0
  0
VERTEX
  5
FD4C
  8
3
 10
63.278611583587093
 20
107.8618230081664
 30
0.0
  0
VERTEX
  5
FD4D
  8
3
 10
63.266586054625257
 20
107.8738485371283
 30
0.0
  0
VERTEX
  5
FD4E
  8
3
 10
63.254560525663443
 20
107.8798613016092
 30
0.0
  0
VERTEX
  5
FD4F
  8
3
 10
63.242534996701671
 20
107.891886830571
 30
0.0
  0
VERTEX
  5
FD50
  8
3
 10
63.230509467739829
 20
107.9039123595328
 30
0.0
  0
VERTEX
  5
FD51
  8
3
 10
63.224496703258943
 20
107.9159378884947
 30
0.0
  0
VERTEX
  5
FD52
  8
3
 10
63.212471174297121
 20
107.9279634174563
 30
0.0
  0
VERTEX
  5
FD53
  8
3
 10
63.206458409816229
 20
107.9399889464183
 30
0.0
  0
VERTEX
  5
FD54
  8
3
 10
63.200445645335293
 20
107.9520144753801
 30
0.0
  0
VERTEX
  5
FD55
  8
3
 10
63.194432880854407
 20
107.9640400043419
 30
0.0
  0
VERTEX
  5
FD56
  8
3
 10
63.188420116373521
 20
107.9760655333036
 30
0.0
  0
VERTEX
  5
FD57
  8
3
 10
63.182407351892579
 20
107.9941038267463
 30
0.0
  0
VERTEX
  5
FD58
  8
3
 10
63.176394587411693
 20
108.024167649151
 30
0.0
  0
VERTEX
  5
FD59
  8
3
 10
63.218483938778
 20
108.0963208229217
 30
0.0
  0
VERTEX
  5
FD5A
  8
3
 10
63.224496703258943
 20
108.0963208229217
 30
0.0
  0
VERTEX
  5
FD5B
  8
3
 10
63.230509467739829
 20
108.1023335874028
 30
0.0
  0
SEQEND
  5
FD5C
  8
3
  0
LINE
  5
FD5D
  8
3
 10
65.304913213652043
 20
107.9159378884947
 30
0.0
 11
65.304913213652043
 21
107.7475804830293
 31
0.0
  0
LINE
  5
FD5E
  8
2
 10
76.039222513580711
 20
108.358710641366
 30
0.0
 11
78.539222513580597
 21
106.9153349683916
 31
0.0
  0
LINE
  5
FD5F
  8
2
 10
73.53922251358054
 20
106.9153349683922
 30
0.0
 11
78.539222513580597
 21
106.9153349683916
 31
0.0
  0
LINE
  5
FD60
  8
2
 10
73.039222513580256
 20
104.0548992192211
 30
0.0
 11
79.039222513580256
 21
104.0548992192203
 31
0.0
  0
LINE
  5
FD61
  8
2
 10
78.539222513579176
 20
95.430176894193636
 30
0.0
 11
73.539222513579119
 21
95.430176894194275
 31
0.0
  0
LINE
  5
FD62
  8
2
 10
78.53179160770398
 20
108.7796940677848
 30
0.0
 11
81.781791607703582
 21
106.9033056929181
 31
0.0
1001
GENIUS_GENOREF_13
1005
0
  0
LINE
  5
FD63
  8
2
 10
73.539222513579119
 20
95.430176894194275
 30
0.0
 11
73.539222513580597
 21
106.9153349683922
 31
0.0
  0
LINE
  5
FD64
  8
1
 10
76.035507060642374
 20
111.8548992192207
 30
0.0
 11
76.035507060639858
 21
92.554899219227778
 31
0.0
  0
LINE
  5
FD65
  8
2
 10
72.039222513579119
 20
95.054899219221326
 30
0.0
 11
72.039222513579972
 21
100.0548992192213
 31
0.0
  0
LINE
  5
FD66
  8
2
 10
73.539222513579119
 20
95.430176894194275
 30
0.0
 11
72.889222513579085
 21
95.054899219221085
 31
0.0
  0
LINE
  5
FD67
  8
2
 10
73.039222513580256
 20
104.0548992192211
 30
0.0
 11
73.539222513580427
 21
105.054899219221
 31
0.0
  0
LINE
  5
FD68
  8
2
 10
73.039222513579176
 20
95.141501759599535
 30
0.0
 11
73.039222513580256
 21
104.0548992192211
 31
0.0
  0
LINE
  5
FD69
  8
2
 10
76.039222513580711
 20
108.358710641366
 30
0.0
 11
73.53922251358054
 21
106.9153349683922
 31
0.0
  0
LINE
  5
FD6A
  8
2
 10
74.535507060642516
 20
109.3548992192209
 30
0.0
 11
73.539222513580825
 21
108.7796940677856
 31
0.0
1001
GENIUS_GENBH_13
1002
{
1000
ML
1040
1.0000000099999991
1002
}
1002
{
1000
OE
1000
CON1
1002
}
1001
GENIUS_GENOREF_13
1005
0
  0
LINE
  5
FD6B
  8
2
 10
76.035507060642516
 20
109.3548992192207
 30
0.0
 11
74.535507060642516
 21
109.3548992192209
 31
0.0
1001
GENIUS_GENBH_13
1002
{
1000
ML
1040
1.0000000099999991
1002
}
1002
{
1000
OE
1000
CON1
1002
}
1001
GENIUS_GENOREF_13
1005
0
  0
LINE
  5
FD6C
  8
2
 10
77.535507060642516
 20
109.3548992192205
 30
0.0
 11
78.53179160770398
 21
108.7796940677848
 31
0.0
1001
GENIUS_GENBH_13
1002
{
1000
ML
1040
1.0000000099999991
1002
}
1002
{
1000
OE
1000
CON1
1002
}
1001
GENIUS_GENOREF_13
1005
0
  0
LINE
  5
FD6D
  8
2
 10
76.035507060642516
 20
109.3548992192207
 30
0.0
 11
77.535507060642516
 21
109.3548992192205
 31
0.0
1001
GENIUS_GENBH_13
1002
{
1000
ML
1040
1.0000000099999991
1002
}
1002
{
1000
OE
1000
CON1
1002
}
1001
GENIUS_GENOREF_13
1005
0
  0
LINE
  5
FD6E
  8
2
 10
78.539222513579176
 20
95.430176894193636
 30
0.0
 11
78.539222513580654
 21
106.9153349683916
 31
0.0
  0
LINE
  5
FD6F
  8
2
 10
81.781791607703582
 20
106.9033056929181
 30
0.0
 11
81.781791607702502
 21
100.05489921921971
 31
0.0
  0
LINE
  5
FD70
  8
2
 10
79.039222513579176
 20
95.141501759598739
 30
0.0
 11
79.039222513580256
 21
104.0548992192203
 31
0.0
  0
LINE
  5
FD71
  8
2
 10
78.539222513579176
 20
95.430176894193636
 30
0.0
 11
79.189222513579097
 21
95.054899219220289
 31
0.0
  0
LINE
  5
FD72
  8
2
 10
79.039222513580256
 20
104.0548992192203
 30
0.0
 11
78.539222513580427
 21
105.0548992192203
 31
0.0
  0
LINE
  5
FD73
  8
2
 10
80.031791607701251
 20
95.054899219220061
 30
0.0
 11
80.031791607702104
 21
100.05489921922
 31
0.0
  0
LINE
  5
FD74
  8
2
 10
80.031791607702104
 20
100.05489921922
 30
0.0
 11
81.781791607702445
 21
100.05489921921971
 31
0.0
  0
ARC
  5
FD75
  8
0
 10
90.077601343827013
 20
121.05489921922781
 30
0.0
 40
1.5
 50
1.9785219487263921
 51
90.0
1001
GENIUS_GENODEF_13
1002
{
1000
HIER
1070
     0
1002
}
1002
{
1000
MANEDIT
1070
     0
1002
}
1002
{
1000
NOSEL
1070
     0
1002
}
1002
{
1000
BEHIND
1070
     0
1002
}
1002
{
1000
REACTOR
1002
}
1001
GENIUS_GENOBJ-N-FIL_13
1002
{
1000
OWNER
1000
GEN
1002
}
  0
LINE
  5
FD82
  8
1
 10
177.64470799640549
 20
116.05489921922771
 30
0.0
 11
154.14470799640549
 21
116.05489921922771
 31
0.0
  0
LINE
  5
FD83
  8
1
 10
165.89470799640549
 20
127.55489921922781
 30
0.0
 11
165.89470799640549
 21
90.054899219227764
 31
0.0
  0
LINE
  5
FD8E
  8
1
 10
308.60875162665769
 20
115.80489921922781
 30
0.0
 11
285.10875162665758
 21
115.80489921922781
 31
0.0
  0
LINE
  5
FD8F
  8
1
 10
296.85875162665758
 20
127.55489921922781
 30
0.0
 11
296.85875162665769
 21
90.054899219227778
 31
0.0
  0
LINE
  5
FEED
  8
0
 10
26.535507060637769
 20
95.054899219230606
 30
0.0
 11
27.494307018472469
 21
121.1066865090863
 31
0.0
  0
LINE
  5
FEEE
  8
0
 10
264.41758075084181
 20
95.054899219226996
 30
0.0
 11
198.41758075083919
 21
95.054899219226996
 31
0.0
  0
LINE
  5
FF80
  8
0
 10
117.3947079964055
 20
217.06469210811761
 30
0.0
 11
117.3947079964055
 21
153.86861895779049
 31
0.0
  0
TEXT
  5
100C3
  8
0
 62
     3
 10
0.0
 20
0.0
 30
0.0
 40
10.0
  1
EMH5565SS
  7
STANDARD1
  0
ENDSEC
  0
EOF
