  0
SECTION
  2
HEADER
  9
$ACADVER
  1
AC1009
  9
$INSBASE
 10
0.0
 20
0.0
 30
0.0
  9
$EXTMIN
 10
0.0
 20
-2.960436562073669
 30
0.0
  9
$EXTMAX
 10
177.86154174320839
 20
113.3446018379679
 30
0.0
  9
$LIMMIN
 10
0.0
 20
0.0
  9
$LIMMAX
 10
375.0
 20
278.0
  9
$ORTHOMODE
 70
     0
  9
$REGENMODE
 70
     1
  9
$FILLMODE
 70
     1
  9
$QTEXTMODE
 70
     0
  9
$MIRRTEXT
 70
     0
  9
$DRAGMODE
 70
     2
  9
$LTSCALE
 40
10.0
  9
$OSMODE
 70
  3071
  9
$ATTMODE
 70
     1
  9
$TEXTSIZE
 40
0.2
  9
$TRACEWID
 40
0.05
  9
$TEXTSTYLE
  7
STANDARD
  9
$CLAYER
  8
0
  9
$CELTYPE
  6
BYLAYER
  9
$CECOLOR
 62
   256
  9
$DIMSCALE
 40
1.0
  9
$DIMASZ
 40
3.0
  9
$DIMEXO
 40
1.0
  9
$DIMDLI
 40
6.0
  9
$DIMRND
 40
0.0
  9
$DIMDLE
 40
0.0
  9
$DIMEXE
 40
1.0
  9
$DIMTP
 40
495.0
  9
$DIMTM
 40
0.0
  9
$DIMTXT
 40
3.0
  9
$DIMCEN
 40
0.0
  9
$DIMTSZ
 40
0.0
  9
$DIMTOL
 70
     0
  9
$DIMLIM
 70
     0
  9
$DIMTIH
 70
     0
  9
$DIMTOH
 70
     0
  9
$DIMSE1
 70
     0
  9
$DIMSE2
 70
     0
  9
$DIMTAD
 70
     1
  9
$DIMZIN
 70
     0
  9
$DIMBLK
  1

  9
$DIMASO
 70
     1
  9
$DIMSHO
 70
     0
  9
$DIMPOST
  1

  9
$DIMAPOST
  1

  9
$DIMALT
 70
     0
  9
$DIMALTD
 70
     2
  9
$DIMALTF
 40
25.399999999999999
  9
$DIMLFAC
 40
1.0
  9
$DIMTOFL
 70
     1
  9
$DIMTVP
 40
0.0
  9
$DIMTIX
 70
     1
  9
$DIMSOXD
 70
     0
  9
$DIMSAH
 70
     0
  9
$DIMBLK1
  1

  9
$DIMBLK2
  1

  9
$DIMSTYLE
  2
STANDARD
  9
$DIMCLRD
 70
     0
  9
$DIMCLRE
 70
     0
  9
$DIMCLRT
 70
     4
  9
$DIMTFAC
 40
1.0
  9
$DIMGAP
 40
1.0
  9
$LUNITS
 70
     2
  9
$LUPREC
 70
     4
  9
$SKETCHINC
 40
0.1
  9
$FILLETRAD
 40
0.0
  9
$AUNITS
 70
     0
  9
$AUPREC
 70
     0
  9
$MENU
  1
C:\R13\WIN\SUPPORT\ACAD-I
  9
$ELEVATION
 40
0.0
  9
$PELEVATION
 40
0.0
  9
$THICKNESS
 40
0.0
  9
$LIMCHECK
 70
     0
  9
$BLIPMODE
 70
     0
  9
$CHAMFERA
 40
0.0
  9
$CHAMFERB
 40
0.0
  9
$SKPOLY
 70
     0
  9
$TDCREATE
 40
2450834.4199027782
  9
$TDUPDATE
 40
2456598.6829798501
  9
$TDINDWG
 40
0.1214394444
  9
$TDUSRTIMER
 40
0.1214394444
  9
$USRTIMER
 70
     1
  9
$ANGBASE
 50
0.0
  9
$ANGDIR
 70
     0
  9
$PDMODE
 70
     0
  9
$PDSIZE
 40
0.0
  9
$PLINEWID
 40
0.0
  9
$COORDS
 70
     1
  9
$SPLFRAME
 70
     0
  9
$SPLINETYPE
 70
     6
  9
$SPLINESEGS
 70
     8
  9
$ATTDIA
 70
     0
  9
$ATTREQ
 70
     1
  9
$HANDLING
 70
     1
  9
$HANDSEED
  5
EDDE
  9
$SURFTAB1
 70
     6
  9
$SURFTAB2
 70
     6
  9
$SURFTYPE
 70
     6
  9
$SURFU
 70
     6
  9
$SURFV
 70
     6
  9
$UCSNAME
  2

  9
$UCSORG
 10
0.0
 20
0.0
 30
0.0
  9
$UCSXDIR
 10
1.0
 20
0.0
 30
0.0
  9
$UCSYDIR
 10
0.0
 20
1.0
 30
0.0
  9
$PUCSNAME
  2

  9
$PUCSORG
 10
0.0
 20
0.0
 30
0.0
  9
$PUCSXDIR
 10
1.0
 20
0.0
 30
0.0
  9
$PUCSYDIR
 10
0.0
 20
1.0
 30
0.0
  9
$USERI1
 70
     4
  9
$USERI2
 70
     1
  9
$USERI3
 70
     1
  9
$USERI4
 70
     0
  9
$USERI5
 70
     0
  9
$USERR1
 40
1.0
  9
$USERR2
 40
3.0
  9
$USERR3
 40
3.0
  9
$USERR4
 40
3.0
  9
$USERR5
 40
10.0
  9
$WORLDVIEW
 70
     1
  9
$SHADEDGE
 70
     3
  9
$SHADEDIF
 70
    70
  9
$TILEMODE
 70
     1
  9
$MAXACTVP
 70
    16
  9
$PLIMCHECK
 70
     0
  9
$PEXTMIN
 10
1.0000000000000000E+020
 20
1.0000000000000000E+020
 30
1.0000000000000000E+020
  9
$PEXTMAX
 10
-1.0000000000000000E+020
 20
-1.0000000000000000E+020
 30
-1.0000000000000000E+020
  9
$PLIMMIN
 10
0.0
 20
0.0
  9
$PLIMMAX
 10
12.0
 20
9.0
  9
$UNITMODE
 70
     0
  9
$VISRETAIN
 70
     0
  9
$PLINEGEN
 70
     0
  9
$PSLTSCALE
 70
     0
  0
ENDSEC
  0
SECTION
  2
TABLES
  0
TABLE
  2
VPORT
 70
     1
  0
VPORT
  2
*ACTIVE
 70
     0
 10
0.0
 20
0.0
 11
1.0
 21
1.0
 12
187.49427839065231
 22
174.97168974450321
 13
0.0
 23
0.0
 14
10.0
 24
10.0
 15
10.0
 25
10.0
 16
0.0
 26
0.0
 36
1.0
 17
0.0
 27
0.0
 37
0.0
 40
359.12869706410731
 41
1.831871345029239
 42
50.0
 43
0.0
 44
0.0
 50
0.0
 51
0.0
 71
     0
 72
   100
 73
     1
 74
     0
 75
     0
 76
     0
 77
     0
 78
     0
  0
ENDTAB
  0
TABLE
  2
LTYPE
 70
     4
  0
LTYPE
  2
CONTINUOUS
 70
     0
  3
Solid Line
 72
    65
 73
     0
 40
0.0
  0
LTYPE
  2
CENTER
 70
     0
  3
____ _ ____ _ ____ _ ____ _ ____ _ ____ _ ____
 72
    65
 73
     4
 40
2.0
 49
1.25
 49
-0.25
 49
0.25
 49
-0.25
  0
LTYPE
  2
HIDDEN
 70
     0
  3
__ __ __ __ __ __ __ __ __ __ __ __ __ __ __ __
 72
    65
 73
     2
 40
0.375
 49
0.25
 49
-0.125
  0
LTYPE
  2
PHANTOM2
 70
     0
  3
___ _ _ ___ _ _ ___ _ _ ___ _ _
 72
    65
 73
     6
 40
1.25
 49
0.625
 49
-0.125
 49
0.125
 49
-0.125
 49
0.125
 49
-0.125
  0
ENDTAB
  0
TABLE
  2
LAYER
 70
     4
  0
LAYER
  2
0
 70
     0
 62
     7
  6
CONTINUOUS
  0
LAYER
  2
1
 70
     0
 62
     1
  6
CENTER
  0
LAYER
  2
3
 70
     0
 62
     3
  6
CONTINUOUS
  0
LAYER
  2
2
 70
     0
 62
     2
  6
HIDDEN
  0
ENDTAB
  0
TABLE
  2
STYLE
 70
     2
  0
STYLE
  2
STANDARD
 70
     0
 40
0.0
 41
1.0
 50
0.0
 71
     0
 42
0.2
  3
SIMPLEX
  4
BIGFONT
  0
STYLE
  2
STANDARD1
 70
     0
 40
0.0
 41
1.0
 50
0.0
 71
     0
 42
3.0
  3
txt
  4

  0
ENDTAB
  0
TABLE
  2
VIEW
 70
     0
  0
ENDTAB
  0
TABLE
  2
UCS
 70
     0
  0
ENDTAB
  0
TABLE
  2
APPID
 70
    38
  0
APPID
  2
ACAD
 70
     0
  0
APPID
  2
GENIUS_GENOBJ_13
 70
     0
  0
APPID
  2
GENIUS_GENODEF_13
 70
     0
  0
APPID
  2
GENIUS_GENOENT_13
 70
     0
  0
APPID
  2
GENIUS_GENOLIS_13
 70
     0
  0
APPID
  2
GENIUS_GENOREF_13
 70
     0
  0
APPID
  2
GENIUS_GENOBJ-N-TIT_13
 70
     0
  0
APPID
  2
GENIUS_GENTITLE_13
 70
     0
  0
APPID
  2
GENIUS_GENZVEED_13
 70
     0
  0
APPID
  2
GENIUS_GENOBJ-N-FIL_13
 70
     0
  0
APPID
  2
GENIUS_GENOBJ-N-CRS_13
 70
     0
  0
APPID
  2
GENIUS_GEFINERT_13
 70
     0
  0
APPID
  2
GENIUS_GENOBJ-F-INER_13
 70
     0
  0
APPID
  2
GENIUS_GENOBJ-N-ZOO_13
 70
     0
  0
APPID
  2
GENIUS_GENZOO_13
 70
     0
  0
APPID
  2
GENIUS_GENOBJ-F-TOL_13
 70
     0
  0
APPID
  2
GENIUS_GENOBJ-N-RSSYM_13
 70
     0
  0
APPID
  2
GENIUS_GENSYMENT_13
 70
     0
  0
APPID
  2
GENIUS_GENBH_13
 70
     0
  0
APPID
  2
GENIUS_GENOBJ-NBEHI-BHF_13
 70
     0
  0
APPID
  2
GENIUS_GENOBJ-NBEHI-BHB_13
 70
     0
  0
APPID
  2
GENIUS_GENOBJ-F-PART_13
 70
     0
  0
APPID
  2
GENIUS_GEFSTDP_13
 70
     0
  0
APPID
  2
GENIUS_GENOBJ-N-LEADER_13
 70
     0
  0
APPID
  2
GENIUS_GENOBJ-N-REV_13
 70
     0
  0
APPID
  2
GENIUS_GENCFG_13
 70
     0
  0
APPID
  2
GENIUS_GENCFG0_13
 70
     0
  0
APPID
  2
GENIUS_GENCFG1_13
 70
     0
  0
APPID
  2
GENIUS_GENCFG2_13
 70
     0
  0
APPID
  2
GENIUS_GENCFG3_13
 70
     0
  0
APPID
  2
GENIUS_GEVCFG0_13
 70
     0
  0
APPID
  2
GENIUS_GENCFG4_13
 70
     0
  0
APPID
  2
GENIUS_GENOBJ-N-REC_13
 70
     0
  0
APPID
  2
GENIUS_GENFIL_13
 70
     0
  0
APPID
  2
GENIUS_GENOBJ-N-CHA_13
 70
     0
  0
APPID
  2
GENIUS_GENREC_13
 70
     0
  0
APPID
  2
ACAD_MLEADERVER
 70
     0
  0
APPID
  2
ACAD_NAV_VCDISPLAY
 70
     0
  0
ENDTAB
  0
TABLE
  2
DIMSTYLE
 70
     1
  0
DIMSTYLE
  2
STANDARD
 70
     0
  3

  4

  5

  6

  7

 40
1.0
 41
0.18
 42
0.0625
 43
0.38
 44
0.18
 45
0.0
 46
0.0
 47
0.0
 48
0.0
140
0.18
141
0.09
142
0.0
143
25.399999999999999
144
1.0
145
0.0
146
1.0
147
0.09
 71
     0
 72
     0
 73
     1
 74
     1
 75
     0
 76
     0
 77
     0
 78
     0
170
     0
171
     2
172
     0
173
     0
174
     0
175
     0
176
     0
177
     0
178
     0
  0
ENDTAB
  0
ENDSEC
  0
SECTION
  2
BLOCKS
  0
BLOCK
  8
0
  2
$MODEL_SPACE
 70
     0
 10
0.0
 20
0.0
 30
0.0
  3
$MODEL_SPACE
  1

  0
ENDBLK
  5
EBFE
  8
0
  0
BLOCK
 67
     1
  8
0
  2
$PAPER_SPACE
 70
     0
 10
0.0
 20
0.0
 30
0.0
  3
$PAPER_SPACE
  1

  0
ENDBLK
  5
EBFC
 67
     1
  8
0
  0
BLOCK
  8
0
  2
STDGX5
 70
     0
 10
0.0
 20
0.0
 30
0.0
  3
STDGX5
  1

  0
ENDBLK
  5
4F
  8
0
  0
ENDSEC
  0
SECTION
  2
ENTITIES
  0
INSERT
  5
DE
  8
0
  2
STDGX5
 10
0.0
 20
0.0
 30
0.0
  0
INSERT
  5
DF
  8
0
  2
STDGX5
 10
0.0
 20
0.0
 30
0.0
  0
INSERT
  5
15C
  8
0
  2
STDGX5
 10
275.0
 20
0.0
 30
0.0
  0
INSERT
  5
15D
  8
0
  2
STDGX5
 10
275.0
 20
0.0
 30
0.0
  0
INSERT
  5
314
  8
0
  2
STDGX5
 10
0.0
 20
0.0
 30
0.0
  0
INSERT
  5
315
  8
0
  2
STDGX5
 10
0.0
 20
0.0
 30
0.0
  0
INSERT
  5
316
  8
0
  2
STDGX5
 10
275.0
 20
0.0
 30
0.0
  0
INSERT
  5
317
  8
0
  2
STDGX5
 10
275.0
 20
0.0
 30
0.0
  0
INSERT
  5
4EF
  8
0
  2
STDGX5
 10
0.0
 20
0.0
 30
0.0
  0
INSERT
  5
4F0
  8
0
  2
STDGX5
 10
0.0
 20
0.0
 30
0.0
  0
INSERT
  5
4F1
  8
0
  2
STDGX5
 10
275.0
 20
0.0
 30
0.0
  0
INSERT
  5
4F2
  8
0
  2
STDGX5
 10
275.0
 20
0.0
 30
0.0
  0
LINE
  5
E2C0
  8
0
 10
131.36154174320851
 20
47.921271728817601
 30
0.0
 11
101.3615437432084
 21
47.921271728817601
 31
0.0
  0
LINE
  5
E2C1
  8
0
 10
115.91779274320849
 20
60.344603837967917
 30
0.0
 11
111.99279374320849
 21
60.344603837967902
 31
0.0
  0
LINE
  5
E2C2
  8
2
 10
112.0365427432085
 20
51.921271728817601
 30
0.0
 11
105.68654274320841
 21
51.921271728817601
 31
0.0
1001
GENIUS_GENOREF_13
1005
0
  0
LINE
  5
E2C3
  8
0
 10
111.49279374320849
 20
52.921271728817622
 30
0.0
 11
106.79279374320851
 21
52.921271728817601
 31
0.0
  0
LINE
  5
E2C4
  8
0
 10
110.99279374320849
 20
54.421271728817601
 30
0.0
 11
107.29279374320851
 21
54.421271728817572
 31
0.0
  0
LINE
  5
E2C5
  8
0
 10
110.99279374320849
 20
60.344603837967981
 30
0.0
 11
107.29279374320851
 21
60.344603837967981
 31
0.0
  0
LINE
  5
E2C6
  8
0
 10
101.3615437432084
 20
47.921271728817601
 30
0.0
 11
101.7308159112311
 21
59.860061671484402
 31
0.0
  0
LINE
  5
E2C7
  8
0
 10
106.79279374320851
 20
52.921271728817622
 30
0.0
 11
106.79279374320851
 21
59.844603837967981
 31
0.0
  0
LINE
  5
E2C8
  8
2
 10
105.68654274320841
 20
51.921271728817601
 30
0.0
 11
105.68654274320841
 21
49.921271728817601
 31
0.0
  0
LINE
  5
E2C9
  8
2
 10
105.68654274320841
 20
49.921271728817601
 30
0.0
 11
106.6615427432085
 21
49.921271728817601
 31
0.0
  0
LINE
  5
E2CA
  8
2
 10
107.3615427432085
 20
47.921271728817601
 30
0.0
 11
107.3615427432085
 21
51.921271728817601
 31
0.0
  0
LINE
  5
E2CB
  8
2
 10
107.6115427432084
 20
47.921271728817601
 30
0.0
 11
107.6115427432084
 21
51.921271728817601
 31
0.0
  0
LINE
  5
E2CC
  8
2
 10
106.6615427432085
 20
49.921271728817601
 30
0.0
 11
106.6615427432085
 21
47.921271728817601
 31
0.0
  0
ARC
  5
E2CD
  8
0
 10
107.29279374320851
 20
54.921271728817551
 30
0.0
 40
0.5
 50
179.99999999999989
 51
270.00000000000063
1001
GENIUS_GENODEF_13
1002
{
1000
HIER
1070
     0
1002
}
1002
{
1000
MANEDIT
1070
     0
1002
}
1002
{
1000
NOSEL
1070
     0
1002
}
1002
{
1000
BEHIND
1070
     0
1002
}
1002
{
1000
REACTOR
1002
}
1001
GENIUS_GENOBJ-N-FIL_13
1002
{
1000
OWNER
1000
GEN
1002
}
  0
LINE
  5
E2CE
  8
0
 10
106.29279374320851
 20
60.344603837967981
 30
0.0
 11
102.2305769094922
 21
60.344603837968009
 31
0.0
  0
ARC
  5
E2CF
  8
0
 10
102.2305769094922
 20
59.844603837968002
 30
0.0
 40
0.5
 50
89.999999999999943
 51
178.22838046909311
1001
GENIUS_GENODEF_13
1002
{
1000
HIER
1070
     0
1002
}
1002
{
1000
MANEDIT
1070
     0
1002
}
1002
{
1000
NOSEL
1070
     0
1002
}
1002
{
1000
BEHIND
1070
     0
1002
}
1002
{
1000
REACTOR
1002
}
1001
GENIUS_GENOBJ-N-FIL_13
1002
{
1000
OWNER
1000
GEN
1002
}
  0
ARC
  5
E2D0
  8
0
 10
107.29279374320851
 20
59.844603837967981
 30
0.0
 40
0.5
 50
89.999999999999815
 51
179.99999999999989
1001
GENIUS_GENODEF_13
1002
{
1000
HIER
1070
     0
1002
}
1002
{
1000
MANEDIT
1070
     0
1002
}
1002
{
1000
NOSEL
1070
     0
1002
}
1002
{
1000
BEHIND
1070
     0
1002
}
1002
{
1000
REACTOR
1002
}
1001
GENIUS_GENOBJ-N-FIL_13
1002
{
1000
OWNER
1000
GEN
1002
}
  0
ARC
  5
E2D1
  8
0
 10
106.29279374320851
 20
59.844603837967981
 30
0.0
 40
0.5
 50
360.0
 51
89.999999999999815
1001
GENIUS_GENODEF_13
1002
{
1000
HIER
1070
     0
1002
}
1002
{
1000
MANEDIT
1070
     0
1002
}
1002
{
1000
NOSEL
1070
     0
1002
}
1002
{
1000
BEHIND
1070
     0
1002
}
1002
{
1000
REACTOR
1002
}
1001
GENIUS_GENOBJ-N-FIL_13
1002
{
1000
OWNER
1000
GEN
1002
}
  0
LINE
  5
E2D2
  8
0
 10
111.49279374320849
 20
52.921271728817622
 30
0.0
 11
111.49279374320849
 21
59.844603837967981
 31
0.0
  0
LINE
  5
E2D3
  8
2
 10
112.0365427432085
 20
49.921271728817601
 30
0.0
 11
111.06154274320841
 21
49.921271728817601
 31
0.0
  0
LINE
  5
E2D4
  8
2
 10
111.06154274320841
 20
49.921271728817601
 30
0.0
 11
111.06154274320841
 21
47.921271728817601
 31
0.0
  0
LINE
  5
E2D5
  8
2
 10
110.3615427432085
 20
47.921271728817601
 30
0.0
 11
110.3615427432085
 21
51.921271728817601
 31
0.0
  0
LINE
  5
E2D6
  8
2
 10
110.1115427432084
 20
47.921271728817601
 30
0.0
 11
110.1115427432084
 21
51.921271728817601
 31
0.0
  0
LINE
  5
E2D7
  8
1
 10
108.8615427432084
 20
46.421271728817587
 30
0.0
 11
108.8615427432084
 21
53.421271728817601
 31
0.0
  0
ARC
  5
E2D8
  8
0
 10
110.99279374320849
 20
54.921271728817601
 30
0.0
 40
0.5
 50
270.00000000000063
 51
359.99999999999989
1001
GENIUS_GENODEF_13
1002
{
1000
HIER
1070
     0
1002
}
1002
{
1000
MANEDIT
1070
     0
1002
}
1002
{
1000
NOSEL
1070
     0
1002
}
1002
{
1000
BEHIND
1070
     0
1002
}
1002
{
1000
REACTOR
1002
}
1001
GENIUS_GENOBJ-N-FIL_13
1002
{
1000
OWNER
1000
GEN
1002
}
  0
LINE
  5
E2D9
  8
2
 10
112.0365427432085
 20
51.921271728817601
 30
0.0
 11
112.0365427432085
 21
49.921271728817601
 31
0.0
  0
ARC
  5
E2DA
  8
0
 10
111.99279374320849
 20
59.844603837967981
 30
0.0
 40
0.5
 50
89.999999999999815
 51
179.99999999999989
1001
GENIUS_GENODEF_13
1002
{
1000
HIER
1070
     0
1002
}
1002
{
1000
MANEDIT
1070
     0
1002
}
1002
{
1000
NOSEL
1070
     0
1002
}
1002
{
1000
BEHIND
1070
     0
1002
}
1002
{
1000
REACTOR
1002
}
1001
GENIUS_GENOBJ-N-FIL_13
1002
{
1000
OWNER
1000
GEN
1002
}
  0
ARC
  5
E2DB
  8
0
 10
110.99279374320849
 20
59.844603837967981
 30
0.0
 40
0.5
 50
359.99999999999989
 51
89.999999999999815
1001
GENIUS_GENODEF_13
1002
{
1000
HIER
1070
     0
1002
}
1002
{
1000
MANEDIT
1070
     0
1002
}
1002
{
1000
NOSEL
1070
     0
1002
}
1002
{
1000
BEHIND
1070
     0
1002
}
1002
{
1000
REACTOR
1002
}
1001
GENIUS_GENOBJ-N-FIL_13
1002
{
1000
OWNER
1000
GEN
1002
}
  0
LINE
  5
E2DC
  8
2
 10
120.68654274320841
 20
51.921271728817601
 30
0.0
 11
127.0365427432085
 21
51.921271728817601
 31
0.0
1001
GENIUS_GENOREF_13
1005
0
  0
LINE
  5
E2DD
  8
0
 10
125.54279274320849
 20
60.344603837967917
 30
0.0
 11
121.6177927432085
 21
60.344603837967902
 31
0.0
  0
LINE
  5
E2DE
  8
1
 10
116.3615427432084
 20
63.344603837967952
 30
0.0
 11
116.3615427432084
 21
44.921271728817601
 31
0.0
  0
LINE
  5
E2DF
  8
0
 10
121.1177927432085
 20
52.921271728817523
 30
0.0
 11
121.1177927432085
 21
59.844603837967917
 31
0.0
  0
LINE
  5
E2E0
  8
0
 10
116.41779274320849
 20
52.921271728817601
 30
0.0
 11
116.41779274320849
 21
59.844603837967952
 31
0.0
  0
LINE
  5
E2E1
  8
0
 10
121.1177927432085
 20
52.921271728817601
 30
0.0
 11
116.41779274320849
 21
52.921271728817601
 31
0.0
  0
LINE
  5
E2E2
  8
0
 10
120.6177927432085
 20
54.421271728817679
 30
0.0
 11
116.91779274320849
 21
54.421271728817679
 31
0.0
  0
ARC
  5
E2E3
  8
0
 10
116.91779274320849
 20
54.921271728817693
 30
0.0
 40
0.5
 50
179.99999999999989
 51
270.0
1001
GENIUS_GENODEF_13
1002
{
1000
HIER
1070
     0
1002
}
1002
{
1000
MANEDIT
1070
     0
1002
}
1002
{
1000
NOSEL
1070
     0
1002
}
1002
{
1000
BEHIND
1070
     0
1002
}
1002
{
1000
REACTOR
1002
}
1001
GENIUS_GENOBJ-N-FIL_13
1002
{
1000
OWNER
1000
GEN
1002
}
  0
LINE
  5
E2E4
  8
2
 10
120.68654274320841
 20
51.921271728817601
 30
0.0
 11
120.68654274320841
 21
49.921271728817601
 31
0.0
  0
LINE
  5
E2E5
  8
2
 10
120.68654274320841
 20
49.921271728817601
 30
0.0
 11
121.6615427432085
 21
49.921271728817601
 31
0.0
  0
LINE
  5
E2E6
  8
2
 10
122.6115427432084
 20
47.921271728817601
 30
0.0
 11
122.6115427432084
 21
51.921271728817601
 31
0.0
  0
LINE
  5
E2E7
  8
2
 10
122.3615427432084
 20
47.921271728817601
 30
0.0
 11
122.3615427432084
 21
51.921271728817601
 31
0.0
  0
LINE
  5
E2E8
  8
2
 10
121.6615427432085
 20
49.921271728817601
 30
0.0
 11
121.6615427432085
 21
47.921271728817601
 31
0.0
  0
ARC
  5
E2E9
  8
0
 10
120.6177927432085
 20
54.921271728817651
 30
0.0
 40
0.5
 50
270.0
 51
0.0
1001
GENIUS_GENODEF_13
1002
{
1000
HIER
1070
     0
1002
}
1002
{
1000
MANEDIT
1070
     0
1002
}
1002
{
1000
NOSEL
1070
     0
1002
}
1002
{
1000
BEHIND
1070
     0
1002
}
1002
{
1000
REACTOR
1002
}
1001
GENIUS_GENOBJ-N-FIL_13
1002
{
1000
OWNER
1000
GEN
1002
}
  0
LINE
  5
E2EA
  8
0
 10
120.6177927432085
 20
60.344603837967952
 30
0.0
 11
116.91779274320849
 21
60.344603837967952
 31
0.0
  0
ARC
  5
E2EB
  8
0
 10
116.91779274320849
 20
59.844603837967952
 30
0.0
 40
0.5
 50
89.999999999999815
 51
179.99999999999989
1001
GENIUS_GENODEF_13
1002
{
1000
HIER
1070
     0
1002
}
1002
{
1000
MANEDIT
1070
     0
1002
}
1002
{
1000
NOSEL
1070
     0
1002
}
1002
{
1000
BEHIND
1070
     0
1002
}
1002
{
1000
REACTOR
1002
}
1001
GENIUS_GENOBJ-N-FIL_13
1002
{
1000
OWNER
1000
GEN
1002
}
  0
ARC
  5
E2EC
  8
0
 10
115.91779274320849
 20
59.844603837967952
 30
0.0
 40
0.5
 50
359.99999999999989
 51
89.999999999999815
1001
GENIUS_GENODEF_13
1002
{
1000
HIER
1070
     0
1002
}
1002
{
1000
MANEDIT
1070
     0
1002
}
1002
{
1000
NOSEL
1070
     0
1002
}
1002
{
1000
BEHIND
1070
     0
1002
}
1002
{
1000
REACTOR
1002
}
1001
GENIUS_GENOBJ-N-FIL_13
1002
{
1000
OWNER
1000
GEN
1002
}
  0
ARC
  5
E2ED
  8
0
 10
120.6177927432085
 20
59.844603837967917
 30
0.0
 40
0.5
 50
0.0
 51
89.999999999999815
1001
GENIUS_GENODEF_13
1002
{
1000
HIER
1070
     0
1002
}
1002
{
1000
MANEDIT
1070
     0
1002
}
1002
{
1000
NOSEL
1070
     0
1002
}
1002
{
1000
BEHIND
1070
     0
1002
}
1002
{
1000
REACTOR
1002
}
1001
GENIUS_GENOBJ-N-FIL_13
1002
{
1000
OWNER
1000
GEN
1002
}
  0
ARC
  5
E2EE
  8
0
 10
121.6177927432085
 20
59.844603837967917
 30
0.0
 40
0.5
 50
89.999999999999815
 51
180.0
1001
GENIUS_GENODEF_13
1002
{
1000
HIER
1070
     0
1002
}
1002
{
1000
MANEDIT
1070
     0
1002
}
1002
{
1000
NOSEL
1070
     0
1002
}
1002
{
1000
BEHIND
1070
     0
1002
}
1002
{
1000
REACTOR
1002
}
1001
GENIUS_GENOBJ-N-FIL_13
1002
{
1000
OWNER
1000
GEN
1002
}
  0
LINE
  5
E2EF
  8
0
 10
126.04279274320849
 20
52.921271728817601
 30
0.0
 11
126.04279274320849
 21
59.844603837967952
 31
0.0
  0
LINE
  5
E2F0
  8
0
 10
131.14455046215781
 20
54.936729562334172
 30
0.0
 11
130.99226957518579
 21
59.86006167148431
 31
0.0
  0
LINE
  5
E2F1
  8
0
 10
131.20688948372651
 20
52.921271728817572
 30
0.0
 11
126.04279274320849
 21
52.921271728817601
 31
0.0
  0
LINE
  5
E2F2
  8
0
 10
130.64478946389659
 20
54.421271728817771
 30
0.0
 11
126.54279274320849
 21
54.421271728817679
 31
0.0
  0
LINE
  5
E2F3
  8
2
 10
127.0365427432085
 20
49.921271728817601
 30
0.0
 11
126.06154274320841
 21
49.921271728817601
 31
0.0
  0
LINE
  5
E2F4
  8
2
 10
127.0365427432085
 20
51.921271728817601
 30
0.0
 11
127.0365427432085
 21
49.921271728817601
 31
0.0
  0
LINE
  5
E2F5
  8
2
 10
126.06154274320841
 20
49.921271728817601
 30
0.0
 11
126.06154274320841
 21
47.921271728817601
 31
0.0
  0
LINE
  5
E2F6
  8
2
 10
125.1115427432085
 20
47.921271728817601
 30
0.0
 11
125.1115427432085
 21
51.921271728817601
 31
0.0
  0
LINE
  5
E2F7
  8
2
 10
125.3615427432084
 20
47.921271728817601
 30
0.0
 11
125.3615427432084
 21
51.921271728817601
 31
0.0
  0
LINE
  5
E2F8
  8
1
 10
123.8615427432085
 20
46.421271728817587
 30
0.0
 11
123.8615427432084
 21
53.421271728817572
 31
0.0
  0
ARC
  5
E2F9
  8
0
 10
126.54279274320849
 20
54.921271728817651
 30
0.0
 40
0.5
 50
180.0
 51
270.00000000000102
1001
GENIUS_GENODEF_13
1002
{
1000
HIER
1070
     0
1002
}
1002
{
1000
MANEDIT
1070
     0
1002
}
1002
{
1000
NOSEL
1070
     0
1002
}
1002
{
1000
BEHIND
1070
     0
1002
}
1002
{
1000
REACTOR
1002
}
1001
GENIUS_GENOBJ-N-FIL_13
1002
{
1000
OWNER
1000
GEN
1002
}
  0
LINE
  5
E2FA
  8
0
 10
131.36154174320839
 20
47.921271728817601
 30
0.0
 11
131.20688948372651
 21
52.921271728817601
 31
0.0
  0
ARC
  5
E2FB
  8
0
 10
130.64478946389659
 20
54.921271728817771
 30
0.0
 40
0.5
 50
270.00000000000102
 51
1.7716195309069209
1001
GENIUS_GENODEF_13
1002
{
1000
HIER
1070
     0
1002
}
1002
{
1000
MANEDIT
1070
     0
1002
}
1002
{
1000
NOSEL
1070
     0
1002
}
1002
{
1000
BEHIND
1070
     0
1002
}
1002
{
1000
REACTOR
1002
}
1001
GENIUS_GENOBJ-N-FIL_13
1002
{
1000
OWNER
1000
GEN
1002
}
  0
LINE
  5
E2FC
  8
0
 10
130.49250857692459
 20
60.344603837967917
 30
0.0
 11
126.54279274320849
 21
60.344603837967917
 31
0.0
  0
ARC
  5
E2FD
  8
0
 10
125.54279274320849
 20
59.844603837967952
 30
0.0
 40
0.5
 50
0.0
 51
89.999999999999815
1001
GENIUS_GENODEF_13
1002
{
1000
HIER
1070
     0
1002
}
1002
{
1000
MANEDIT
1070
     0
1002
}
1002
{
1000
NOSEL
1070
     0
1002
}
1002
{
1000
BEHIND
1070
     0
1002
}
1002
{
1000
REACTOR
1002
}
1001
GENIUS_GENOBJ-N-FIL_13
1002
{
1000
OWNER
1000
GEN
1002
}
  0
ARC
  5
E2FE
  8
0
 10
126.54279274320849
 20
59.844603837967917
 30
0.0
 40
0.5
 50
90.000000000000185
 51
180.0
1001
GENIUS_GENODEF_13
1002
{
1000
HIER
1070
     0
1002
}
1002
{
1000
MANEDIT
1070
     0
1002
}
1002
{
1000
NOSEL
1070
     0
1002
}
1002
{
1000
BEHIND
1070
     0
1002
}
1002
{
1000
REACTOR
1002
}
1001
GENIUS_GENOBJ-N-FIL_13
1002
{
1000
OWNER
1000
GEN
1002
}
  0
ARC
  5
E2FF
  8
0
 10
130.49250857692459
 20
59.844603837967917
 30
0.0
 40
0.5
 50
1.7716195309069469
 51
89.999999999999943
1001
GENIUS_GENODEF_13
1002
{
1000
HIER
1070
     0
1002
}
1002
{
1000
MANEDIT
1070
     0
1002
}
1002
{
1000
NOSEL
1070
     0
1002
}
1002
{
1000
BEHIND
1070
     0
1002
}
1002
{
1000
REACTOR
1002
}
1001
GENIUS_GENOBJ-N-FIL_13
1002
{
1000
OWNER
1000
GEN
1002
}
  0
LINE
  5
E300
  8
2
 10
166.7865417432084
 20
51.921271728817629
 30
0.0
 11
173.1365417432084
 21
51.921271728817601
 31
0.0
1001
GENIUS_GENOREF_13
1005
0
  0
LINE
  5
E301
  8
0
 10
177.86154174320839
 20
47.921271728817601
 30
0.0
 11
161.5715417432084
 21
47.921271728817601
 31
0.0
  0
LINE
  5
E302
  8
0
 10
176.3564062305534
 20
53.359832008774127
 30
0.0
 11
163.8142011007568
 21
60.119827728817597
 31
0.0
  0
LINE
  5
E303
  8
1
 10
77.761542743208508
 20
113.3446018379679
 30
0.0
 11
77.761542743208508
 21
77.344603837967981
 31
0.0
  0
LINE
  5
E304
  8
3
 10
68.908884385660031
 20
110.3446018379679
 30
0.0
 11
68.908884385660031
 21
80.344603837967966
 31
0.0
  0
LINE
  5
E305
  8
3
 10
59.135513792221097
 20
95.998774204111498
 30
0.0
 11
59.160060117300667
 21
95.956694789689323
 31
0.0
  0
LINE
  5
E306
  8
3
 10
57.51896295483558
 20
95.953188171820784
 30
0.0
 11
57.532989426309683
 21
95.970721261163348
 31
0.0
  0
LINE
  5
E307
  8
0
 10
81.361543743208472
 20
109.5946028379679
 30
0.0
 11
81.361543743208472
 21
81.094603837967952
 31
0.0
  0
ARC
  5
E308
  8
0
 10
80.218685743208511
 20
96.188352837967955
 30
0.0
 40
0.75
 50
270.0
 51
0.0
  0
LINE
  5
E309
  8
0
 10
54.865826743208508
 20
109.5946018379679
 30
0.0
 11
54.865826743208508
 21
81.094603837967952
 31
0.0
  0
LINE
  5
E30A
  8
1
 10
58.300324832041298
 20
87.844602837967955
 30
0.0
 11
82.861543743208472
 21
87.844602837967955
 31
0.0
  0
LINE
  5
E30B
  8
1
 10
59.300324832041291
 20
95.344602837967955
 30
0.0
 11
84.361543743208486
 21
95.344602837967955
 31
0.0
  0
LINE
  5
E30C
  8
0
 10
74.911543743208483
 20
80.344603837967966
 30
0.0
 11
80.611543743208486
 21
80.344603837967966
 31
0.0
  0
LINE
  5
E30D
  8
0
 10
70.58904474320849
 20
90.475853837967904
 30
0.0
 11
80.218685743208482
 21
90.475853837967904
 31
0.0
  0
LINE
  5
E30E
  8
0
 10
70.58904474320849
 20
85.775853837967915
 30
0.0
 11
80.218685743208482
 21
85.775853837967915
 31
0.0
  0
LINE
  5
E30F
  8
0
 10
70.58904474320849
 20
95.400852837967932
 30
0.0
 11
80.218685743208482
 21
95.400852837967932
 31
0.0
  0
LINE
  5
E310
  8
0
 10
74.911543743208483
 20
90.588353837967929
 30
0.0
 11
80.611543743208486
 21
90.588353837967929
 31
0.0
  0
LINE
  5
E311
  8
0
 10
74.911543743208483
 20
95.288352837967935
 30
0.0
 11
80.611543743208486
 21
95.288352837967935
 31
0.0
  0
LINE
  5
E312
  8
0
 10
74.911543743208483
 20
85.663353837967918
 30
0.0
 11
80.611543743208486
 21
85.663353837967918
 31
0.0
  0
LINE
  5
E313
  8
0
 10
55.615826743208522
 20
80.344603837967966
 30
0.0
 11
73.054401743208473
 21
80.344603837967966
 31
0.0
  0
ARC
  5
E314
  8
0
 10
55.615826743208522
 20
81.094603837967952
 30
0.0
 40
0.75
 50
180.0
 51
270.0
  0
LINE
  5
E315
  8
1
 10
51.865826743208501
 20
95.344602837967926
 30
0.0
 11
57.359774184185063
 21
95.344602837967955
 31
0.0
  0
LINE
  5
E316
  8
3
 10
59.300324832041291
 20
95.514860938256433
 30
0.0
 11
59.300324832041291
 21
95.514860938256433
 31
0.0
  0
LINE
  5
E317
  8
3
 10
59.296818214172752
 20
95.52187417399341
 30
0.0
 11
59.300324832041291
 21
95.514860938256433
 31
0.0
  0
LINE
  5
E318
  8
3
 10
59.296818214172752
 20
95.525380791861949
 30
0.0
 11
59.296818214172752
 21
95.52187417399341
 31
0.0
  0
LINE
  5
E319
  8
3
 10
59.296818214172752
 20
95.528887409730487
 30
0.0
 11
59.296818214172752
 21
95.525380791861949
 31
0.0
  0
LINE
  5
E31A
  8
3
 10
59.28980497843574
 20
95.549927116941547
 30
0.0
 11
59.28980497843574
 21
95.546420499073065
 31
0.0
  0
LINE
  5
E31B
  8
3
 10
59.29331159630425
 20
95.570966824152606
 30
0.0
 11
59.28980497843574
 21
95.567460206284125
 31
0.0
  0
LINE
  5
E31C
  8
3
 10
59.268765271224709
 20
95.676165360208074
 30
0.0
 11
59.29331159630425
 21
95.570966824152606
 31
0.0
  0
LINE
  5
E31D
  8
3
 10
59.28980497843574
 20
95.556940352678566
 30
0.0
 11
59.28980497843574
 21
95.549927116941547
 31
0.0
  0
LINE
  5
E31E
  8
3
 10
59.28980497843574
 20
95.560446970547105
 30
0.0
 11
59.28980497843574
 21
95.556940352678566
 31
0.0
  0
LINE
  5
E31F
  8
3
 10
59.28980497843574
 20
95.563953588415586
 30
0.0
 11
59.28980497843574
 21
95.560446970547105
 31
0.0
  0
LINE
  5
E320
  8
3
 10
59.28980497843574
 20
95.567460206284125
 30
0.0
 11
59.28980497843574
 21
95.563953588415586
 31
0.0
  0
LINE
  5
E321
  8
3
 10
59.254738799750612
 20
95.725258010367327
 30
0.0
 11
59.268765271224709
 21
95.676165360208074
 31
0.0
  0
LINE
  5
E322
  8
3
 10
59.240712328276572
 20
95.774350660526522
 30
0.0
 11
59.254738799750612
 21
95.725258010367327
 31
0.0
  0
LINE
  5
E323
  8
3
 10
59.28980497843574
 20
95.542913881204527
 30
0.0
 11
59.29331159630425
 21
95.539407263335974
 31
0.0
  0
LINE
  5
E324
  8
3
 10
59.28980497843574
 20
95.546420499073065
 30
0.0
 11
59.28980497843574
 21
95.542913881204527
 31
0.0
  0
LINE
  5
E325
  8
3
 10
59.29331159630425
 20
95.532394027599025
 30
0.0
 11
59.296818214172752
 21
95.532394027599025
 31
0.0
  0
LINE
  5
E326
  8
3
 10
59.29331159630425
 20
95.535900645467436
 30
0.0
 11
59.29331159630425
 21
95.532394027599025
 31
0.0
  0
LINE
  5
E327
  8
3
 10
59.29331159630425
 20
95.539407263335974
 30
0.0
 11
59.29331159630425
 21
95.535900645467436
 31
0.0
  0
LINE
  5
E328
  8
3
 10
59.296818214172752
 20
95.532394027599025
 30
0.0
 11
59.296818214172752
 21
95.528887409730487
 31
0.0
  0
LINE
  5
E329
  8
3
 10
59.282791742698741
 20
93.211012998641934
 30
0.0
 11
59.282791742698741
 21
93.182960055693783
 31
0.0
  0
LINE
  5
E32A
  8
3
 10
59.282791742698741
 20
93.270625502406673
 30
0.0
 11
59.282791742698741
 21
93.23906594159007
 31
0.0
  0
LINE
  5
E32B
  8
3
 10
59.279285124830203
 20
93.386343892067714
 30
0.0
 11
59.279285124830203
 21
93.358290949119564
 31
0.0
  0
LINE
  5
E32C
  8
3
 10
59.2757785069617
 20
93.41439683501585
 30
0.0
 11
59.279285124830203
 21
93.386343892067714
 31
0.0
  0
LINE
  5
E32D
  8
3
 10
59.27227188909319
 20
93.442449777963915
 30
0.0
 11
59.2757785069617
 21
93.41439683501585
 31
0.0
  0
LINE
  5
E32E
  8
3
 10
59.268765271224709
 20
93.470502720912066
 30
0.0
 11
59.27227188909319
 21
93.442449777963915
 31
0.0
  0
LINE
  5
E32F
  8
3
 10
59.29331159630425
 20
93.814151272026564
 30
0.0
 11
59.29331159630425
 21
93.789604946946952
 31
0.0
  0
LINE
  5
E330
  8
3
 10
59.29331159630425
 20
93.838697597106147
 30
0.0
 11
59.29331159630425
 21
93.814151272026564
 31
0.0
  0
LINE
  5
E331
  8
3
 10
59.29331159630425
 20
93.859737304317264
 30
0.0
 11
59.29331159630425
 21
93.838697597106147
 31
0.0
  0
LINE
  5
E332
  8
3
 10
59.29331159630425
 20
93.789604946946952
 30
0.0
 11
59.29331159630425
 21
93.740512296787756
 31
0.0
  0
LINE
  5
E333
  8
3
 10
59.29331159630425
 20
93.908829954476445
 30
0.0
 11
59.29331159630425
 21
93.884283629396862
 31
0.0
  0
LINE
  5
E334
  8
3
 10
59.29331159630425
 20
93.933376279556057
 30
0.0
 11
59.29331159630425
 21
93.908829954476445
 31
0.0
  0
LINE
  5
E335
  8
3
 10
59.29331159630425
 20
93.954415986767117
 30
0.0
 11
59.29331159630425
 21
93.933376279556057
 31
0.0
  0
LINE
  5
E336
  8
3
 10
59.29331159630425
 20
93.978962311846772
 30
0.0
 11
59.29331159630425
 21
93.954415986767117
 31
0.0
  0
LINE
  5
E337
  8
3
 10
59.29331159630425
 20
94.003508636926355
 30
0.0
 11
59.29331159630425
 21
93.978962311846772
 31
0.0
  0
LINE
  5
E338
  8
3
 10
59.29331159630425
 20
94.028054962005967
 30
0.0
 11
59.29331159630425
 21
94.003508636926355
 31
0.0
  0
LINE
  5
E339
  8
3
 10
59.29331159630425
 20
94.052601287085622
 30
0.0
 11
59.29331159630425
 21
94.028054962005967
 31
0.0
  0
LINE
  5
E33A
  8
3
 10
59.29331159630425
 20
93.884283629396862
 30
0.0
 11
59.29331159630425
 21
93.859737304317264
 31
0.0
  0
LINE
  5
E33B
  8
3
 10
59.27227188909319
 20
94.203385855431748
 30
0.0
 11
59.29331159630425
 21
94.122733644455863
 31
0.0
  0
LINE
  5
E33C
  8
3
 10
59.261752035487632
 20
94.241958651985442
 30
0.0
 11
59.27227188909319
 21
94.203385855431748
 31
0.0
  0
LINE
  5
E33D
  8
3
 10
59.244218946145033
 20
94.280531448539037
 30
0.0
 11
59.261752035487632
 21
94.241958651985442
 31
0.0
  0
LINE
  5
E33E
  8
3
 10
59.226685856802483
 20
94.315597627224179
 30
0.0
 11
59.244218946145033
 21
94.280531448539037
 31
0.0
  0
LINE
  5
E33F
  8
3
 10
59.29331159630425
 20
94.101693937244818
 30
0.0
 11
59.29331159630425
 21
94.077147612165149
 31
0.0
  0
LINE
  5
E340
  8
3
 10
59.29331159630425
 20
94.122733644455863
 30
0.0
 11
59.29331159630425
 21
94.101693937244818
 31
0.0
  0
LINE
  5
E341
  8
3
 10
59.29331159630425
 20
94.077147612165149
 30
0.0
 11
59.29331159630425
 21
94.052601287085622
 31
0.0
  0
LINE
  5
E342
  8
3
 10
59.282791742698741
 20
93.298678445354824
 30
0.0
 11
59.282791742698741
 21
93.270625502406673
 31
0.0
  0
LINE
  5
E343
  8
3
 10
59.279285124830203
 20
93.32673138830296
 30
0.0
 11
59.282791742698741
 21
93.298678445354824
 31
0.0
  0
LINE
  5
E344
  8
3
 10
59.279285124830203
 20
93.358290949119564
 30
0.0
 11
59.279285124830203
 21
93.32673138830296
 31
0.0
  0
LINE
  5
E345
  8
3
 10
59.300324832041291
 20
94.841590307501477
 30
0.0
 11
59.261752035487632
 21
94.838083689632981
 31
0.0
  0
LINE
  5
E346
  8
3
 10
59.261752035487632
 20
94.838083689632981
 30
0.0
 11
59.226685856802483
 21
94.834577071764443
 31
0.0
  0
LINE
  5
E347
  8
3
 10
59.282791742698741
 20
93.23906594159007
 30
0.0
 11
59.282791742698741
 21
93.211012998641934
 31
0.0
  0
LINE
  5
E348
  8
3
 10
59.258245417619086
 20
92.734112968523846
 30
0.0
 11
59.240712328276572
 21
92.67099384689061
 31
0.0
  0
LINE
  5
E349
  8
3
 10
59.27227188909319
 20
92.800738708025619
 30
0.0
 11
59.258245417619086
 21
92.734112968523846
 31
0.0
  0
LINE
  5
E34A
  8
3
 10
59.28980497843574
 20
92.937496804897762
 30
0.0
 11
59.282791742698741
 21
92.867364447527507
 31
0.0
  0
LINE
  5
E34B
  8
3
 10
59.282791742698741
 20
92.867364447527507
 30
0.0
 11
59.27227188909319
 21
92.800738708025619
 31
0.0
  0
LINE
  5
E34C
  8
3
 10
59.286298360567201
 20
93.06373504816429
 30
0.0
 11
59.29331159630425
 21
93.004122544399536
 31
0.0
  0
LINE
  5
E34D
  8
3
 10
59.282791742698741
 20
93.091787991112426
 30
0.0
 11
59.286298360567201
 21
93.06373504816429
 31
0.0
  0
LINE
  5
E34E
  8
3
 10
59.282791742698741
 20
93.182960055693783
 30
0.0
 11
59.282791742698741
 21
93.15140049487718
 31
0.0
  0
LINE
  5
E34F
  8
3
 10
59.282791742698741
 20
93.15140049487718
 30
0.0
 11
59.282791742698741
 21
93.123347551929044
 31
0.0
  0
LINE
  5
E350
  8
3
 10
59.282791742698741
 20
93.123347551929044
 30
0.0
 11
59.282791742698741
 21
93.091787991112426
 31
0.0
  0
LINE
  5
E351
  8
3
 10
59.29331159630425
 20
93.004122544399536
 30
0.0
 11
59.28980497843574
 21
92.937496804897762
 31
0.0
  0
LINE
  5
E352
  8
3
 10
59.300324832041291
 20
95.514860938256433
 30
0.0
 11
59.300324832041291
 21
94.841590307501477
 31
0.0
  0
LINE
  5
E353
  8
3
 10
57.455843833202287
 20
95.837469782159815
 30
0.0
 11
57.466363686807853
 21
95.858509489370874
 31
0.0
  0
LINE
  5
E354
  8
3
 10
57.389218093700542
 20
95.034454290269821
 30
0.0
 11
57.375191622226509
 21
95.076533704691997
 31
0.0
  0
LINE
  5
E355
  8
3
 10
57.368178386489433
 20
95.125626354851192
 30
0.0
 11
57.361165150752377
 21
95.171212387141907
 31
0.0
  0
LINE
  5
E356
  8
3
 10
57.375191622226509
 20
95.076533704691997
 30
0.0
 11
57.368178386489433
 21
95.125626354851192
 31
0.0
  0
LINE
  5
E357
  8
3
 10
57.403244565174589
 20
94.988868257979107
 30
0.0
 11
57.389218093700542
 21
95.034454290269821
 31
0.0
  0
LINE
  5
E358
  8
3
 10
57.420777654517167
 20
94.943282225688435
 30
0.0
 11
57.403244565174589
 21
94.988868257979107
 31
0.0
  0
LINE
  5
E359
  8
3
 10
57.361165150752377
 20
95.220305037301159
 30
0.0
 11
57.357658532883839
 21
95.265891069591817
 31
0.0
  0
LINE
  5
E35A
  8
3
 10
57.361165150752377
 20
95.171212387141907
 30
0.0
 11
57.361165150752377
 21
95.220305037301159
 31
0.0
  0
LINE
  5
E35B
  8
3
 10
57.368178386489433
 20
95.458755052360175
 30
0.0
 11
57.375191622226509
 21
95.507847702519371
 31
0.0
  0
LINE
  5
E35C
  8
3
 10
57.364671768620923
 20
95.409662402200908
 30
0.0
 11
57.368178386489433
 21
95.458755052360175
 31
0.0
  0
LINE
  5
E35D
  8
3
 10
57.361165150752377
 20
95.364076369910194
 30
0.0
 11
57.364671768620923
 21
95.409662402200908
 31
0.0
  0
LINE
  5
E35E
  8
3
 10
57.357658532883839
 20
95.314983719751027
 30
0.0
 11
57.361165150752377
 21
95.364076369910194
 31
0.0
  0
LINE
  5
E35F
  8
3
 10
57.357658532883839
 20
95.265891069591817
 30
0.0
 11
57.357658532883839
 21
95.314983719751027
 31
0.0
  0
LINE
  5
E360
  8
3
 10
57.424284272385712
 20
95.756817571183944
 30
0.0
 11
57.43129750812269
 21
95.777857278395004
 31
0.0
  0
LINE
  5
E361
  8
3
 10
57.41376441878014
 20
95.735777863972885
 30
0.0
 11
57.424284272385712
 21
95.756817571183944
 31
0.0
  0
LINE
  5
E362
  8
3
 10
57.40675118304307
 20
95.714738156761754
 30
0.0
 11
57.41376441878014
 21
95.735777863972885
 31
0.0
  0
LINE
  5
E363
  8
3
 10
57.403244565174589
 20
95.690191831682114
 30
0.0
 11
57.40675118304307
 21
95.714738156761754
 31
0.0
  0
LINE
  5
E364
  8
3
 10
57.389218093700542
 20
95.599019767100785
 30
0.0
 11
57.403244565174589
 21
95.690191831682114
 31
0.0
  0
LINE
  5
E365
  8
3
 10
57.382204857963501
 20
95.553433734810085
 30
0.0
 11
57.389218093700542
 21
95.599019767100785
 31
0.0
  0
LINE
  5
E366
  8
3
 10
57.438310743859716
 20
95.798896985606106
 30
0.0
 11
57.448830597465268
 21
95.819936692817237
 31
0.0
  0
LINE
  5
E367
  8
3
 10
57.448830597465268
 20
95.819936692817237
 30
0.0
 11
57.455843833202287
 21
95.837469782159815
 31
0.0
  0
LINE
  5
E368
  8
3
 10
57.43129750812269
 20
95.777857278395004
 30
0.0
 11
57.438310743859716
 21
95.798896985606106
 31
0.0
  0
LINE
  5
E369
  8
3
 10
57.375191622226509
 20
95.507847702519371
 30
0.0
 11
57.382204857963501
 21
95.553433734810085
 31
0.0
  0
LINE
  5
E36A
  8
3
 10
57.964303424137
 20
95.532394027599025
 30
0.0
 11
57.953783570531471
 21
95.511354320387895
 31
0.0
  0
LINE
  5
E36B
  8
3
 10
57.925730627583327
 20
95.188745476484485
 30
0.0
 11
57.925730627583327
 21
95.125626354851192
 31
0.0
  0
LINE
  5
E36C
  8
3
 10
57.922224009714853
 20
94.999388111584665
 30
0.0
 11
57.925730627583327
 21
94.936268989951358
 31
0.0
  0
LINE
  5
E36D
  8
3
 10
57.922224009714853
 20
95.062507233217957
 30
0.0
 11
57.922224009714853
 21
94.999388111584665
 31
0.0
  0
LINE
  5
E36E
  8
3
 10
57.925730627583327
 20
95.125626354851192
 30
0.0
 11
57.922224009714853
 21
95.062507233217957
 31
0.0
  0
LINE
  5
E36F
  8
3
 10
57.929237245451901
 20
95.251864598117777
 30
0.0
 11
57.925730627583327
 21
95.188745476484485
 31
0.0
  0
LINE
  5
E370
  8
3
 10
57.939757099057431
 20
95.381609459252786
 30
0.0
 11
57.932743863320383
 21
95.318490337619565
 31
0.0
  0
LINE
  5
E371
  8
3
 10
57.943263716925941
 20
95.448235198754617
 30
0.0
 11
57.939757099057431
 21
95.381609459252786
 31
0.0
  0
LINE
  5
E372
  8
3
 10
57.953783570531471
 20
95.511354320387895
 30
0.0
 11
57.943263716925941
 21
95.448235198754617
 31
0.0
  0
LINE
  5
E373
  8
3
 10
57.932743863320383
 20
95.318490337619565
 30
0.0
 11
57.929237245451901
 21
95.251864598117777
 31
0.0
  0
LINE
  5
E374
  8
3
 10
58.71121303013075
 20
95.122119736982711
 30
0.0
 11
58.71121303013075
 21
95.181732240747465
 31
0.0
  0
LINE
  5
E375
  8
3
 10
58.707706412262212
 20
95.062507233217957
 30
0.0
 11
58.71121303013075
 21
95.122119736982711
 31
0.0
  0
LINE
  5
E376
  8
3
 10
58.707706412262212
 20
95.002894729453203
 30
0.0
 11
58.707706412262212
 21
95.062507233217957
 31
0.0
  0
LINE
  5
E377
  8
3
 10
58.707706412262212
 20
94.946788843556931
 30
0.0
 11
58.707706412262212
 21
95.002894729453203
 31
0.0
  0
LINE
  5
E378
  8
3
 10
58.71121303013075
 20
95.181732240747465
 30
0.0
 11
58.71121303013075
 21
95.241344744512205
 31
0.0
  0
LINE
  5
E379
  8
3
 10
58.697186558656682
 20
95.462261670228656
 30
0.0
 11
58.683160087182607
 21
95.511354320387895
 31
0.0
  0
LINE
  5
E37A
  8
3
 10
58.70419979439373
 20
95.409662402200908
 30
0.0
 11
58.697186558656682
 21
95.462261670228656
 31
0.0
  0
LINE
  5
E37B
  8
3
 10
58.71121303013075
 20
95.353556516304707
 30
0.0
 11
58.70419979439373
 21
95.409662402200908
 31
0.0
  0
LINE
  5
E37C
  8
3
 10
58.71121303013075
 20
95.297450630408434
 30
0.0
 11
58.71121303013075
 21
95.353556516304707
 31
0.0
  0
LINE
  5
E37D
  8
3
 10
58.71121303013075
 20
95.241344744512205
 30
0.0
 11
58.71121303013075
 21
95.297450630408434
 31
0.0
  0
LINE
  5
E37E
  8
3
 10
58.132621081825761
 20
95.697205067419191
 30
0.0
 11
58.122101228220231
 21
95.697205067419191
 31
0.0
  0
LINE
  5
E37F
  8
3
 10
58.560428461784603
 20
95.679671978076613
 30
0.0
 11
58.560428461784603
 21
95.672658742339578
 31
0.0
  0
LINE
  5
E380
  8
3
 10
58.560428461784603
 20
95.683178595945151
 30
0.0
 11
58.560428461784603
 21
95.679671978076613
 31
0.0
  0
LINE
  5
E381
  8
3
 10
58.563935079653113
 20
95.683178595945151
 30
0.0
 11
58.560428461784603
 21
95.683178595945151
 31
0.0
  0
LINE
  5
E382
  8
3
 10
58.563935079653113
 20
95.686685213813632
 30
0.0
 11
58.563935079653113
 21
95.683178595945151
 31
0.0
  0
LINE
  5
E383
  8
3
 10
58.567441697521609
 20
95.686685213813632
 30
0.0
 11
58.563935079653113
 21
95.686685213813632
 31
0.0
  0
LINE
  5
E384
  8
3
 10
58.567441697521609
 20
95.690191831682114
 30
0.0
 11
58.567441697521609
 21
95.686685213813632
 31
0.0
  0
LINE
  5
E385
  8
3
 10
58.570948315390119
 20
95.690191831682114
 30
0.0
 11
58.567441697521609
 21
95.690191831682114
 31
0.0
  0
LINE
  5
E386
  8
3
 10
58.574454933258693
 20
95.690191831682114
 30
0.0
 11
58.570948315390119
 21
95.690191831682114
 31
0.0
  0
LINE
  5
E387
  8
3
 10
58.577961551127203
 20
95.690191831682114
 30
0.0
 11
58.574454933258693
 21
95.690191831682114
 31
0.0
  0
LINE
  5
E388
  8
3
 10
58.581468168995677
 20
95.690191831682114
 30
0.0
 11
58.577961551127203
 21
95.690191831682114
 31
0.0
  0
LINE
  5
E389
  8
3
 10
58.644587290628976
 20
95.6095396207063
 30
0.0
 11
58.581468168995677
 21
95.690191831682114
 31
0.0
  0
LINE
  5
E38A
  8
3
 10
58.665626997840057
 20
95.560446970547105
 30
0.0
 11
58.644587290628976
 21
95.6095396207063
 31
0.0
  0
LINE
  5
E38B
  8
3
 10
59.184606442380328
 20
95.914615375267147
 30
0.0
 11
59.20564614959136
 21
95.869029342976432
 31
0.0
  0
LINE
  5
E38C
  8
3
 10
59.20564614959136
 20
95.869029342976432
 30
0.0
 11
59.223179238933959
 21
95.823443310685775
 31
0.0
  0
LINE
  5
E38D
  8
3
 10
58.683160087182607
 20
95.511354320387895
 30
0.0
 11
58.665626997840057
 21
95.560446970547105
 31
0.0
  0
LINE
  5
E38E
  8
3
 10
58.097554903140598
 20
95.686685213813632
 30
0.0
 11
58.083528431666537
 21
95.676165360208074
 31
0.0
  0
LINE
  5
E38F
  8
3
 10
58.108074756746191
 20
95.693698449550652
 30
0.0
 11
58.097554903140598
 21
95.686685213813632
 31
0.0
  0
LINE
  5
E390
  8
3
 10
58.122101228220231
 20
95.697205067419191
 30
0.0
 11
58.108074756746191
 21
95.693698449550652
 31
0.0
  0
LINE
  5
E391
  8
3
 10
58.044955635112842
 20
95.634085945785955
 30
0.0
 11
58.030929163638831
 21
95.620059474311859
 31
0.0
  0
LINE
  5
E392
  8
3
 10
58.058982106586939
 20
95.651619035128476
 30
0.0
 11
58.044955635112842
 21
95.634085945785955
 31
0.0
  0
LINE
  5
E393
  8
3
 10
58.069501960192497
 20
95.662138888734034
 30
0.0
 11
58.058982106586939
 21
95.651619035128476
 31
0.0
  0
LINE
  5
E394
  8
3
 10
58.083528431666537
 20
95.676165360208074
 30
0.0
 11
58.069501960192497
 21
95.662138888734034
 31
0.0
  0
LINE
  5
E395
  8
3
 10
57.981836513479607
 20
95.556940352678566
 30
0.0
 11
57.97482327774253
 21
95.542913881204527
 31
0.0
  0
LINE
  5
E396
  8
3
 10
57.9923563670852
 20
95.574473442021144
 30
0.0
 11
57.981836513479607
 21
95.556940352678566
 31
0.0
  0
LINE
  5
E397
  8
3
 10
58.006382838559233
 20
95.588499913495184
 30
0.0
 11
57.9923563670852
 21
95.574473442021144
 31
0.0
  0
LINE
  5
E398
  8
3
 10
58.016902692164763
 20
95.606033002837762
 30
0.0
 11
58.006382838559233
 21
95.588499913495184
 31
0.0
  0
LINE
  5
E399
  8
3
 10
57.97482327774253
 20
95.542913881204527
 30
0.0
 11
57.964303424137
 21
95.532394027599025
 31
0.0
  0
LINE
  5
E39A
  8
3
 10
58.030929163638831
 20
95.620059474311859
 30
0.0
 11
58.016902692164763
 21
95.606033002837762
 31
0.0
  0
LINE
  5
E39B
  8
3
 10
57.497923247624499
 20
95.914615375267147
 30
0.0
 11
57.508443101230078
 21
95.932148464609725
 31
0.0
  0
LINE
  5
E39C
  8
3
 10
57.487403394018941
 20
95.897082285924512
 30
0.0
 11
57.497923247624499
 21
95.914615375267147
 31
0.0
  0
LINE
  5
E39D
  8
3
 10
57.476883540413382
 20
95.876042578713509
 30
0.0
 11
57.487403394018941
 21
95.897082285924512
 31
0.0
  0
LINE
  5
E39E
  8
3
 10
57.466363686807853
 20
95.858509489370874
 30
0.0
 11
57.476883540413382
 21
95.876042578713509
 31
0.0
  0
LINE
  5
E39F
  8
3
 10
57.508443101230078
 20
95.932148464609725
 30
0.0
 11
57.51896295483558
 21
95.953188171820784
 31
0.0
  0
LINE
  5
E3A0
  8
3
 10
59.160060117300667
 20
95.956694789689323
 30
0.0
 11
59.184606442380328
 21
95.914615375267147
 31
0.0
  0
LINE
  5
E3A1
  8
3
 10
57.354151915015372
 20
91.829405558446979
 30
0.0
 11
57.354151915015372
 21
92.327345295776126
 31
0.0
  0
LINE
  5
E3A2
  8
3
 10
57.617148255154042
 20
91.927590858765356
 30
0.0
 11
57.525976190572607
 21
91.906551151554311
 31
0.0
  0
LINE
  5
E3A3
  8
3
 10
57.441817361728262
 20
93.449463013701006
 30
0.0
 11
57.466363686807853
 21
93.488035810254644
 31
0.0
  0
LINE
  5
E3A4
  8
3
 10
57.480390158281949
 20
94.164813058878039
 30
0.0
 11
57.459350451070797
 21
94.192866001826189
 31
0.0
  0
LINE
  5
E3A5
  8
3
 10
57.459350451070797
 20
94.792497657342267
 30
0.0
 11
57.480390158281949
 21
94.792497657342267
 31
0.0
  0
LINE
  5
E3A6
  8
3
 10
57.354151915015372
 20
93.161920348482695
 30
0.0
 11
57.357658532883839
 21
93.200493145036376
 31
0.0
  0
LINE
  5
E3A7
  8
3
 10
57.364671768620923
 20
93.23906594159007
 30
0.0
 11
57.375191622226509
 21
93.277638738143764
 31
0.0
  0
LINE
  5
E3A8
  8
3
 10
57.403244565174589
 20
93.375824038462156
 30
0.0
 11
57.40675118304307
 21
93.379330656330694
 31
0.0
  0
LINE
  5
E3A9
  8
3
 10
57.417271036648657
 20
93.400370363541754
 30
0.0
 11
57.417271036648657
 21
93.403876981410235
 31
0.0
  0
LINE
  5
E3AA
  8
3
 10
57.420777654517167
 20
93.410890217147312
 30
0.0
 11
57.441817361728262
 21
93.449463013701006
 31
0.0
  0
LINE
  5
E3AB
  8
3
 10
57.417271036648657
 20
93.403876981410235
 30
0.0
 11
57.420777654517167
 21
93.410890217147312
 31
0.0
  0
LINE
  5
E3AC
  8
3
 10
57.417271036648657
 20
93.396863745673258
 30
0.0
 11
57.417271036648657
 21
93.400370363541754
 31
0.0
  0
LINE
  5
E3AD
  8
3
 10
57.41376441878014
 20
93.396863745673258
 30
0.0
 11
57.417271036648657
 21
93.396863745673258
 31
0.0
  0
LINE
  5
E3AE
  8
3
 10
57.41376441878014
 20
93.393357127804734
 30
0.0
 11
57.41376441878014
 21
93.396863745673258
 31
0.0
  0
LINE
  5
E3AF
  8
3
 10
57.41376441878014
 20
93.389850509936196
 30
0.0
 11
57.41376441878014
 21
93.393357127804734
 31
0.0
  0
LINE
  5
E3B0
  8
3
 10
57.410257800911609
 20
93.386343892067714
 30
0.0
 11
57.41376441878014
 21
93.389850509936196
 31
0.0
  0
LINE
  5
E3B1
  8
3
 10
57.410257800911609
 20
93.382837274199233
 30
0.0
 11
57.410257800911609
 21
93.386343892067714
 31
0.0
  0
LINE
  5
E3B2
  8
3
 10
57.40675118304307
 20
93.379330656330694
 30
0.0
 11
57.410257800911609
 21
93.382837274199233
 31
0.0
  0
LINE
  5
E3B3
  8
3
 10
57.427790890254222
 20
94.252478505590929
 30
0.0
 11
57.41376441878014
 21
94.284038066407575
 31
0.0
  0
LINE
  5
E3B4
  8
3
 10
57.445323979596729
 20
94.224425562642864
 30
0.0
 11
57.427790890254222
 21
94.252478505590929
 31
0.0
  0
LINE
  5
E3B5
  8
3
 10
57.459350451070797
 20
94.192866001826189
 30
0.0
 11
57.445323979596729
 21
94.224425562642864
 31
0.0
  0
LINE
  5
E3B6
  8
3
 10
57.403244565174589
 20
93.372317420593617
 30
0.0
 11
57.403244565174589
 21
93.375824038462156
 31
0.0
  0
LINE
  5
E3B7
  8
3
 10
57.399737947306079
 20
93.368810802725136
 30
0.0
 11
57.403244565174589
 21
93.372317420593617
 31
0.0
  0
LINE
  5
E3B8
  8
3
 10
57.399737947306079
 20
93.365304184856598
 30
0.0
 11
57.399737947306079
 21
93.368810802725136
 31
0.0
  0
LINE
  5
E3B9
  8
3
 10
57.39623132943759
 20
93.361797566988116
 30
0.0
 11
57.399737947306079
 21
93.365304184856598
 31
0.0
  0
LINE
  5
E3BA
  8
3
 10
57.39623132943759
 20
93.354784331251025
 30
0.0
 11
57.39623132943759
 21
93.361797566988116
 31
0.0
  0
LINE
  5
E3BB
  8
3
 10
57.375191622226509
 20
93.277638738143764
 30
0.0
 11
57.39623132943759
 21
93.354784331251025
 31
0.0
  0
LINE
  5
E3BC
  8
3
 10
57.392724711569059
 20
94.347157188040896
 30
0.0
 11
57.382204857963501
 21
94.375210130989004
 31
0.0
  0
LINE
  5
E3BD
  8
3
 10
57.364671768620923
 20
94.701325592760895
 30
0.0
 11
57.364671768620923
 21
94.729378535708975
 31
0.0
  0
LINE
  5
E3BE
  8
3
 10
57.364671768620923
 20
94.729378535708975
 30
0.0
 11
57.364671768620923
 21
94.781977803736709
 31
0.0
  0
LINE
  5
E3BF
  8
3
 10
57.364671768620923
 20
94.781977803736709
 30
0.0
 11
57.399737947306079
 21
94.785484421605247
 31
0.0
  0
LINE
  5
E3C0
  8
3
 10
57.43129750812269
 20
94.788991039473785
 30
0.0
 11
57.459350451070797
 21
94.792497657342267
 31
0.0
  0
LINE
  5
E3C1
  8
3
 10
57.399737947306079
 20
94.785484421605247
 30
0.0
 11
57.43129750812269
 21
94.788991039473785
 31
0.0
  0
LINE
  5
E3C2
  8
3
 10
57.382204857963501
 20
94.375210130989004
 30
0.0
 11
57.378698240094963
 21
94.403263073937069
 31
0.0
  0
LINE
  5
E3C3
  8
3
 10
57.371685004357943
 20
94.431316016885205
 30
0.0
 11
57.368178386489433
 21
94.459368959833355
 31
0.0
  0
LINE
  5
E3C4
  8
3
 10
57.378698240094963
 20
94.403263073937069
 30
0.0
 11
57.371685004357943
 21
94.431316016885205
 31
0.0
  0
LINE
  5
E3C5
  8
3
 10
57.364671768620923
 20
94.540021170809212
 30
0.0
 11
57.361165150752377
 21
94.568074113757291
 31
0.0
  0
LINE
  5
E3C6
  8
3
 10
57.364671768620923
 20
94.511968227861075
 30
0.0
 11
57.364671768620923
 21
94.540021170809212
 31
0.0
  0
LINE
  5
E3C7
  8
3
 10
57.368178386489433
 20
94.487421902781421
 30
0.0
 11
57.364671768620923
 21
94.511968227861075
 31
0.0
  0
LINE
  5
E3C8
  8
3
 10
57.368178386489433
 20
94.459368959833355
 30
0.0
 11
57.368178386489433
 21
94.487421902781421
 31
0.0
  0
LINE
  5
E3C9
  8
3
 10
57.361165150752377
 20
94.676779267681226
 30
0.0
 11
57.364671768620923
 21
94.701325592760895
 31
0.0
  0
LINE
  5
E3CA
  8
3
 10
57.361165150752377
 20
94.648726324733161
 30
0.0
 11
57.361165150752377
 21
94.676779267681226
 31
0.0
  0
LINE
  5
E3CB
  8
3
 10
57.361165150752377
 20
94.620673381785082
 30
0.0
 11
57.361165150752377
 21
94.648726324733161
 31
0.0
  0
LINE
  5
E3CC
  8
3
 10
57.361165150752377
 20
94.596127056705427
 30
0.0
 11
57.361165150752377
 21
94.620673381785082
 31
0.0
  0
LINE
  5
E3CD
  8
3
 10
57.361165150752377
 20
94.568074113757291
 30
0.0
 11
57.361165150752377
 21
94.596127056705427
 31
0.0
  0
LINE
  5
E3CE
  8
3
 10
57.41376441878014
 20
94.284038066407575
 30
0.0
 11
57.392724711569059
 21
94.347157188040896
 31
0.0
  0
LINE
  5
E3CF
  8
3
 10
57.357658532883839
 20
93.200493145036376
 30
0.0
 11
57.364671768620923
 21
93.23906594159007
 31
0.0
  0
LINE
  5
E3D0
  8
3
 10
57.354151915015372
 20
92.327345295776126
 30
0.0
 11
57.354151915015372
 21
92.502676189201907
 31
0.0
  0
LINE
  5
E3D1
  8
3
 10
57.378698240094963
 20
92.530729132149986
 30
0.0
 11
57.382204857963501
 21
92.534235750018524
 31
0.0
  0
LINE
  5
E3D2
  8
3
 10
57.371685004357943
 20
92.527222514281434
 30
0.0
 11
57.378698240094963
 21
92.530729132149986
 31
0.0
  0
LINE
  5
E3D3
  8
3
 10
57.368178386489433
 20
92.523715896412966
 30
0.0
 11
57.371685004357943
 21
92.527222514281434
 31
0.0
  0
LINE
  5
E3D4
  8
3
 10
57.364671768620923
 20
92.520209278544485
 30
0.0
 11
57.368178386489433
 21
92.523715896412966
 31
0.0
  0
LINE
  5
E3D5
  8
3
 10
57.361165150752377
 20
92.513196042807408
 30
0.0
 11
57.364671768620923
 21
92.520209278544485
 31
0.0
  0
LINE
  5
E3D6
  8
3
 10
57.354151915015372
 20
92.509689424938927
 30
0.0
 11
57.361165150752377
 21
92.513196042807408
 31
0.0
  0
LINE
  5
E3D7
  8
3
 10
57.354151915015372
 20
92.502676189201907
 30
0.0
 11
57.354151915015372
 21
92.509689424938927
 31
0.0
  0
LINE
  5
E3D8
  8
3
 10
57.382204857963501
 20
92.534235750018524
 30
0.0
 11
57.389218093700542
 21
92.537742367887049
 31
0.0
  0
LINE
  5
E3D9
  8
3
 10
57.382204857963501
 20
92.762165911471982
 30
0.0
 11
57.371685004357943
 21
92.804245325894158
 31
0.0
  0
LINE
  5
E3DA
  8
3
 10
57.392724711569059
 20
92.720086497049806
 30
0.0
 11
57.382204857963501
 21
92.762165911471982
 31
0.0
  0
LINE
  5
E3DB
  8
3
 10
57.399737947306079
 20
92.709566643444234
 30
0.0
 11
57.392724711569059
 21
92.720086497049806
 31
0.0
  0
LINE
  5
E3DC
  8
3
 10
57.403244565174589
 20
92.702553407707214
 30
0.0
 11
57.399737947306079
 21
92.709566643444234
 31
0.0
  0
LINE
  5
E3DD
  8
3
 10
57.40675118304307
 20
92.695540171970208
 30
0.0
 11
57.403244565174589
 21
92.702553407707214
 31
0.0
  0
LINE
  5
E3DE
  8
3
 10
57.410257800911609
 20
92.688526936233188
 30
0.0
 11
57.40675118304307
 21
92.695540171970208
 31
0.0
  0
LINE
  5
E3DF
  8
3
 10
57.41376441878014
 20
92.681513700496112
 30
0.0
 11
57.410257800911609
 21
92.688526936233188
 31
0.0
  0
LINE
  5
E3E0
  8
3
 10
57.417271036648657
 20
92.674500464759134
 30
0.0
 11
57.41376441878014
 21
92.681513700496112
 31
0.0
  0
LINE
  5
E3E1
  8
3
 10
57.420777654517167
 20
92.663980611153576
 30
0.0
 11
57.417271036648657
 21
92.674500464759134
 31
0.0
  0
LINE
  5
E3E2
  8
3
 10
57.424284272385712
 20
92.656967375416585
 30
0.0
 11
57.420777654517167
 21
92.663980611153576
 31
0.0
  0
LINE
  5
E3E3
  8
3
 10
57.427790890254222
 20
92.649954139679494
 30
0.0
 11
57.424284272385712
 21
92.656967375416585
 31
0.0
  0
LINE
  5
E3E4
  8
3
 10
57.43129750812269
 20
92.642940903942474
 30
0.0
 11
57.427790890254222
 21
92.649954139679494
 31
0.0
  0
LINE
  5
E3E5
  8
3
 10
57.438310743859716
 20
92.635927668205454
 30
0.0
 11
57.43129750812269
 21
92.642940903942474
 31
0.0
  0
LINE
  5
E3E6
  8
3
 10
57.441817361728262
 20
92.625407814599939
 30
0.0
 11
57.438310743859716
 21
92.635927668205454
 31
0.0
  0
LINE
  5
E3E7
  8
3
 10
57.445323979596729
 20
92.618394578862876
 30
0.0
 11
57.441817361728262
 21
92.625407814599939
 31
0.0
  0
LINE
  5
E3E8
  8
3
 10
57.448830597465268
 20
92.611381343125856
 30
0.0
 11
57.445323979596729
 21
92.618394578862876
 31
0.0
  0
LINE
  5
E3E9
  8
3
 10
57.455843833202287
 20
92.604368107388837
 30
0.0
 11
57.448830597465268
 21
92.611381343125856
 31
0.0
  0
LINE
  5
E3EA
  8
3
 10
57.452337215333841
 20
92.600861489520298
 30
0.0
 11
57.455843833202287
 21
92.604368107388837
 31
0.0
  0
LINE
  5
E3EB
  8
3
 10
57.452337215333841
 20
92.59735487165176
 30
0.0
 11
57.452337215333841
 21
92.600861489520298
 31
0.0
  0
LINE
  5
E3EC
  8
3
 10
57.452337215333841
 20
92.593848253783278
 30
0.0
 11
57.452337215333841
 21
92.59735487165176
 31
0.0
  0
LINE
  5
E3ED
  8
3
 10
57.452337215333841
 20
92.590341635914797
 30
0.0
 11
57.452337215333841
 21
92.593848253783278
 31
0.0
  0
LINE
  5
E3EE
  8
3
 10
57.452337215333841
 20
92.586835018046244
 30
0.0
 11
57.452337215333841
 21
92.590341635914797
 31
0.0
  0
LINE
  5
E3EF
  8
3
 10
57.452337215333841
 20
92.58332840017772
 30
0.0
 11
57.452337215333841
 21
92.586835018046244
 31
0.0
  0
LINE
  5
E3F0
  8
3
 10
57.452337215333841
 20
92.579821782309182
 30
0.0
 11
57.452337215333841
 21
92.58332840017772
 31
0.0
  0
LINE
  5
E3F1
  8
3
 10
57.452337215333841
 20
92.576315164440686
 30
0.0
 11
57.452337215333841
 21
92.579821782309182
 31
0.0
  0
LINE
  5
E3F2
  8
3
 10
57.452337215333841
 20
92.572808546572219
 30
0.0
 11
57.452337215333841
 21
92.576315164440686
 31
0.0
  0
LINE
  5
E3F3
  8
3
 10
57.448830597465268
 20
92.569301928703695
 30
0.0
 11
57.452337215333841
 21
92.572808546572219
 31
0.0
  0
LINE
  5
E3F4
  8
3
 10
57.448830597465268
 20
92.565795310835156
 30
0.0
 11
57.448830597465268
 21
92.569301928703695
 31
0.0
  0
LINE
  5
E3F5
  8
3
 10
57.445323979596729
 20
92.565795310835156
 30
0.0
 11
57.448830597465268
 21
92.565795310835156
 31
0.0
  0
LINE
  5
E3F6
  8
3
 10
57.445323979596729
 20
92.562288692966604
 30
0.0
 11
57.445323979596729
 21
92.565795310835156
 31
0.0
  0
LINE
  5
E3F7
  8
3
 10
57.445323979596729
 20
92.558782075098065
 30
0.0
 11
57.445323979596729
 21
92.562288692966604
 31
0.0
  0
LINE
  5
E3F8
  8
3
 10
57.427790890254222
 20
92.555275457229584
 30
0.0
 11
57.445323979596729
 21
92.558782075098065
 31
0.0
  0
LINE
  5
E3F9
  8
3
 10
57.420777654517167
 20
92.551768839361102
 30
0.0
 11
57.427790890254222
 21
92.555275457229584
 31
0.0
  0
LINE
  5
E3FA
  8
3
 10
57.41376441878014
 20
92.548262221492564
 30
0.0
 11
57.420777654517167
 21
92.551768839361102
 31
0.0
  0
LINE
  5
E3FB
  8
3
 10
57.40675118304307
 20
92.548262221492564
 30
0.0
 11
57.41376441878014
 21
92.548262221492564
 31
0.0
  0
LINE
  5
E3FC
  8
3
 10
57.399737947306079
 20
92.544755603624026
 30
0.0
 11
57.40675118304307
 21
92.548262221492564
 31
0.0
  0
LINE
  5
E3FD
  8
3
 10
57.39623132943759
 20
92.541248985755544
 30
0.0
 11
57.399737947306079
 21
92.544755603624026
 31
0.0
  0
LINE
  5
E3FE
  8
3
 10
57.389218093700542
 20
92.537742367887049
 30
0.0
 11
57.39623132943759
 21
92.541248985755544
 31
0.0
  0
LINE
  5
E3FF
  8
3
 10
57.357658532883839
 20
92.884897536870014
 30
0.0
 11
57.354151915015372
 21
92.926976951292204
 31
0.0
  0
LINE
  5
E400
  8
3
 10
57.364671768620923
 20
92.84632474031639
 30
0.0
 11
57.357658532883839
 21
92.884897536870014
 31
0.0
  0
LINE
  5
E401
  8
3
 10
57.371685004357943
 20
92.804245325894158
 30
0.0
 11
57.364671768620923
 21
92.84632474031639
 31
0.0
  0
LINE
  5
E402
  8
3
 10
57.350645297146833
 20
92.965549747845884
 30
0.0
 11
57.347138679278338
 21
93.004122544399536
 31
0.0
  0
LINE
  5
E403
  8
3
 10
57.347138679278338
 20
93.042695340953159
 30
0.0
 11
57.347138679278338
 21
93.084774755375406
 31
0.0
  0
LINE
  5
E404
  8
3
 10
57.347138679278338
 20
93.004122544399536
 30
0.0
 11
57.347138679278338
 21
93.042695340953159
 31
0.0
  0
LINE
  5
E405
  8
3
 10
57.350645297146833
 20
93.123347551929044
 30
0.0
 11
57.354151915015372
 21
93.161920348482695
 31
0.0
  0
LINE
  5
E406
  8
3
 10
57.347138679278338
 20
93.084774755375406
 30
0.0
 11
57.350645297146833
 21
93.123347551929044
 31
0.0
  0
LINE
  5
E407
  8
3
 10
57.354151915015372
 20
92.926976951292204
 30
0.0
 11
57.350645297146833
 21
92.965549747845884
 31
0.0
  0
LINE
  5
E408
  8
3
 10
57.988849749216591
 20
93.880777011528323
 30
0.0
 11
57.943263716925941
 21
93.887790247265343
 31
0.0
  0
LINE
  5
E409
  8
3
 10
57.950276952662961
 20
94.617166763916543
 30
0.0
 11
57.967810042005567
 21
94.487421902781421
 31
0.0
  0
POLYLINE
  5
E40A
  8
3
 66
     1
 10
0.0
 20
0.0
 30
0.0
 70
     1
  0
VERTEX
  5
E40B
  8
3
 10
58.115087992483183
 20
93.158413730614157
 30
0.0
  0
VERTEX
  5
E40C
  8
3
 10
58.115087992483183
 20
92.667487229022072
 30
0.0
  0
VERTEX
  5
E40D
  8
3
 10
58.108074756746191
 20
92.663980611153534
 30
0.0
  0
VERTEX
  5
E40E
  8
3
 10
58.101061521009079
 20
92.660473993284995
 30
0.0
  0
VERTEX
  5
E40F
  8
3
 10
58.097554903140598
 20
92.660473993284995
 30
0.0
  0
VERTEX
  5
E410
  8
3
 10
58.090541667403592
 20
92.660473993284995
 30
0.0
  0
VERTEX
  5
E411
  8
3
 10
58.087035049535046
 20
92.663980611153534
 30
0.0
  0
VERTEX
  5
E412
  8
3
 10
58.080021813798048
 20
92.667487229022072
 30
0.0
  0
VERTEX
  5
E413
  8
3
 10
58.073008578060971
 20
92.670993846890553
 30
0.0
  0
VERTEX
  5
E414
  8
3
 10
58.065995342323959
 20
92.678007082627573
 30
0.0
  0
VERTEX
  5
E415
  8
3
 10
58.062488724455449
 20
92.68502031836465
 30
0.0
  0
VERTEX
  5
E416
  8
3
 10
58.055475488718422
 20
92.692033554101684
 30
0.0
  0
VERTEX
  5
E417
  8
3
 10
58.048462252981381
 20
92.699046789838675
 30
0.0
  0
VERTEX
  5
E418
  8
3
 10
58.041449017244311
 20
92.706060025575766
 30
0.0
  0
VERTEX
  5
E419
  8
3
 10
58.037942399375851
 20
92.713073261312786
 30
0.0
  0
VERTEX
  5
E41A
  8
3
 10
58.030929163638831
 20
92.720086497049806
 30
0.0
  0
VERTEX
  5
E41B
  8
3
 10
58.020409310033301
 20
92.730606350655307
 30
0.0
  0
VERTEX
  5
E41C
  8
3
 10
58.006382838559233
 20
92.751646057866424
 30
0.0
  0
VERTEX
  5
E41D
  8
3
 10
57.9923563670852
 20
92.776192382946036
 30
0.0
  0
VERTEX
  5
E41E
  8
3
 10
57.981836513479607
 20
92.797232090157081
 30
0.0
  0
VERTEX
  5
E41F
  8
3
 10
57.97482327774253
 20
92.818271797368197
 30
0.0
  0
VERTEX
  5
E420
  8
3
 10
57.967810042005567
 20
92.842818122447852
 30
0.0
  0
VERTEX
  5
E421
  8
3
 10
57.96079680626849
 20
92.863857829658926
 30
0.0
  0
VERTEX
  5
E422
  8
3
 10
57.953783570531471
 20
92.88840415473851
 30
0.0
  0
VERTEX
  5
E423
  8
3
 10
57.950276952662961
 20
92.912950479818093
 30
0.0
  0
VERTEX
  5
E424
  8
3
 10
57.946770334794422
 20
92.937496804897705
 30
0.0
  0
VERTEX
  5
E425
  8
3
 10
57.946770334794422
 20
92.962043129977346
 30
0.0
  0
VERTEX
  5
E426
  8
3
 10
57.946770334794422
 20
92.986589455056958
 30
0.0
  0
VERTEX
  5
E427
  8
3
 10
57.946770334794422
 20
93.011135780136556
 30
0.0
  0
VERTEX
  5
E428
  8
3
 10
57.950276952662961
 20
93.032175487347615
 30
0.0
  0
VERTEX
  5
E429
  8
3
 10
57.953783570531471
 20
93.056721812427213
 30
0.0
  0
VERTEX
  5
E42A
  8
3
 10
57.964303424137
 20
93.102307844717984
 30
0.0
  0
VERTEX
  5
E42B
  8
3
 10
57.967810042005567
 20
93.112827698323485
 30
0.0
  0
VERTEX
  5
E42C
  8
3
 10
57.971316659874049
 20
93.119840934060562
 30
0.0
  0
VERTEX
  5
E42D
  8
3
 10
57.97482327774253
 20
93.130360787666049
 30
0.0
  0
VERTEX
  5
E42E
  8
3
 10
57.981836513479607
 20
93.137374023403126
 30
0.0
  0
VERTEX
  5
E42F
  8
3
 10
57.985343131348081
 20
93.144387259140103
 30
0.0
  0
VERTEX
  5
E430
  8
3
 10
57.9923563670852
 20
93.15140049487718
 30
0.0
  0
VERTEX
  5
E431
  8
3
 10
57.999369602822178
 20
93.158413730614157
 30
0.0
  0
VERTEX
  5
E432
  8
3
 10
58.006382838559233
 20
93.161920348482695
 30
0.0
  0
VERTEX
  5
E433
  8
3
 10
58.013396074296217
 20
93.168933584219758
 30
0.0
  0
VERTEX
  5
E434
  8
3
 10
58.020409310033301
 20
93.172440202088225
 30
0.0
  0
VERTEX
  5
E435
  8
3
 10
58.027422545770321
 20
93.175946819956764
 30
0.0
  0
VERTEX
  5
E436
  8
3
 10
58.034435781507312
 20
93.179453437825245
 30
0.0
  0
VERTEX
  5
E437
  8
3
 10
58.041449017244311
 20
93.182960055693783
 30
0.0
  0
VERTEX
  5
E438
  8
3
 10
58.051968870849862
 20
93.186466673562336
 30
0.0
  0
VERTEX
  5
E439
  8
3
 10
58.069501960192497
 20
93.189973291430874
 30
0.0
  0
VERTEX
  5
E43A
  8
3
 10
58.111581374614673
 20
93.165426966351234
 30
0.0
  0
VERTEX
  5
E43B
  8
3
 10
58.111581374614673
 20
93.161920348482695
 30
0.0
  0
VERTEX
  5
E43C
  8
3
 10
58.115087992483183
 20
93.158413730614157
 30
0.0
  0
SEQEND
  5
E43D
  8
3
  0
LINE
  5
E43E
  8
3
 10
57.936250481188893
 20
94.746911625051553
 30
0.0
 11
57.943263716925941
 21
94.683792503418303
 31
0.0
  0
LINE
  5
E43F
  8
3
 10
57.925730627583327
 20
94.873149868318137
 30
0.0
 11
57.932743863320383
 21
94.810030746684845
 31
0.0
  0
LINE
  5
E440
  8
3
 10
57.932743863320383
 20
94.799510893079287
 30
0.0
 11
57.932743863320383
 21
94.810030746684845
 31
0.0
  0
LINE
  5
E441
  8
3
 10
57.932743863320383
 20
94.810030746684845
 30
0.0
 11
57.936250481188893
 21
94.746911625051553
 31
0.0
  0
LINE
  5
E442
  8
3
 10
57.943263716925941
 20
94.683792503418303
 30
0.0
 11
57.950276952662961
 21
94.617166763916543
 31
0.0
  0
LINE
  5
E443
  8
3
 10
58.942649809452718
 20
92.194093816772565
 30
0.0
 11
58.847971127002829
 21
92.120454841533729
 31
0.0
  0
LINE
  5
E444
  8
3
 10
58.672640233577113
 20
93.179453437825316
 30
0.0
 11
58.669133615708553
 21
93.24607917732709
 31
0.0
  0
LINE
  5
E445
  8
3
 10
58.532375518836488
 20
93.596740964178593
 30
0.0
 11
58.542895372441961
 21
92.695540171970208
 31
0.0
  0
LINE
  5
E446
  8
3
 10
58.669133615708553
 20
93.24607917732709
 30
0.0
 11
58.665626997840057
 21
93.312704916828864
 31
0.0
  0
LINE
  5
E447
  8
3
 10
58.823424801923238
 20
93.677393175154521
 30
0.0
 11
58.854984362739849
 21
93.670379939417444
 31
0.0
  0
LINE
  5
E448
  8
3
 10
58.665626997840057
 20
93.312704916828864
 30
0.0
 11
58.662120379971519
 21
93.379330656330694
 31
0.0
  0
LINE
  5
E449
  8
3
 10
58.662120379971519
 20
93.379330656330694
 30
0.0
 11
58.658613762102988
 21
93.445956395832454
 31
0.0
  0
LINE
  5
E44A
  8
3
 10
58.658613762102988
 20
93.579207874836015
 30
0.0
 11
58.676146851445587
 21
93.705446118102586
 31
0.0
  0
LINE
  5
E44B
  8
3
 10
58.669133615708553
 20
93.772071857604374
 30
0.0
 11
58.669133615708553
 21
93.800124800552453
 31
0.0
  0
LINE
  5
E44C
  8
3
 10
58.669133615708553
 20
93.824671125632094
 30
0.0
 11
58.669133615708553
 21
93.849217450711706
 31
0.0
  0
LINE
  5
E44D
  8
3
 10
58.669133615708553
 20
93.800124800552453
 30
0.0
 11
58.669133615708553
 21
93.824671125632094
 31
0.0
  0
LINE
  5
E44E
  8
3
 10
58.672640233577113
 20
93.740512296787756
 30
0.0
 11
58.669133615708553
 21
93.772071857604374
 31
0.0
  0
LINE
  5
E44F
  8
3
 10
58.676146851445587
 20
93.705446118102586
 30
0.0
 11
58.672640233577113
 21
93.740512296787756
 31
0.0
  0
LINE
  5
E450
  8
3
 10
58.528868900967971
 20
93.600247582047146
 30
0.0
 11
58.532375518836488
 21
93.596740964178593
 31
0.0
  0
LINE
  5
E451
  8
3
 10
58.528868900967971
 20
93.603754199915684
 30
0.0
 11
58.528868900967971
 21
93.600247582047146
 31
0.0
  0
LINE
  5
E452
  8
3
 10
58.528868900967971
 20
93.607260817784137
 30
0.0
 11
58.528868900967971
 21
93.603754199915684
 31
0.0
  0
LINE
  5
E453
  8
3
 10
58.525362283099469
 20
93.610767435652633
 30
0.0
 11
58.528868900967971
 21
93.607260817784137
 31
0.0
  0
LINE
  5
E454
  8
3
 10
58.525362283099469
 20
93.614274053521171
 30
0.0
 11
58.525362283099469
 21
93.610767435652633
 31
0.0
  0
LINE
  5
E455
  8
3
 10
58.525362283099469
 20
93.617780671389696
 30
0.0
 11
58.525362283099469
 21
93.614274053521171
 31
0.0
  0
LINE
  5
E456
  8
3
 10
58.521855665230959
 20
93.617780671389696
 30
0.0
 11
58.525362283099469
 21
93.617780671389696
 31
0.0
  0
LINE
  5
E457
  8
3
 10
58.521855665230959
 20
93.621287289258234
 30
0.0
 11
58.521855665230959
 21
93.617780671389696
 31
0.0
  0
LINE
  5
E458
  8
3
 10
58.469256397203218
 20
93.663366703680367
 30
0.0
 11
58.521855665230959
 21
93.621287289258234
 31
0.0
  0
LINE
  5
E459
  8
3
 10
58.441203454255081
 20
93.680899793022945
 30
0.0
 11
58.469256397203218
 21
93.663366703680367
 31
0.0
  0
LINE
  5
E45A
  8
3
 10
58.413150511307009
 20
93.694926264497028
 30
0.0
 11
58.441203454255081
 21
93.680899793022945
 31
0.0
  0
LINE
  5
E45B
  8
3
 10
58.381590950490327
 20
93.712459353839563
 30
0.0
 11
58.413150511307009
 21
93.694926264497028
 31
0.0
  0
LINE
  5
E45C
  8
3
 10
58.350031389673688
 20
93.722979207445178
 30
0.0
 11
58.381590950490327
 21
93.712459353839563
 31
0.0
  0
LINE
  5
E45D
  8
3
 10
58.318471828857042
 20
93.737005678919203
 30
0.0
 11
58.350031389673688
 21
93.722979207445178
 31
0.0
  0
LINE
  5
E45E
  8
3
 10
58.286912268040453
 20
93.747525532524776
 30
0.0
 11
58.318471828857042
 21
93.737005678919203
 31
0.0
  0
LINE
  5
E45F
  8
3
 10
58.25184608935524
 20
93.758045386130334
 30
0.0
 11
58.286912268040453
 21
93.747525532524776
 31
0.0
  0
LINE
  5
E460
  8
3
 10
58.216779910670141
 20
93.765058621867297
 30
0.0
 11
58.25184608935524
 21
93.758045386130334
 31
0.0
  0
LINE
  5
E461
  8
3
 10
58.181713731984949
 20
93.772071857604374
 30
0.0
 11
58.216779910670141
 21
93.765058621867297
 31
0.0
  0
LINE
  5
E462
  8
3
 10
58.146647553299829
 20
93.779085093341379
 30
0.0
 11
58.181713731984949
 21
93.772071857604374
 31
0.0
  0
LINE
  5
E463
  8
3
 10
58.795371858975102
 20
93.684406410891484
 30
0.0
 11
58.823424801923238
 21
93.677393175154521
 31
0.0
  0
LINE
  5
E464
  8
3
 10
58.763812298158513
 20
93.691419646628574
 30
0.0
 11
58.795371858975102
 21
93.684406410891484
 31
0.0
  0
LINE
  5
E465
  8
3
 10
58.735759355210313
 20
93.701939500234062
 30
0.0
 11
58.763812298158513
 21
93.691419646628574
 31
0.0
  0
LINE
  5
E466
  8
3
 10
58.707706412262212
 20
93.715965971708101
 30
0.0
 11
58.735759355210313
 21
93.701939500234062
 31
0.0
  0
LINE
  5
E467
  8
3
 10
58.683160087182607
 20
93.729992443182198
 30
0.0
 11
58.707706412262212
 21
93.715965971708101
 31
0.0
  0
LINE
  5
E468
  8
3
 10
58.679653469314097
 20
93.737005678919203
 30
0.0
 11
58.683160087182607
 21
93.729992443182198
 31
0.0
  0
LINE
  5
E469
  8
3
 10
58.679653469314097
 20
93.740512296787756
 30
0.0
 11
58.679653469314097
 21
93.737005678919203
 31
0.0
  0
LINE
  5
E46A
  8
3
 10
58.683160087182607
 20
93.740512296787756
 30
0.0
 11
58.679653469314097
 21
93.740512296787756
 31
0.0
  0
LINE
  5
E46B
  8
3
 10
58.206260057064547
 20
93.898310100870958
 30
0.0
 11
58.16418064264235
 21
93.891296865133882
 31
0.0
  0
LINE
  5
E46C
  8
3
 10
58.248339471486702
 20
93.908829954476445
 30
0.0
 11
58.206260057064547
 21
93.898310100870958
 31
0.0
  0
LINE
  5
E46D
  8
3
 10
58.290418885908927
 20
93.919349808081961
 30
0.0
 11
58.248339471486702
 21
93.908829954476445
 31
0.0
  0
LINE
  5
E46E
  8
3
 10
58.33249830033111
 20
93.936882897424596
 30
0.0
 11
58.290418885908927
 21
93.919349808081961
 31
0.0
  0
LINE
  5
E46F
  8
3
 10
58.374577714753251
 20
93.954415986767117
 30
0.0
 11
58.33249830033111
 21
93.936882897424596
 31
0.0
  0
LINE
  5
E470
  8
3
 10
58.416657129175491
 20
93.971949076109695
 30
0.0
 11
58.374577714753251
 21
93.954415986767117
 31
0.0
  0
LINE
  5
E471
  8
3
 10
58.43419021851804
 20
93.989482165452344
 30
0.0
 11
58.416657129175491
 21
93.971949076109695
 31
0.0
  0
LINE
  5
E472
  8
3
 10
58.441203454255081
 20
93.996495401189335
 30
0.0
 11
58.43419021851804
 21
93.989482165452344
 31
0.0
  0
LINE
  5
E473
  8
3
 10
58.451723307860618
 20
94.000002019057874
 30
0.0
 11
58.441203454255081
 21
93.996495401189335
 31
0.0
  0
LINE
  5
E474
  8
3
 10
58.462243161466212
 20
94.007015254794851
 30
0.0
 11
58.451723307860618
 21
94.000002019057874
 31
0.0
  0
LINE
  5
E475
  8
3
 10
58.469256397203218
 20
94.014028490531928
 30
0.0
 11
58.462243161466212
 21
94.007015254794851
 31
0.0
  0
LINE
  5
E476
  8
3
 10
58.479776250808783
 20
94.021041726268948
 30
0.0
 11
58.469256397203218
 21
94.014028490531928
 31
0.0
  0
LINE
  5
E477
  8
3
 10
58.490296104414313
 20
94.028054962005967
 30
0.0
 11
58.479776250808783
 21
94.021041726268948
 31
0.0
  0
LINE
  5
E478
  8
3
 10
58.497309340151332
 20
94.035068197742973
 30
0.0
 11
58.490296104414313
 21
94.028054962005967
 31
0.0
  0
LINE
  5
E479
  8
3
 10
58.507829193756891
 20
94.042081433480007
 30
0.0
 11
58.497309340151332
 21
94.035068197742973
 31
0.0
  0
LINE
  5
E47A
  8
3
 10
58.51484242949391
 20
94.049094669217084
 30
0.0
 11
58.507829193756891
 21
94.042081433480007
 31
0.0
  0
LINE
  5
E47B
  8
3
 10
58.672640233577113
 20
94.000002019057874
 30
0.0
 11
58.669133615708553
 21
94.017535108400466
 31
0.0
  0
LINE
  5
E47C
  8
3
 10
58.672640233577113
 20
93.98246892971531
 30
0.0
 11
58.672640233577113
 21
94.000002019057874
 31
0.0
  0
LINE
  5
E47D
  8
3
 10
58.672640233577113
 20
93.964935840372732
 30
0.0
 11
58.672640233577113
 21
93.98246892971531
 31
0.0
  0
LINE
  5
E47E
  8
3
 10
58.672640233577113
 20
93.947402751030154
 30
0.0
 11
58.672640233577113
 21
93.964935840372732
 31
0.0
  0
LINE
  5
E47F
  8
3
 10
58.672640233577113
 20
93.929869661687576
 30
0.0
 11
58.672640233577113
 21
93.947402751030154
 31
0.0
  0
LINE
  5
E480
  8
3
 10
58.672640233577113
 20
93.908829954476445
 30
0.0
 11
58.672640233577113
 21
93.929869661687576
 31
0.0
  0
LINE
  5
E481
  8
3
 10
58.672640233577113
 20
93.891296865133882
 30
0.0
 11
58.672640233577113
 21
93.908829954476445
 31
0.0
  0
LINE
  5
E482
  8
3
 10
58.669133615708553
 20
93.870257157922808
 30
0.0
 11
58.672640233577113
 21
93.891296865133882
 31
0.0
  0
LINE
  5
E483
  8
3
 10
58.669133615708553
 20
93.849217450711706
 30
0.0
 11
58.669133615708553
 21
93.870257157922808
 31
0.0
  0
LINE
  5
E484
  8
3
 10
58.658613762102988
 20
93.512582135334256
 30
0.0
 11
58.658613762102988
 21
93.579207874836015
 31
0.0
  0
LINE
  5
E485
  8
3
 10
58.658613762102988
 20
93.445956395832454
 30
0.0
 11
58.658613762102988
 21
93.512582135334256
 31
0.0
  0
LINE
  5
E486
  8
3
 10
58.532375518836488
 20
94.059614522822585
 30
0.0
 11
58.525362283099469
 21
94.056107904954104
 31
0.0
  0
LINE
  5
E487
  8
3
 10
58.53938875457348
 20
94.066627758559662
 30
0.0
 11
58.532375518836488
 21
94.059614522822585
 31
0.0
  0
LINE
  5
E488
  8
3
 10
58.546401990310557
 20
94.073640994296696
 30
0.0
 11
58.53938875457348
 21
94.066627758559662
 31
0.0
  0
LINE
  5
E489
  8
3
 10
58.556921843916079
 20
94.080654230033687
 30
0.0
 11
58.546401990310557
 21
94.073640994296696
 31
0.0
  0
LINE
  5
E48A
  8
3
 10
58.570948315390119
 20
94.087667465770721
 30
0.0
 11
58.556921843916079
 21
94.080654230033687
 31
0.0
  0
LINE
  5
E48B
  8
3
 10
58.577961551127203
 20
94.087667465770721
 30
0.0
 11
58.570948315390119
 21
94.087667465770721
 31
0.0
  0
LINE
  5
E48C
  8
3
 10
58.584974786864223
 20
94.091174083639245
 30
0.0
 11
58.577961551127203
 21
94.087667465770721
 31
0.0
  0
LINE
  5
E48D
  8
3
 10
58.595494640469752
 20
94.091174083639245
 30
0.0
 11
58.584974786864223
 21
94.091174083639245
 31
0.0
  0
LINE
  5
E48E
  8
3
 10
58.602507876206751
 20
94.091174083639245
 30
0.0
 11
58.595494640469752
 21
94.091174083639245
 31
0.0
  0
LINE
  5
E48F
  8
3
 10
58.60952111194382
 20
94.087667465770721
 30
0.0
 11
58.602507876206751
 21
94.091174083639245
 31
0.0
  0
LINE
  5
E490
  8
3
 10
58.61653434768084
 20
94.087667465770721
 30
0.0
 11
58.60952111194382
 21
94.087667465770721
 31
0.0
  0
LINE
  5
E491
  8
3
 10
58.623547583417889
 20
94.084160847902226
 30
0.0
 11
58.61653434768084
 21
94.087667465770721
 31
0.0
  0
LINE
  5
E492
  8
3
 10
58.630560819154908
 20
94.084160847902226
 30
0.0
 11
58.623547583417889
 21
94.084160847902226
 31
0.0
  0
LINE
  5
E493
  8
3
 10
58.63757405489195
 20
94.080654230033687
 30
0.0
 11
58.630560819154908
 21
94.084160847902226
 31
0.0
  0
LINE
  5
E494
  8
3
 10
58.644587290628976
 20
94.077147612165149
 30
0.0
 11
58.63757405489195
 21
94.080654230033687
 31
0.0
  0
LINE
  5
E495
  8
3
 10
58.651600526365961
 20
94.073640994296696
 30
0.0
 11
58.644587290628976
 21
94.077147612165149
 31
0.0
  0
LINE
  5
E496
  8
3
 10
58.655107144234471
 20
94.066627758559662
 30
0.0
 11
58.651600526365961
 21
94.073640994296696
 31
0.0
  0
LINE
  5
E497
  8
3
 10
58.658613762102988
 20
94.063121140691123
 30
0.0
 11
58.655107144234471
 21
94.066627758559662
 31
0.0
  0
LINE
  5
E498
  8
3
 10
58.665626997840057
 20
94.056107904954104
 30
0.0
 11
58.658613762102988
 21
94.063121140691123
 31
0.0
  0
LINE
  5
E499
  8
3
 10
58.525362283099469
 20
94.056107904954104
 30
0.0
 11
58.51484242949391
 21
94.049094669217084
 31
0.0
  0
LINE
  5
E49A
  8
3
 10
58.669133615708553
 20
94.017535108400466
 30
0.0
 11
58.665626997840057
 21
94.056107904954104
 31
0.0
  0
LINE
  5
E49B
  8
3
 10
58.854984362739849
 20
93.670379939417444
 30
0.0
 11
58.883037305687971
 21
93.666873321548906
 31
0.0
  0
LINE
  5
E49C
  8
3
 10
59.093434377798872
 20
93.628300524995268
 30
0.0
 11
59.149540263695137
 21
93.603754199915684
 31
0.0
  0
LINE
  5
E49D
  8
3
 10
59.065381434850792
 20
93.638820378600826
 30
0.0
 11
59.093434377798872
 21
93.628300524995268
 31
0.0
  0
LINE
  5
E49E
  8
3
 10
59.033821874034203
 20
93.645833614337775
 30
0.0
 11
59.065381434850792
 21
93.638820378600826
 31
0.0
  0
LINE
  5
E49F
  8
3
 10
59.005768931086038
 20
93.649340232206313
 30
0.0
 11
59.033821874034203
 21
93.645833614337775
 31
0.0
  0
LINE
  5
E4A0
  8
3
 10
58.974209370269392
 20
93.652846850074866
 30
0.0
 11
59.005768931086038
 21
93.649340232206313
 31
0.0
  0
LINE
  5
E4A1
  8
3
 10
58.946156427321263
 20
93.659860085811886
 30
0.0
 11
58.974209370269392
 21
93.652846850074866
 31
0.0
  0
LINE
  5
E4A2
  8
3
 10
58.91459686650461
 20
93.663366703680367
 30
0.0
 11
58.946156427321263
 21
93.659860085811886
 31
0.0
  0
LINE
  5
E4A3
  8
3
 10
58.883037305687971
 20
93.666873321548906
 30
0.0
 11
58.91459686650461
 21
93.663366703680367
 31
0.0
  0
LINE
  5
E4A4
  8
3
 10
59.18811306024881
 20
94.382223366725995
 30
0.0
 11
59.209152767459898
 21
94.350663805909335
 31
0.0
  0
LINE
  5
E4A5
  8
3
 10
58.861997598476933
 20
94.838083689632981
 30
0.0
 11
58.82693141979172
 21
94.834577071764443
 31
0.0
  0
LINE
  5
E4A6
  8
3
 10
58.823424801923238
 20
94.662752796207201
 30
0.0
 11
58.833944655528768
 21
94.659246178338663
 31
0.0
  0
LINE
  5
E4A7
  8
3
 10
58.139634317562717
 20
94.894189575529197
 30
0.0
 11
58.136127699694327
 21
94.894189575529197
 31
0.0
  0
LINE
  5
E4A8
  8
3
 10
58.143140935431262
 20
94.894189575529197
 30
0.0
 11
58.139634317562717
 21
94.894189575529197
 31
0.0
  0
LINE
  5
E4A9
  8
3
 10
58.146647553299829
 20
94.894189575529197
 30
0.0
 11
58.143140935431262
 21
94.894189575529197
 31
0.0
  0
LINE
  5
E4AA
  8
3
 10
58.150154171168282
 20
94.894189575529197
 30
0.0
 11
58.146647553299829
 21
94.894189575529197
 31
0.0
  0
LINE
  5
E4AB
  8
3
 10
58.150154171168282
 20
94.890682957660715
 30
0.0
 11
58.150154171168282
 21
94.894189575529197
 31
0.0
  0
LINE
  5
E4AC
  8
3
 10
58.15366078903682
 20
94.890682957660715
 30
0.0
 11
58.150154171168282
 21
94.890682957660715
 31
0.0
  0
LINE
  5
E4AD
  8
3
 10
58.15716740690533
 20
94.890682957660715
 30
0.0
 11
58.15366078903682
 21
94.890682957660715
 31
0.0
  0
LINE
  5
E4AE
  8
3
 10
58.160674024773861
 20
94.890682957660715
 30
0.0
 11
58.15716740690533
 21
94.890682957660715
 31
0.0
  0
LINE
  5
E4AF
  8
3
 10
58.16418064264235
 20
94.890682957660715
 30
0.0
 11
58.160674024773861
 21
94.890682957660715
 31
0.0
  0
LINE
  5
E4B0
  8
3
 10
58.16768726051091
 20
94.890682957660715
 30
0.0
 11
58.16418064264235
 21
94.890682957660715
 31
0.0
  0
LINE
  5
E4B1
  8
3
 10
58.171193878379427
 20
94.890682957660715
 30
0.0
 11
58.16768726051091
 21
94.890682957660715
 31
0.0
  0
LINE
  5
E4B2
  8
3
 10
58.174700496247958
 20
94.887176339792177
 30
0.0
 11
58.171193878379427
 21
94.890682957660715
 31
0.0
  0
LINE
  5
E4B3
  8
3
 10
58.216779910670141
 20
94.890682957660715
 30
0.0
 11
58.174700496247958
 21
94.887176339792177
 31
0.0
  0
LINE
  5
E4B4
  8
3
 10
58.2378196178812
 20
94.890682957660715
 30
0.0
 11
58.216779910670141
 21
94.890682957660715
 31
0.0
  0
LINE
  5
E4B5
  8
3
 10
58.258859325092288
 20
94.894189575529197
 30
0.0
 11
58.2378196178812
 21
94.890682957660715
 31
0.0
  0
LINE
  5
E4B6
  8
3
 10
58.279899032303383
 20
94.894189575529197
 30
0.0
 11
58.258859325092288
 21
94.894189575529197
 31
0.0
  0
LINE
  5
E4B7
  8
3
 10
58.300938739514521
 20
94.894189575529197
 30
0.0
 11
58.279899032303383
 21
94.894189575529197
 31
0.0
  0
LINE
  5
E4B8
  8
3
 10
58.321978446725581
 20
94.894189575529197
 30
0.0
 11
58.300938739514521
 21
94.894189575529197
 31
0.0
  0
LINE
  5
E4B9
  8
3
 10
58.34301815393669
 20
94.894189575529197
 30
0.0
 11
58.321978446725581
 21
94.894189575529197
 31
0.0
  0
LINE
  5
E4BA
  8
3
 10
58.364057861147728
 20
94.894189575529197
 30
0.0
 11
58.34301815393669
 21
94.894189575529197
 31
0.0
  0
LINE
  5
E4BB
  8
3
 10
58.388604186227333
 20
94.894189575529197
 30
0.0
 11
58.364057861147728
 21
94.894189575529197
 31
0.0
  0
LINE
  5
E4BC
  8
3
 10
58.413150511307009
 20
94.897696193397735
 30
0.0
 11
58.388604186227333
 21
94.894189575529197
 31
0.0
  0
LINE
  5
E4BD
  8
3
 10
58.437696836386579
 20
94.897696193397735
 30
0.0
 11
58.413150511307009
 21
94.897696193397735
 31
0.0
  0
LINE
  5
E4BE
  8
3
 10
58.465749779334679
 20
94.897696193397735
 30
0.0
 11
58.437696836386579
 21
94.897696193397735
 31
0.0
  0
LINE
  5
E4BF
  8
3
 10
58.493802722282823
 20
94.901202811266216
 30
0.0
 11
58.465749779334679
 21
94.897696193397735
 31
0.0
  0
LINE
  5
E4C0
  8
3
 10
58.525362283099469
 20
94.901202811266216
 30
0.0
 11
58.493802722282823
 21
94.901202811266216
 31
0.0
  0
LINE
  5
E4C1
  8
3
 10
58.560428461784603
 20
94.901202811266216
 30
0.0
 11
58.525362283099469
 21
94.901202811266216
 31
0.0
  0
LINE
  5
E4C2
  8
3
 10
58.71822626586777
 20
94.827563836027423
 30
0.0
 11
58.71121303013075
 21
94.887176339792177
 31
0.0
  0
LINE
  5
E4C3
  8
3
 10
58.788358623238082
 20
94.834577071764443
 30
0.0
 11
58.71822626586777
 21
94.827563836027423
 31
0.0
  0
LINE
  5
E4C4
  8
3
 10
58.82693141979172
 20
94.834577071764443
 30
0.0
 11
58.788358623238082
 21
94.834577071764443
 31
0.0
  0
LINE
  5
E4C5
  8
3
 10
58.812904948317708
 20
94.662752796207201
 30
0.0
 11
58.823424801923238
 21
94.662752796207201
 31
0.0
  0
LINE
  5
E4C6
  8
3
 10
58.805891712580689
 20
94.666259414075739
 30
0.0
 11
58.812904948317708
 21
94.662752796207201
 31
0.0
  0
LINE
  5
E4C7
  8
3
 10
58.795371858975102
 20
94.669766031944278
 30
0.0
 11
58.805891712580689
 21
94.666259414075739
 31
0.0
  0
LINE
  5
E4C8
  8
3
 10
58.784852005369601
 20
94.669766031944278
 30
0.0
 11
58.795371858975102
 21
94.669766031944278
 31
0.0
  0
LINE
  5
E4C9
  8
3
 10
58.77433215176395
 20
94.673272649812759
 30
0.0
 11
58.784852005369601
 21
94.669766031944278
 31
0.0
  0
LINE
  5
E4CA
  8
3
 10
58.763812298158513
 20
94.676779267681226
 30
0.0
 11
58.77433215176395
 21
94.673272649812759
 31
0.0
  0
LINE
  5
E4CB
  8
3
 10
58.753292444552947
 20
94.680285885549765
 30
0.0
 11
58.763812298158513
 21
94.676779267681226
 31
0.0
  0
LINE
  5
E4CC
  8
3
 10
58.742772590947389
 20
94.683792503418303
 30
0.0
 11
58.753292444552947
 21
94.680285885549765
 31
0.0
  0
LINE
  5
E4CD
  8
3
 10
58.665626997840057
 20
94.697818974892357
 30
0.0
 11
58.742772590947389
 21
94.683792503418303
 31
0.0
  0
LINE
  5
E4CE
  8
3
 10
58.627054201286398
 20
94.697818974892357
 30
0.0
 11
58.665626997840057
 21
94.697818974892357
 31
0.0
  0
LINE
  5
E4CF
  8
3
 10
58.588481404732761
 20
94.697818974892357
 30
0.0
 11
58.627054201286398
 21
94.697818974892357
 31
0.0
  0
LINE
  5
E4D0
  8
3
 10
58.549908608179059
 20
94.694312357023819
 30
0.0
 11
58.588481404732761
 21
94.697818974892357
 31
0.0
  0
LINE
  5
E4D1
  8
3
 10
58.511335811625372
 20
94.69080573915528
 30
0.0
 11
58.549908608179059
 21
94.694312357023819
 31
0.0
  0
LINE
  5
E4D2
  8
3
 10
58.472763015071713
 20
94.683792503418303
 30
0.0
 11
58.511335811625372
 21
94.69080573915528
 31
0.0
  0
LINE
  5
E4D3
  8
3
 10
58.43419021851804
 20
94.676779267681226
 30
0.0
 11
58.472763015071713
 21
94.683792503418303
 31
0.0
  0
LINE
  5
E4D4
  8
3
 10
58.399124039832941
 20
94.666259414075739
 30
0.0
 11
58.43419021851804
 21
94.676779267681226
 31
0.0
  0
LINE
  5
E4D5
  8
3
 10
58.364057861147728
 20
94.655739560470181
 30
0.0
 11
58.399124039832941
 21
94.666259414075739
 31
0.0
  0
LINE
  5
E4D6
  8
3
 10
58.325485064594091
 20
94.641713088996127
 30
0.0
 11
58.364057861147728
 21
94.655739560470181
 31
0.0
  0
LINE
  5
E4D7
  8
3
 10
58.293925503777473
 20
94.627686617522045
 30
0.0
 11
58.325485064594091
 21
94.641713088996127
 31
0.0
  0
LINE
  5
E4D8
  8
3
 10
58.258859325092288
 20
94.610153528179467
 30
0.0
 11
58.293925503777473
 21
94.627686617522045
 31
0.0
  0
LINE
  5
E4D9
  8
3
 10
58.227299764275699
 20
94.592620438836875
 30
0.0
 11
58.258859325092288
 21
94.610153528179467
 31
0.0
  0
LINE
  5
E4DA
  8
3
 10
58.199246821327542
 20
94.571580731625772
 30
0.0
 11
58.227299764275699
 21
94.592620438836875
 31
0.0
  0
LINE
  5
E4DB
  8
3
 10
58.171193878379427
 20
94.550541024414784
 30
0.0
 11
58.199246821327542
 21
94.571580731625772
 31
0.0
  0
LINE
  5
E4DC
  8
3
 10
58.851477744871339
 20
94.655739560470181
 30
0.0
 11
58.861997598476933
 21
94.652232942601643
 31
0.0
  0
LINE
  5
E4DD
  8
3
 10
58.844464509134291
 20
94.659246178338663
 30
0.0
 11
58.851477744871339
 21
94.655739560470181
 31
0.0
  0
LINE
  5
E4DE
  8
3
 10
58.833944655528768
 20
94.659246178338663
 30
0.0
 11
58.844464509134291
 21
94.659246178338663
 31
0.0
  0
LINE
  5
E4DF
  8
3
 10
58.935636573715762
 20
94.834577071764443
 30
0.0
 11
58.90057039503057
 21
94.834577071764443
 31
0.0
  0
LINE
  5
E4E0
  8
3
 10
58.974209370269392
 20
94.834577071764443
 30
0.0
 11
58.935636573715762
 21
94.834577071764443
 31
0.0
  0
LINE
  5
E4E1
  8
3
 10
59.00927554895452
 20
94.834577071764443
 30
0.0
 11
58.974209370269392
 21
94.834577071764443
 31
0.0
  0
LINE
  5
E4E2
  8
3
 10
59.044341727639697
 20
94.831070453895904
 30
0.0
 11
59.00927554895452
 21
94.834577071764443
 31
0.0
  0
LINE
  5
E4E3
  8
3
 10
59.082914524193342
 20
94.831070453895904
 30
0.0
 11
59.044341727639697
 21
94.831070453895904
 31
0.0
  0
LINE
  5
E4E4
  8
3
 10
59.117980702878498
 20
94.831070453895904
 30
0.0
 11
59.082914524193342
 21
94.831070453895904
 31
0.0
  0
LINE
  5
E4E5
  8
3
 10
59.153046881563647
 20
94.831070453895904
 30
0.0
 11
59.117980702878498
 21
94.831070453895904
 31
0.0
  0
LINE
  5
E4E6
  8
3
 10
59.191619678117313
 20
94.834577071764443
 30
0.0
 11
59.153046881563647
 21
94.831070453895904
 31
0.0
  0
LINE
  5
E4E7
  8
3
 10
58.90057039503057
 20
94.834577071764443
 30
0.0
 11
58.861997598476933
 21
94.838083689632981
 31
0.0
  0
LINE
  5
E4E8
  8
3
 10
59.163566735169212
 20
94.413782927542684
 30
0.0
 11
59.18811306024881
 21
94.382223366725995
 31
0.0
  0
LINE
  5
E4E9
  8
3
 10
59.139020410089593
 20
94.445342488359302
 30
0.0
 11
59.163566735169212
 21
94.413782927542684
 31
0.0
  0
LINE
  5
E4EA
  8
3
 10
59.114474085009988
 20
94.473395431307424
 30
0.0
 11
59.139020410089593
 21
94.445342488359302
 31
0.0
  0
LINE
  5
E4EB
  8
3
 10
59.061874816982247
 20
94.529501317203653
 30
0.0
 11
59.08992775993039
 21
94.501448374255574
 31
0.0
  0
LINE
  5
E4EC
  8
3
 10
59.030315256165608
 20
94.554047642283237
 30
0.0
 11
59.061874816982247
 21
94.529501317203653
 31
0.0
  0
LINE
  5
E4ED
  8
3
 10
59.08992775993039
 20
94.501448374255574
 30
0.0
 11
59.114474085009988
 21
94.473395431307424
 31
0.0
  0
LINE
  5
E4EE
  8
3
 10
58.970702752400861
 20
94.599633674573965
 30
0.0
 11
59.002262313217472
 21
94.578593967362849
 31
0.0
  0
LINE
  5
E4EF
  8
3
 10
58.942649809452718
 20
94.620673381785082
 30
0.0
 11
58.970702752400861
 21
94.599633674573965
 31
0.0
  0
LINE
  5
E4F0
  8
3
 10
58.935636573715762
 20
94.624179999653506
 30
0.0
 11
58.942649809452718
 21
94.620673381785082
 31
0.0
  0
LINE
  5
E4F1
  8
3
 10
58.935636573715762
 20
94.627686617522045
 30
0.0
 11
58.935636573715762
 21
94.624179999653506
 31
0.0
  0
LINE
  5
E4F2
  8
3
 10
58.932129955847181
 20
94.627686617522045
 30
0.0
 11
58.935636573715762
 21
94.627686617522045
 31
0.0
  0
LINE
  5
E4F3
  8
3
 10
58.928623337978713
 20
94.631193235390583
 30
0.0
 11
58.932129955847181
 21
94.627686617522045
 31
0.0
  0
LINE
  5
E4F4
  8
3
 10
58.925116720110168
 20
94.631193235390583
 30
0.0
 11
58.928623337978713
 21
94.631193235390583
 31
0.0
  0
LINE
  5
E4F5
  8
3
 10
58.921610102241708
 20
94.631193235390583
 30
0.0
 11
58.925116720110168
 21
94.631193235390583
 31
0.0
  0
LINE
  5
E4F6
  8
3
 10
58.918103484373141
 20
94.631193235390583
 30
0.0
 11
58.921610102241708
 21
94.631193235390583
 31
0.0
  0
LINE
  5
E4F7
  8
3
 10
58.91459686650461
 20
94.631193235390583
 30
0.0
 11
58.918103484373141
 21
94.631193235390583
 31
0.0
  0
LINE
  5
E4F8
  8
3
 10
58.911090248636071
 20
94.634699853259136
 30
0.0
 11
58.91459686650461
 21
94.631193235390583
 31
0.0
  0
LINE
  5
E4F9
  8
3
 10
58.907583630767618
 20
94.634699853259136
 30
0.0
 11
58.911090248636071
 21
94.634699853259136
 31
0.0
  0
LINE
  5
E4FA
  8
3
 10
58.90407701289908
 20
94.634699853259136
 30
0.0
 11
58.907583630767618
 21
94.634699853259136
 31
0.0
  0
LINE
  5
E4FB
  8
3
 10
58.90057039503057
 20
94.634699853259136
 30
0.0
 11
58.90407701289908
 21
94.634699853259136
 31
0.0
  0
LINE
  5
E4FC
  8
3
 10
58.897063777162032
 20
94.634699853259136
 30
0.0
 11
58.90057039503057
 21
94.634699853259136
 31
0.0
  0
LINE
  5
E4FD
  8
3
 10
58.89355715929355
 20
94.634699853259136
 30
0.0
 11
58.897063777162032
 21
94.634699853259136
 31
0.0
  0
LINE
  5
E4FE
  8
3
 10
58.876024069950972
 20
94.645219706864623
 30
0.0
 11
58.89355715929355
 21
94.634699853259136
 31
0.0
  0
LINE
  5
E4FF
  8
3
 10
58.861997598476933
 20
94.652232942601643
 30
0.0
 11
58.869010834213981
 21
94.648726324733161
 31
0.0
  0
LINE
  5
E500
  8
3
 10
58.869010834213981
 20
94.648726324733161
 30
0.0
 11
58.876024069950972
 21
94.645219706864623
 31
0.0
  0
LINE
  5
E501
  8
3
 10
59.002262313217472
 20
94.578593967362849
 30
0.0
 11
59.030315256165608
 21
94.554047642283237
 31
0.0
  0
LINE
  5
E502
  8
3
 10
58.07651519592951
 20
93.786098329078413
 30
0.0
 11
58.111581374614673
 21
93.782591711209918
 31
0.0
  0
LINE
  5
E503
  8
3
 10
58.118594610351721
 20
93.884283629396862
 30
0.0
 11
58.07651519592951
 21
93.880777011528323
 31
0.0
  0
LINE
  5
E504
  8
3
 10
58.094048285272102
 20
94.483915284912939
 30
0.0
 11
58.115087992483183
 21
94.487421902781421
 31
0.0
  0
LINE
  5
E505
  8
3
 10
58.083528431666537
 20
94.480408667044443
 30
0.0
 11
58.094048285272102
 21
94.483915284912939
 31
0.0
  0
LINE
  5
E506
  8
3
 10
58.115087992483183
 20
94.487421902781421
 30
0.0
 11
58.171193878379427
 21
94.550541024414784
 31
0.0
  0
LINE
  5
E507
  8
3
 10
58.111581374614673
 20
93.782591711209918
 30
0.0
 11
58.146647553299829
 21
93.779085093341379
 31
0.0
  0
LINE
  5
E508
  8
3
 10
58.16418064264235
 20
93.891296865133882
 30
0.0
 11
58.118594610351721
 21
93.884283629396862
 31
0.0
  0
LINE
  5
E509
  8
3
 10
58.044955635112842
 20
94.476902049175905
 30
0.0
 11
58.058982106586939
 21
94.476902049175905
 31
0.0
  0
LINE
  5
E50A
  8
3
 10
58.034435781507312
 20
94.476902049175905
 30
0.0
 11
58.044955635112842
 21
94.476902049175905
 31
0.0
  0
LINE
  5
E50B
  8
3
 10
58.058982106586939
 20
94.476902049175905
 30
0.0
 11
58.073008578060971
 21
94.480408667044443
 31
0.0
  0
LINE
  5
E50C
  8
3
 10
58.041449017244311
 20
93.786098329078413
 30
0.0
 11
58.07651519592951
 21
93.786098329078413
 31
0.0
  0
LINE
  5
E50D
  8
3
 10
58.07651519592951
 20
93.880777011528323
 30
0.0
 11
58.030929163638831
 21
93.880777011528323
 31
0.0
  0
LINE
  5
E50E
  8
3
 10
58.073008578060971
 20
94.480408667044443
 30
0.0
 11
58.083528431666537
 21
94.480408667044443
 31
0.0
  0
LINE
  5
E50F
  8
3
 10
58.599001258338227
 20
92.748139439997928
 30
0.0
 11
58.627054201286398
 21
92.800738708025619
 31
0.0
  0
LINE
  5
E510
  8
3
 10
58.567441697521609
 20
92.692033554101727
 30
0.0
 11
58.599001258338227
 21
92.748139439997928
 31
0.0
  0
LINE
  5
E511
  8
3
 10
58.560428461784603
 20
92.695540171970208
 30
0.0
 11
58.567441697521609
 21
92.692033554101727
 31
0.0
  0
LINE
  5
E512
  8
3
 10
58.556921843916079
 20
92.695540171970208
 30
0.0
 11
58.560428461784603
 21
92.695540171970208
 31
0.0
  0
LINE
  5
E513
  8
3
 10
58.553415226047548
 20
92.695540171970208
 30
0.0
 11
58.556921843916079
 21
92.695540171970208
 31
0.0
  0
LINE
  5
E514
  8
3
 10
58.549908608179059
 20
92.695540171970208
 30
0.0
 11
58.553415226047548
 21
92.695540171970208
 31
0.0
  0
LINE
  5
E515
  8
3
 10
58.546401990310557
 20
92.695540171970208
 30
0.0
 11
58.549908608179059
 21
92.695540171970208
 31
0.0
  0
LINE
  5
E516
  8
3
 10
58.542895372441961
 20
92.695540171970208
 30
0.0
 11
58.546401990310557
 21
92.695540171970208
 31
0.0
  0
LINE
  5
E517
  8
3
 10
58.648093908497422
 20
92.86035121179043
 30
0.0
 11
58.662120379971519
 21
92.919963715555184
 31
0.0
  0
LINE
  5
E518
  8
3
 10
58.627054201286398
 20
92.800738708025619
 30
0.0
 11
58.648093908497422
 21
92.86035121179043
 31
0.0
  0
LINE
  5
E519
  8
3
 10
59.030315256165608
 20
92.281759263485455
 30
0.0
 11
58.98823584174346
 21
92.236173231194684
 31
0.0
  0
LINE
  5
E51A
  8
3
 10
59.170579970906232
 20
92.488649717727796
 30
0.0
 11
59.139020410089593
 21
92.432543831831595
 31
0.0
  0
LINE
  5
E51B
  8
3
 10
59.068888052719267
 20
92.327345295776126
 30
0.0
 11
59.030315256165608
 21
92.281759263485455
 31
0.0
  0
LINE
  5
E51C
  8
3
 10
59.103954231404423
 20
92.379944563803861
 30
0.0
 11
59.068888052719267
 21
92.327345295776126
 31
0.0
  0
LINE
  5
E51D
  8
3
 10
59.139020410089593
 20
92.432543831831595
 30
0.0
 11
59.103954231404423
 21
92.379944563803861
 31
0.0
  0
LINE
  5
E51E
  8
3
 10
59.219672621065428
 20
92.607874725257318
 30
0.0
 11
59.195126295985851
 21
92.548262221492564
 31
0.0
  0
LINE
  5
E51F
  8
3
 10
59.195126295985851
 20
92.548262221492564
 30
0.0
 11
59.170579970906232
 21
92.488649717727796
 31
0.0
  0
LINE
  5
E520
  8
3
 10
58.98823584174346
 20
92.236173231194684
 30
0.0
 11
58.942649809452718
 21
92.194093816772565
 31
0.0
  0
LINE
  5
E521
  8
3
 10
58.669133615708553
 20
92.983082837188476
 30
0.0
 11
58.672640233577113
 21
93.046201958821698
 31
0.0
  0
LINE
  5
E522
  8
3
 10
58.672640233577113
 20
93.112827698323542
 30
0.0
 11
58.672640233577113
 21
93.179453437825316
 31
0.0
  0
LINE
  5
E523
  8
3
 10
58.672640233577113
 20
93.046201958821698
 30
0.0
 11
58.672640233577113
 21
93.112827698323542
 31
0.0
  0
LINE
  5
E524
  8
3
 10
58.662120379971519
 20
92.919963715555184
 30
0.0
 11
58.669133615708553
 21
92.983082837188476
 31
0.0
  0
LINE
  5
E525
  8
3
 10
58.00988945642775
 20
94.476902049175905
 30
0.0
 11
58.020409310033301
 21
94.476902049175905
 31
0.0
  0
LINE
  5
E526
  8
3
 10
57.999369602822178
 20
94.476902049175905
 30
0.0
 11
58.00988945642775
 21
94.476902049175905
 31
0.0
  0
LINE
  5
E527
  8
3
 10
57.981836513479607
 20
94.480408667044443
 30
0.0
 11
57.988849749216591
 21
94.480408667044443
 31
0.0
  0
LINE
  5
E528
  8
3
 10
57.97482327774253
 20
94.483915284912939
 30
0.0
 11
57.981836513479607
 21
94.480408667044443
 31
0.0
  0
LINE
  5
E529
  8
3
 10
57.967810042005567
 20
94.483915284912939
 30
0.0
 11
57.97482327774253
 21
94.483915284912939
 31
0.0
  0
LINE
  5
E52A
  8
3
 10
57.967810042005567
 20
94.487421902781421
 30
0.0
 11
57.967810042005567
 21
94.483915284912939
 31
0.0
  0
LINE
  5
E52B
  8
3
 10
57.988849749216591
 20
94.480408667044443
 30
0.0
 11
57.999369602822178
 21
94.476902049175905
 31
0.0
  0
LINE
  5
E52C
  8
3
 10
58.006382838559233
 20
93.786098329078413
 30
0.0
 11
58.041449017244311
 21
93.786098329078413
 31
0.0
  0
LINE
  5
E52D
  8
3
 10
58.030929163638831
 20
93.880777011528323
 30
0.0
 11
57.988849749216591
 21
93.880777011528323
 31
0.0
  0
LINE
  5
E52E
  8
3
 10
58.020409310033301
 20
94.476902049175905
 30
0.0
 11
58.034435781507312
 21
94.476902049175905
 31
0.0
  0
LINE
  5
E52F
  8
3
 10
58.304445357383003
 20
91.948630565976487
 30
0.0
 11
58.206260057064547
 21
91.948630565976487
 31
0.0
  0
LINE
  5
E530
  8
3
 10
58.588481404732761
 20
91.990709980398663
 30
0.0
 11
58.497309340151332
 21
91.969670273187603
 31
0.0
  0
LINE
  5
E531
  8
3
 10
58.847971127002829
 20
92.120454841533729
 30
0.0
 11
58.763812298158513
 21
92.064348955637499
 31
0.0
  0
LINE
  5
E532
  8
3
 10
58.763812298158513
 20
92.064348955637499
 30
0.0
 11
58.679653469314097
 21
92.022269541215337
 31
0.0
  0
LINE
  5
E533
  8
3
 10
58.679653469314097
 20
92.022269541215337
 30
0.0
 11
58.588481404732761
 21
91.990709980398663
 31
0.0
  0
LINE
  5
E534
  8
3
 10
58.497309340151332
 20
91.969670273187603
 30
0.0
 11
58.399124039832941
 21
91.955643801713563
 31
0.0
  0
LINE
  5
E535
  8
3
 10
58.399124039832941
 20
91.955643801713563
 30
0.0
 11
58.304445357383003
 21
91.948630565976487
 31
0.0
  0
LINE
  5
E536
  8
3
 10
58.206260057064547
 20
91.948630565976487
 30
0.0
 11
58.104568138877617
 21
91.948630565976487
 31
0.0
  0
LINE
  5
E537
  8
3
 10
58.104568138877617
 20
91.948630565976487
 30
0.0
 11
58.006382838559233
 21
91.948630565976487
 31
0.0
  0
LINE
  5
E538
  8
3
 10
57.617148255154042
 20
93.638820378600826
 30
0.0
 11
57.655721051707673
 21
93.663366703680367
 31
0.0
  0
LINE
  5
E539
  8
3
 10
57.648707815970681
 20
93.996495401189335
 30
0.0
 11
57.620654873022602
 21
94.017535108400466
 31
0.0
  0
LINE
  5
E53A
  8
3
 10
57.550522515652233
 20
93.586221110573035
 30
0.0
 11
57.582082076468822
 21
93.614274053521171
 31
0.0
  0
LINE
  5
E53B
  8
3
 10
57.582082076468822
 20
93.614274053521171
 30
0.0
 11
57.617148255154042
 21
93.638820378600826
 31
0.0
  0
LINE
  5
E53C
  8
3
 10
57.620654873022602
 20
94.017535108400466
 30
0.0
 11
57.592601930074437
 21
94.038574815611526
 31
0.0
  0
LINE
  5
E53D
  8
3
 10
57.51896295483558
 20
93.554661549756418
 30
0.0
 11
57.550522515652233
 21
93.586221110573035
 31
0.0
  0
LINE
  5
E53E
  8
3
 10
57.490910011887479
 20
93.523101988939786
 30
0.0
 11
57.51896295483558
 21
93.554661549756418
 31
0.0
  0
LINE
  5
E53F
  8
3
 10
57.466363686807853
 20
93.488035810254644
 30
0.0
 11
57.490910011887479
 21
93.523101988939786
 31
0.0
  0
LINE
  5
E540
  8
3
 10
57.862611505950071
 20
93.758045386130334
 30
0.0
 11
57.908197538240813
 21
93.768565239735835
 31
0.0
  0
LINE
  5
E541
  8
3
 10
57.817025473659442
 20
93.744018914656294
 30
0.0
 11
57.862611505950071
 21
93.758045386130334
 31
0.0
  0
LINE
  5
E542
  8
3
 10
57.859104888081532
 20
93.901816718739454
 30
0.0
 11
57.817025473659442
 21
93.912336572344984
 31
0.0
  0
LINE
  5
E543
  8
3
 10
57.901184302503793
 20
93.891296865133882
 30
0.0
 11
57.859104888081532
 21
93.901816718739454
 31
0.0
  0
LINE
  5
E544
  8
3
 10
57.732866644814997
 20
93.708952735971081
 30
0.0
 11
57.774946059237237
 21
93.726485825313674
 31
0.0
  0
LINE
  5
E545
  8
3
 10
57.690787230392829
 20
93.687913028760036
 30
0.0
 11
57.732866644814997
 21
93.708952735971081
 31
0.0
  0
LINE
  5
E546
  8
3
 10
57.655721051707673
 20
93.663366703680367
 30
0.0
 11
57.690787230392829
 21
93.687913028760036
 31
0.0
  0
LINE
  5
E547
  8
3
 10
57.67676075891881
 20
93.978962311846772
 30
0.0
 11
57.648707815970681
 21
93.996495401189335
 31
0.0
  0
LINE
  5
E548
  8
3
 10
57.708320319735442
 20
93.961429222504194
 30
0.0
 11
57.67676075891881
 21
93.978962311846772
 31
0.0
  0
LINE
  5
E549
  8
3
 10
57.739879880552017
 20
93.943896133161616
 30
0.0
 11
57.708320319735442
 21
93.961429222504194
 31
0.0
  0
LINE
  5
E54A
  8
3
 10
57.774946059237237
 20
93.726485825313674
 30
0.0
 11
57.817025473659442
 21
93.744018914656294
 31
0.0
  0
LINE
  5
E54B
  8
3
 10
57.817025473659442
 20
93.912336572344984
 30
0.0
 11
57.739879880552017
 21
93.943896133161616
 31
0.0
  0
LINE
  5
E54C
  8
3
 10
57.497923247624499
 20
94.136760115929974
 30
0.0
 11
57.480390158281949
 21
94.164813058878039
 31
0.0
  0
LINE
  5
E54D
  8
3
 10
57.522469572704118
 20
94.112213790850319
 30
0.0
 11
57.497923247624499
 21
94.136760115929974
 31
0.0
  0
LINE
  5
E54E
  8
3
 10
57.543509279915178
 20
94.087667465770721
 30
0.0
 11
57.522469572704118
 21
94.112213790850319
 31
0.0
  0
LINE
  5
E54F
  8
3
 10
57.568055604994839
 20
94.063121140691123
 30
0.0
 11
57.543509279915178
 21
94.087667465770721
 31
0.0
  0
LINE
  5
E550
  8
3
 10
57.592601930074437
 20
94.038574815611526
 30
0.0
 11
57.568055604994839
 21
94.063121140691123
 31
0.0
  0
LINE
  5
E551
  8
3
 10
57.655721051707673
 20
94.876656486186675
 30
0.0
 11
57.62416149089109
 21
94.880163104055157
 31
0.0
  0
LINE
  5
E552
  8
3
 10
57.617148255154042
 20
94.792497657342267
 30
0.0
 11
57.648707815970681
 21
94.792497657342267
 31
0.0
  0
LINE
  5
E553
  8
3
 10
57.501429865493009
 20
94.904709429134755
 30
0.0
 11
57.473376922544873
 21
94.915229282740313
 31
0.0
  0
LINE
  5
E554
  8
3
 10
57.532989426309683
 20
94.894189575529197
 30
0.0
 11
57.501429865493009
 21
94.904709429134755
 31
0.0
  0
LINE
  5
E555
  8
3
 10
57.561042369257763
 20
94.887176339792177
 30
0.0
 11
57.532989426309683
 21
94.894189575529197
 31
0.0
  0
LINE
  5
E556
  8
3
 10
57.592601930074437
 20
94.883669721923638
 30
0.0
 11
57.561042369257763
 21
94.887176339792177
 31
0.0
  0
LINE
  5
E557
  8
3
 10
57.62416149089109
 20
94.880163104055157
 30
0.0
 11
57.592601930074437
 21
94.883669721923638
 31
0.0
  0
LINE
  5
E558
  8
3
 10
57.58909531220587
 20
94.792497657342267
 30
0.0
 11
57.617148255154042
 21
94.792497657342267
 31
0.0
  0
LINE
  5
E559
  8
3
 10
57.564548987126301
 20
94.792497657342267
 30
0.0
 11
57.58909531220587
 21
94.792497657342267
 31
0.0
  0
LINE
  5
E55A
  8
3
 10
57.543509279915178
 20
94.792497657342267
 30
0.0
 11
57.564548987126301
 21
94.792497657342267
 31
0.0
  0
LINE
  5
E55B
  8
3
 10
57.522469572704118
 20
94.792497657342267
 30
0.0
 11
57.543509279915178
 21
94.792497657342267
 31
0.0
  0
LINE
  5
E55C
  8
3
 10
57.501429865493009
 20
94.792497657342267
 30
0.0
 11
57.522469572704118
 21
94.792497657342267
 31
0.0
  0
LINE
  5
E55D
  8
3
 10
57.480390158281949
 20
94.792497657342267
 30
0.0
 11
57.501429865493009
 21
94.792497657342267
 31
0.0
  0
LINE
  5
E55E
  8
3
 10
57.862845714808522
 20
94.861435118883264
 30
0.0
 11
57.820532091527859
 21
94.86613663258106
 31
0.0
  0
LINE
  5
E55F
  8
3
 10
57.690787230392829
 20
94.873149868318137
 30
0.0
 11
57.655721051707673
 21
94.876656486186675
 31
0.0
  0
LINE
  5
E560
  8
3
 10
57.722346791209482
 20
94.873149868318137
 30
0.0
 11
57.690787230392829
 21
94.873149868318137
 31
0.0
  0
LINE
  5
E561
  8
3
 10
57.753906352026092
 20
94.869643250449599
 30
0.0
 11
57.722346791209482
 21
94.873149868318137
 31
0.0
  0
LINE
  5
E562
  8
3
 10
57.788972530711277
 20
94.869643250449599
 30
0.0
 11
57.753906352026092
 21
94.869643250449599
 31
0.0
  0
LINE
  5
E563
  8
3
 10
57.732866644814997
 20
94.792497657342267
 30
0.0
 11
57.788972530711277
 21
94.796004275210805
 31
0.0
  0
LINE
  5
E564
  8
3
 10
57.687280612524312
 20
94.792497657342267
 30
0.0
 11
57.732866644814997
 21
94.792497657342267
 31
0.0
  0
LINE
  5
E565
  8
3
 10
57.648707815970681
 20
94.792497657342267
 30
0.0
 11
57.687280612524312
 21
94.792497657342267
 31
0.0
  0
LINE
  5
E566
  8
3
 10
57.820532091527859
 20
94.86613663258106
 30
0.0
 11
57.788972530711277
 21
94.869643250449599
 31
0.0
  0
LINE
  5
E567
  8
3
 10
57.711826937603938
 20
91.938110712370914
 30
0.0
 11
57.617148255154042
 21
91.927590858765356
 31
0.0
  0
LINE
  5
E568
  8
3
 10
57.908197538240813
 20
91.948630565976487
 30
0.0
 11
57.810012237922336
 21
91.945123948107948
 31
0.0
  0
LINE
  5
E569
  8
3
 10
57.810012237922336
 20
91.945123948107948
 30
0.0
 11
57.711826937603938
 21
91.938110712370914
 31
0.0
  0
LINE
  5
E56A
  8
3
 10
57.908197538240813
 20
93.768565239735835
 30
0.0
 11
58.006382838559233
 21
93.786098329078413
 31
0.0
  0
LINE
  5
E56B
  8
3
 10
58.006382838559233
 20
91.948630565976487
 30
0.0
 11
57.908197538240813
 21
91.948630565976487
 31
0.0
  0
LINE
  5
E56C
  8
3
 10
57.943263716925941
 20
93.887790247265343
 30
0.0
 11
57.901184302503793
 21
93.891296865133882
 31
0.0
  0
ARC
  5
E56D
  8
3
 10
57.855962219407843
 20
94.783253696760184
 30
0.0
 40
0.0784838663297868
 50
11.95483737982957
 51
84.968359139188976
  0
LINE
  5
E56E
  8
3
 10
57.788972530711277
 20
94.796004275210805
 30
0.0
 11
57.932743863320383
 21
94.799510893079287
 31
0.0
  0
LINE
  5
E56F
  8
3
 10
57.525976190572607
 20
91.906551151554311
 30
0.0
 11
57.354151915015372
 21
91.829405558446979
 31
0.0
  0
LINE
  5
E570
  8
3
 10
57.473376922544873
 20
94.915229282740313
 30
0.0
 11
57.420777654517167
 21
94.943282225688435
 31
0.0
  0
LINE
  5
E571
  8
3
 10
57.925730627583327
 20
94.936268989951358
 30
0.0
 11
57.925730627583327
 21
94.873149868318137
 31
0.0
  0
LINE
  5
E572
  8
3
 10
58.71121303013075
 20
94.887176339792177
 30
0.0
 11
58.707706412262212
 21
94.946788843556931
 31
0.0
  0
LINE
  5
E573
  8
3
 10
58.136127699694327
 20
94.894189575529197
 30
0.0
 11
58.132621081825761
 21
95.697205067419191
 31
0.0
  0
LINE
  5
E574
  8
3
 10
58.560428461784603
 20
95.672658742339578
 30
0.0
 11
58.560428461784603
 21
94.901202811266216
 31
0.0
  0
CIRCLE
  5
E575
  8
3
 10
59.155912214348177
 20
91.957492569627334
 30
0.0
 40
0.1406088258533523
  0
LINE
  5
E576
  8
3
 10
59.29331159630425
 20
93.740512296787756
 30
0.0
 11
58.683160087182607
 21
93.740512296787756
 31
0.0
  0
LINE
  5
E577
  8
3
 10
59.149540263695137
 20
93.603754199915684
 30
0.0
 11
59.268765271224709
 21
93.470502720912066
 31
0.0
  0
LINE
  5
E578
  8
3
 10
59.226685856802483
 20
94.834577071764443
 30
0.0
 11
59.191619678117313
 21
94.834577071764443
 31
0.0
  0
LINE
  5
E579
  8
3
 10
59.209152767459898
 20
94.350663805909335
 30
0.0
 11
59.226685856802483
 21
94.315597627224179
 31
0.0
  0
LINE
  5
E57A
  8
3
 10
59.223179238933959
 20
95.823443310685775
 30
0.0
 11
59.240712328276572
 21
95.774350660526522
 31
0.0
  0
LINE
  5
E57B
  8
3
 10
59.240712328276572
 20
92.67099384689061
 30
0.0
 11
59.219672621065428
 21
92.607874725257318
 31
0.0
  0
LINE
  5
E57C
  8
1
 10
62.761543743208478
 20
90.605130802917643
 30
0.0
 11
62.761543743208478
 21
85.007561533065143
 31
0.0
  0
LINE
  5
E57D
  8
0
 10
74.161543743208483
 20
85.775853837967915
 30
0.0
 11
74.161543743208483
 21
81.094603837967952
 31
0.0
  0
LINE
  5
E57E
  8
0
 10
73.054401743208473
 20
80.344603837967966
 30
0.0
 11
73.054401743208473
 21
85.775853837967915
 31
0.0
  0
ARC
  5
E57F
  8
0
 10
74.911543743208483
 20
84.913353837967918
 30
0.0
 40
0.75
 50
90.0
 51
180.0
  0
ARC
  5
E580
  8
0
 10
74.911543743208483
 20
81.094603837967952
 30
0.0
 40
0.75
 50
180.0
 51
270.0
  0
ARC
  5
E581
  8
0
 10
74.911543743208483
 20
91.338353837967915
 30
0.0
 40
0.75
 50
180.0
 51
270.0
  0
ARC
  5
E582
  8
0
 10
74.911543743208483
 20
94.538352837967963
 30
0.0
 40
0.75
 50
90.0
 51
180.0
  0
LINE
  5
E583
  8
0
 10
74.161543743208483
 20
95.400852837967932
 30
0.0
 11
74.161543743208483
 21
90.475853837967904
 31
0.0
  0
LINE
  5
E584
  8
0
 10
73.054401743208473
 20
90.475853837967904
 30
0.0
 11
73.054401743208473
 21
95.400852837967932
 31
0.0
  0
ARC
  5
E585
  8
0
 10
80.6115437432085
 20
84.913353837967918
 30
0.0
 40
0.75
 50
0.0
 51
90.0
  0
ARC
  5
E586
  8
0
 10
80.6115437432085
 20
81.094603837967952
 30
0.0
 40
0.75
 50
270.0
 51
0.0
  0
ARC
  5
E587
  8
0
 10
80.218685743208511
 20
89.725853837967918
 30
0.0
 40
0.75
 50
359.99999000000003
 51
90.0
  0
ARC
  5
E588
  8
0
 10
80.218685743208511
 20
86.525853837967929
 30
0.0
 40
0.75
 50
270.0
 51
0.0
  0
LINE
  5
E589
  8
0
 10
80.968685743208496
 20
89.688353837967895
 30
0.0
 11
80.968685743208496
 21
86.563353837967895
 31
0.0
  0
ARC
  5
E58A
  8
0
 10
80.6115437432085
 20
91.338353837967915
 30
0.0
 40
0.75
 50
270.0
 51
0.0
  0
ARC
  5
E58B
  8
0
 10
80.6115437432085
 20
94.538352837967963
 30
0.0
 40
0.75
 50
0.0
 51
90.0
  0
LINE
  5
E58C
  8
2
 10
74.586543743208495
 20
51.921271728817601
 30
0.0
 11
80.936543743208475
 21
51.921271728817601
 31
0.0
1001
GENIUS_GENOREF_13
1005
0
  0
LINE
  5
E58E
  8
0
 10
70.033884385660031
 20
60.421270728817603
 30
0.0
 11
77.761541743208483
 21
60.421270728817603
 31
0.0
  0
LINE
  5
E58F
  8
0
 10
74.161543743208483
 20
47.921271728817601
 30
0.0
 11
81.361543743208514
 21
47.921271728817537
 31
0.0
1001
GENIUS_GENOREF_13
1005
0
  0
ARC
  5
E590
  8
0
 10
77.761543743208478
 20
57.171270728817603
 30
0.0
 40
3.25
 50
359.99999999999602
 51
180.00000000001
  0
CIRCLE
  5
E591
  8
0
 10
77.761543743208478
 20
57.421270728817611
 30
0.0
 40
1.25
  0
LINE
  5
E592
  8
1
 10
58.300324832041298
 20
102.8446028379679
 30
0.0
 11
82.861543743208472
 21
102.844602837968
 31
0.0
  0
LINE
  5
E593
  8
0
 10
70.58904474320849
 20
100.10085283796791
 30
0.0
 11
80.218685743208482
 21
100.10085283796791
 31
0.0
  0
LINE
  5
E594
  8
0
 10
70.58904474320849
 20
105.0258528379679
 30
0.0
 11
80.218685743208482
 21
105.0258528379679
 31
0.0
  0
LINE
  5
E595
  8
0
 10
74.911543743208483
 20
100.2133528379679
 30
0.0
 11
80.611543743208486
 21
100.2133528379679
 31
0.0
  0
LINE
  5
E596
  8
0
 10
74.911543743208483
 20
104.91335283796791
 30
0.0
 11
80.611543743208486
 21
104.91335283796791
 31
0.0
  0
LINE
  5
E597
  8
0
 10
70.58904474320849
 20
109.81960183796789
 30
0.0
 11
80.218685743208482
 21
109.81960183796789
 31
0.0
  0
LINE
  5
E598
  8
0
 10
74.911543743208483
 20
110.3446018379679
 30
0.0
 11
80.611543743208486
 21
110.3446018379679
 31
0.0
  0
LINE
  5
E599
  8
2
 10
65.93654374320846
 20
51.921271728817601
 30
0.0
 11
59.58654374320848
 21
51.921271728817601
 31
0.0
1001
GENIUS_GENOREF_13
1005
0
  0
LINE
  5
E59A
  8
2
 10
59.58654374320848
 20
49.921271728817601
 30
0.0
 11
60.561543743208489
 21
49.921271728817601
 31
0.0
  0
LINE
  5
E59B
  8
0
 10
56.366679255863481
 20
53.359832008774127
 30
0.0
 11
68.908884385660031
 21
60.119827728817597
 31
0.0
  0
LINE
  5
E59C
  8
0
 10
54.861543743208472
 20
47.921271728817601
 30
0.0
 11
71.151543743208492
 21
47.921271728817601
 31
0.0
1001
GENIUS_GENOREF_13
1005
0
  0
LINE
  5
E59D
  8
0
 10
55.615826743208522
 20
110.3446018379679
 30
0.0
 11
73.054401743208473
 21
110.3446018379679
 31
0.0
  0
LINE
  5
E59E
  8
3
 10
59.345910864331977
 20
97.888841235241159
 30
0.0
 11
59.349417482200487
 21
97.240116929565829
 31
0.0
  0
LINE
  5
E59F
  8
3
 10
59.345910864331977
 20
97.888841235241159
 30
0.0
 11
59.345910864331977
 21
97.888841235241159
 31
0.0
  0
LINE
  5
E5A0
  8
3
 10
59.342404246463438
 20
97.941440503268851
 30
0.0
 11
59.342404246463438
 21
97.923907413926315
 31
0.0
  0
LINE
  5
E5A1
  8
3
 10
59.338897628594971
 20
97.958973592611471
 30
0.0
 11
59.342404246463438
 21
97.941440503268851
 31
0.0
  0
LINE
  5
E5A2
  8
3
 10
59.335391010726447
 20
97.973000064085568
 30
0.0
 11
59.338897628594971
 21
97.958973592611471
 31
0.0
  0
LINE
  5
E5A3
  8
3
 10
59.335391010726447
 20
97.990533153428103
 30
0.0
 11
59.335391010726447
 21
97.973000064085568
 31
0.0
  0
LINE
  5
E5A4
  8
3
 10
59.331884392857972
 20
98.008066242770724
 30
0.0
 11
59.335391010726447
 21
97.990533153428103
 31
0.0
  0
LINE
  5
E5A5
  8
3
 10
59.328377774989463
 20
98.025599332113245
 30
0.0
 11
59.331884392857972
 21
98.008066242770724
 31
0.0
  0
LINE
  5
E5A6
  8
3
 10
59.328377774989463
 20
98.043132421455823
 30
0.0
 11
59.328377774989463
 21
98.025599332113245
 31
0.0
  0
LINE
  5
E5A7
  8
3
 10
59.342404246463438
 20
97.923907413926315
 30
0.0
 11
59.345910864331977
 21
97.888841235241159
 31
0.0
  0
LINE
  5
E5A8
  8
3
 10
59.321364539252421
 20
98.081705218009461
 30
0.0
 11
59.324871157120917
 21
98.060665510798401
 31
0.0
  0
LINE
  5
E5A9
  8
3
 10
59.317857921383883
 20
98.099238307352039
 30
0.0
 11
59.321364539252421
 21
98.081705218009461
 31
0.0
  0
LINE
  5
E5AA
  8
3
 10
59.314351303515373
 20
98.116771396694631
 30
0.0
 11
59.317857921383883
 21
98.099238307352039
 31
0.0
  0
LINE
  5
E5AB
  8
3
 10
59.310844685646849
 20
98.134304486037195
 30
0.0
 11
59.314351303515373
 21
98.116771396694631
 31
0.0
  0
LINE
  5
E5AC
  8
3
 10
59.307338067778339
 20
98.151837575379787
 30
0.0
 11
59.310844685646849
 21
98.134304486037195
 31
0.0
  0
LINE
  5
E5AD
  8
3
 10
59.303831449909801
 20
98.169370664722351
 30
0.0
 11
59.307338067778339
 21
98.151837575379787
 31
0.0
  0
LINE
  5
E5AE
  8
3
 10
59.28980497843574
 20
98.190410371933467
 30
0.0
 11
59.303831449909801
 21
98.169370664722351
 31
0.0
  0
LINE
  5
E5AF
  8
3
 10
59.282791742698741
 20
98.200930225539025
 30
0.0
 11
59.28980497843574
 21
98.190410371933467
 31
0.0
  0
LINE
  5
E5B0
  8
3
 10
59.2757785069617
 20
98.211450079144583
 30
0.0
 11
59.282791742698741
 21
98.200930225539025
 31
0.0
  0
LINE
  5
E5B1
  8
3
 10
59.27227188909319
 20
98.221969932750085
 30
0.0
 11
59.2757785069617
 21
98.211450079144583
 31
0.0
  0
LINE
  5
E5B2
  8
3
 10
59.265258653356142
 20
98.232489786355643
 30
0.0
 11
59.27227188909319
 21
98.221969932750085
 31
0.0
  0
LINE
  5
E5B3
  8
3
 10
59.261752035487632
 20
98.246516257829754
 30
0.0
 11
59.265258653356142
 21
98.232489786355643
 31
0.0
  0
LINE
  5
E5B4
  8
3
 10
59.258245417619086
 20
98.257036111435241
 30
0.0
 11
59.261752035487632
 21
98.246516257829754
 31
0.0
  0
LINE
  5
E5B5
  8
3
 10
59.251232181882102
 20
98.267555965040799
 30
0.0
 11
59.258245417619086
 21
98.257036111435241
 31
0.0
  0
LINE
  5
E5B6
  8
3
 10
59.247725564013557
 20
98.278075818646357
 30
0.0
 11
59.251232181882102
 21
98.267555965040799
 31
0.0
  0
LINE
  5
E5B7
  8
3
 10
59.240712328276572
 20
98.288595672251873
 30
0.0
 11
59.247725564013557
 21
98.278075818646357
 31
0.0
  0
LINE
  5
E5B8
  8
3
 10
59.237205710407999
 20
98.302622143725955
 30
0.0
 11
59.240712328276572
 21
98.288595672251873
 31
0.0
  0
LINE
  5
E5B9
  8
3
 10
59.230192474670993
 20
98.313141997331513
 30
0.0
 11
59.237205710407999
 21
98.302622143725955
 31
0.0
  0
LINE
  5
E5BA
  8
3
 10
59.324871157120917
 20
98.060665510798401
 30
0.0
 11
59.328377774989463
 21
98.043132421455823
 31
0.0
  0
LINE
  5
E5BB
  8
3
 10
59.92133122195338
 20
96.524766884388796
 30
0.0
 11
59.802106214423873
 21
96.524766884388796
 31
0.0
  0
LINE
  5
E5BC
  8
3
 10
59.37747042514863
 20
96.521260266520244
 30
0.0
 11
59.233699092539489
 21
96.517753648651762
 31
0.0
  0
LINE
  5
E5BD
  8
3
 10
59.521241757757728
 20
96.521260266520244
 30
0.0
 11
59.37747042514863
 21
96.521260266520244
 31
0.0
  0
LINE
  5
E5BE
  8
3
 10
59.654493236761311
 20
96.521260266520244
 30
0.0
 11
59.521241757757728
 21
96.521260266520244
 31
0.0
  0
LINE
  5
E5BF
  8
3
 10
59.802106214423873
 20
96.524766884388796
 30
0.0
 11
59.654493236761311
 21
96.521260266520244
 31
0.0
  0
LINE
  5
E5C0
  8
3
 10
59.92133122195338
 20
96.524766884388796
 30
0.0
 11
59.92133122195338
 21
97.151524072112579
 31
0.0
  0
LINE
  5
E5C1
  8
3
 10
57.445323979596729
 20
98.162357428985388
 30
0.0
 11
57.466363686807853
 21
98.218463314881546
 31
0.0
  0
LINE
  5
E5C2
  8
3
 10
57.43129750812269
 20
96.924521321399482
 30
0.0
 11
57.571562222863349
 21
96.991147060901255
 31
0.0
  0
LINE
  5
E5C3
  8
3
 10
57.469870304676363
 20
97.282196343988062
 30
0.0
 11
57.459350451070797
 21
97.292716197593563
 31
0.0
  0
LINE
  5
E5C4
  8
3
 10
57.473376922544873
 20
96.195144804748324
 30
0.0
 11
57.452337215333841
 21
96.177611715405774
 31
0.0
  0
LINE
  5
E5C5
  8
3
 10
57.392724711569059
 20
97.61181842362852
 30
0.0
 11
57.389218093700542
 21
97.674937545261741
 31
0.0
  0
LINE
  5
E5C6
  8
3
 10
57.392724711569059
 20
97.797669170659788
 30
0.0
 11
57.39623132943759
 21
97.860788292293023
 31
0.0
  0
LINE
  5
E5C7
  8
3
 10
57.399737947306079
 20
97.923907413926315
 30
0.0
 11
57.40675118304307
 21
97.983519917691069
 31
0.0
  0
LINE
  5
E5C8
  8
3
 10
57.40675118304307
 20
97.983519917691069
 30
0.0
 11
57.417271036648657
 21
98.043132421455823
 31
0.0
  0
LINE
  5
E5C9
  8
3
 10
57.39623132943759
 20
97.860788292293023
 30
0.0
 11
57.399737947306079
 21
97.923907413926315
 31
0.0
  0
LINE
  5
E5CA
  8
3
 10
57.43129750812269
 20
98.102744925220577
 30
0.0
 11
57.445323979596729
 21
98.162357428985388
 31
0.0
  0
LINE
  5
E5CB
  8
3
 10
57.417271036648657
 20
98.043132421455823
 30
0.0
 11
57.43129750812269
 21
98.102744925220577
 31
0.0
  0
LINE
  5
E5CC
  8
3
 10
57.389218093700542
 20
97.734550049026495
 30
0.0
 11
57.392724711569059
 21
97.797669170659788
 31
0.0
  0
LINE
  5
E5CD
  8
3
 10
57.389218093700542
 20
97.674937545261741
 30
0.0
 11
57.389218093700542
 21
97.734550049026495
 31
0.0
  0
LINE
  5
E5CE
  8
3
 10
57.392724711569059
 20
96.121505829509545
 30
0.0
 11
57.392724711569059
 21
96.885948524845844
 31
0.0
  0
LINE
  5
E5CF
  8
3
 10
57.427790890254222
 20
96.921014703531014
 30
0.0
 11
57.43129750812269
 21
96.924521321399482
 31
0.0
  0
LINE
  5
E5D0
  8
3
 10
57.427790890254222
 20
96.917508085662476
 30
0.0
 11
57.427790890254222
 21
96.921014703531014
 31
0.0
  0
LINE
  5
E5D1
  8
3
 10
57.427790890254222
 20
96.914001467793923
 30
0.0
 11
57.427790890254222
 21
96.917508085662476
 31
0.0
  0
LINE
  5
E5D2
  8
3
 10
57.427790890254222
 20
96.910494849925385
 30
0.0
 11
57.427790890254222
 21
96.914001467793923
 31
0.0
  0
LINE
  5
E5D3
  8
3
 10
57.424284272385712
 20
96.910494849925385
 30
0.0
 11
57.427790890254222
 21
96.910494849925385
 31
0.0
  0
LINE
  5
E5D4
  8
3
 10
57.424284272385712
 20
96.906988232056904
 30
0.0
 11
57.424284272385712
 21
96.910494849925385
 31
0.0
  0
LINE
  5
E5D5
  8
3
 10
57.424284272385712
 20
96.903481614188422
 30
0.0
 11
57.424284272385712
 21
96.906988232056904
 31
0.0
  0
LINE
  5
E5D6
  8
3
 10
57.424284272385712
 20
96.899974996319884
 30
0.0
 11
57.424284272385712
 21
96.903481614188422
 31
0.0
  0
LINE
  5
E5D7
  8
3
 10
57.417271036648657
 20
96.899974996319884
 30
0.0
 11
57.424284272385712
 21
96.899974996319884
 31
0.0
  0
LINE
  5
E5D8
  8
3
 10
57.41376441878014
 20
96.899974996319884
 30
0.0
 11
57.417271036648657
 21
96.899974996319884
 31
0.0
  0
LINE
  5
E5D9
  8
3
 10
57.410257800911609
 20
96.896468378451345
 30
0.0
 11
57.41376441878014
 21
96.899974996319884
 31
0.0
  0
LINE
  5
E5DA
  8
3
 10
57.40675118304307
 20
96.896468378451345
 30
0.0
 11
57.410257800911609
 21
96.896468378451345
 31
0.0
  0
LINE
  5
E5DB
  8
3
 10
57.403244565174589
 20
96.892961760582864
 30
0.0
 11
57.40675118304307
 21
96.896468378451345
 31
0.0
  0
LINE
  5
E5DC
  8
3
 10
57.399737947306079
 20
96.892961760582864
 30
0.0
 11
57.403244565174589
 21
96.892961760582864
 31
0.0
  0
LINE
  5
E5DD
  8
3
 10
57.39623132943759
 20
96.892961760582864
 30
0.0
 11
57.399737947306079
 21
96.892961760582864
 31
0.0
  0
LINE
  5
E5DE
  8
3
 10
57.392724711569059
 20
96.889455142714382
 30
0.0
 11
57.39623132943759
 21
96.892961760582864
 31
0.0
  0
LINE
  5
E5DF
  8
3
 10
57.392724711569059
 20
96.885948524845844
 30
0.0
 11
57.392724711569059
 21
96.889455142714382
 31
0.0
  0
LINE
  5
E5E0
  8
3
 10
57.392724711569059
 20
97.548699301995157
 30
0.0
 11
57.392724711569059
 21
97.61181842362852
 31
0.0
  0
LINE
  5
E5E1
  8
3
 10
57.39623132943759
 20
97.485580180361922
 30
0.0
 11
57.392724711569059
 21
97.548699301995157
 31
0.0
  0
LINE
  5
E5E2
  8
3
 10
57.399737947306079
 20
97.422461058728629
 30
0.0
 11
57.39623132943759
 21
97.485580180361922
 31
0.0
  0
LINE
  5
E5E3
  8
3
 10
57.403244565174589
 20
97.397914733649031
 30
0.0
 11
57.399737947306079
 21
97.422461058728629
 31
0.0
  0
LINE
  5
E5E4
  8
3
 10
57.410257800911609
 20
97.383888262175006
 30
0.0
 11
57.403244565174589
 21
97.397914733649031
 31
0.0
  0
LINE
  5
E5E5
  8
3
 10
57.41376441878014
 20
97.369861790700952
 30
0.0
 11
57.410257800911609
 21
97.383888262175006
 31
0.0
  0
LINE
  5
E5E6
  8
3
 10
57.420777654517167
 20
97.355835319226856
 30
0.0
 11
57.41376441878014
 21
97.369861790700952
 31
0.0
  0
LINE
  5
E5E7
  8
3
 10
57.427790890254222
 20
97.341808847752773
 30
0.0
 11
57.420777654517167
 21
97.355835319226856
 31
0.0
  0
LINE
  5
E5E8
  8
3
 10
57.434804125991228
 20
97.327782376278719
 30
0.0
 11
57.427790890254222
 21
97.341808847752773
 31
0.0
  0
LINE
  5
E5E9
  8
3
 10
57.441817361728262
 20
97.317262522673204
 30
0.0
 11
57.434804125991228
 21
97.327782376278719
 31
0.0
  0
LINE
  5
E5EA
  8
3
 10
57.448830597465268
 20
97.303236051199136
 30
0.0
 11
57.441817361728262
 21
97.317262522673204
 31
0.0
  0
LINE
  5
E5EB
  8
3
 10
57.459350451070797
 20
97.292716197593563
 30
0.0
 11
57.448830597465268
 21
97.303236051199136
 31
0.0
  0
LINE
  5
E5EC
  8
3
 10
57.43129750812269
 20
96.160078626063182
 30
0.0
 11
57.392724711569059
 21
96.121505829509545
 31
0.0
  0
LINE
  5
E5ED
  8
3
 10
57.452337215333841
 20
96.177611715405774
 30
0.0
 11
57.43129750812269
 21
96.160078626063182
 31
0.0
  0
LINE
  5
E5EE
  8
3
 10
58.60601449407531
 20
98.085211835877985
 30
0.0
 11
58.602507876206751
 21
97.317262522673204
 31
0.0
  0
LINE
  5
E5EF
  8
3
 10
58.185220349853488
 20
97.594285334285885
 30
0.0
 11
58.185220349853488
 21
97.646884602313676
 31
0.0
  0
LINE
  5
E5F0
  8
3
 10
58.728746119473328
 20
97.576752244943293
 30
0.0
 11
58.732252737341838
 21
97.632858130839509
 31
0.0
  0
LINE
  5
E5F1
  8
3
 10
57.999369602822178
 20
97.664417691656183
 30
0.0
 11
57.999369602822178
 21
97.59077871641739
 31
0.0
  0
LINE
  5
E5F2
  8
3
 10
57.925730627583327
 20
98.723416287947785
 30
0.0
 11
57.978329895611097
 21
98.751469230895864
 31
0.0
  0
LINE
  5
E5F3
  8
3
 10
58.188726967721998
 20
97.804682406396807
 30
0.0
 11
58.188726967721998
 21
97.857281674424485
 31
0.0
  0
LINE
  5
E5F4
  8
3
 10
58.735759355210313
 20
97.801175788528326
 30
0.0
 11
58.728746119473328
 21
97.857281674424485
 31
0.0
  0
LINE
  5
E5F5
  8
3
 10
58.188726967721998
 20
97.857281674424485
 30
0.0
 11
58.188726967721998
 21
97.909880942452205
 31
0.0
  0
LINE
  5
E5F6
  8
3
 10
58.728746119473328
 20
97.857281674424485
 30
0.0
 11
58.721732883736301
 21
97.909880942452205
 31
0.0
  0
LINE
  5
E5F7
  8
3
 10
58.188726967721998
 20
97.958973592611471
 30
0.0
 11
58.188726967721998
 21
98.011572860639205
 31
0.0
  0
LINE
  5
E5F8
  8
3
 10
58.707706412262212
 20
97.958973592611471
 30
0.0
 11
58.686666705051202
 21
98.008066242770724
 31
0.0
  0
LINE
  5
E5F9
  8
3
 10
58.188726967721998
 20
97.909880942452205
 30
0.0
 11
58.188726967721998
 21
97.958973592611471
 31
0.0
  0
LINE
  5
E5FA
  8
3
 10
58.721732883736301
 20
97.909880942452205
 30
0.0
 11
58.707706412262212
 21
97.958973592611471
 31
0.0
  0
LINE
  5
E5FB
  8
3
 10
58.062488724455449
 20
98.008066242770724
 30
0.0
 11
58.037942399375851
 21
97.944947121137375
 31
0.0
  0
LINE
  5
E5FC
  8
3
 10
59.212659385328458
 20
98.344701558148131
 30
0.0
 11
59.216166003196911
 21
98.334181704542644
 31
0.0
  0
LINE
  5
E5FD
  8
3
 10
59.198632913854361
 20
98.372754501096267
 30
0.0
 11
59.212659385328458
 21
98.344701558148131
 31
0.0
  0
LINE
  5
E5FE
  8
3
 10
59.18811306024881
 20
98.383274354701825
 30
0.0
 11
59.198632913854361
 21
98.372754501096267
 31
0.0
  0
LINE
  5
E5FF
  8
3
 10
59.18109982451179
 20
98.397300826175865
 30
0.0
 11
59.18811306024881
 21
98.383274354701825
 31
0.0
  0
LINE
  5
E600
  8
3
 10
59.174086588774742
 20
98.407820679781366
 30
0.0
 11
59.18109982451179
 21
98.397300826175865
 31
0.0
  0
LINE
  5
E601
  8
3
 10
59.167073353037694
 20
98.418340533386996
 30
0.0
 11
59.174086588774742
 21
98.407820679781366
 31
0.0
  0
LINE
  5
E602
  8
3
 10
59.160060117300667
 20
98.428860386992483
 30
0.0
 11
59.167073353037694
 21
98.418340533386996
 31
0.0
  0
LINE
  5
E603
  8
3
 10
59.149540263695137
 20
98.435873622729545
 30
0.0
 11
59.160060117300667
 21
98.428860386992483
 31
0.0
  0
LINE
  5
E604
  8
3
 10
59.142527027958117
 20
98.446393476335061
 30
0.0
 11
59.149540263695137
 21
98.435873622729545
 31
0.0
  0
LINE
  5
E605
  8
3
 10
59.135513792221097
 20
98.456913329940676
 30
0.0
 11
59.142527027958117
 21
98.446393476335061
 31
0.0
  0
LINE
  5
E606
  8
3
 10
59.124993938615567
 20
98.467433183546191
 30
0.0
 11
59.135513792221097
 21
98.456913329940676
 31
0.0
  0
LINE
  5
E607
  8
3
 10
59.117980702878498
 20
98.477953037151678
 30
0.0
 11
59.124993938615567
 21
98.467433183546191
 31
0.0
  0
LINE
  5
E608
  8
3
 10
59.110967467141471
 20
98.484966272888755
 30
0.0
 11
59.117980702878498
 21
98.477953037151678
 31
0.0
  0
LINE
  5
E609
  8
3
 10
59.103954231404423
 20
98.495486126494313
 30
0.0
 11
59.110967467141471
 21
98.484966272888755
 31
0.0
  0
LINE
  5
E60A
  8
3
 10
59.09694099566746
 20
98.506005980099744
 30
0.0
 11
59.103954231404423
 21
98.495486126494313
 31
0.0
  0
LINE
  5
E60B
  8
3
 10
59.08992775993039
 20
98.516525833705373
 30
0.0
 11
59.09694099566746
 21
98.506005980099744
 31
0.0
  0
LINE
  5
E60C
  8
3
 10
58.97771598813793
 20
98.618217751892303
 30
0.0
 11
59.08992775993039
 21
98.516525833705373
 31
0.0
  0
LINE
  5
E60D
  8
3
 10
58.953169663058269
 20
98.632244223366357
 30
0.0
 11
58.97771598813793
 21
98.618217751892303
 31
0.0
  0
LINE
  5
E60E
  8
3
 10
58.942649809452718
 20
98.635750841234895
 30
0.0
 11
58.953169663058269
 21
98.632244223366357
 31
0.0
  0
LINE
  5
E60F
  8
3
 10
58.935636573715762
 20
98.642764076971972
 30
0.0
 11
58.942649809452718
 21
98.635750841234895
 31
0.0
  0
LINE
  5
E610
  8
3
 10
58.925116720110168
 20
98.649777312708963
 30
0.0
 11
58.935636573715762
 21
98.642764076971972
 31
0.0
  0
LINE
  5
E611
  8
3
 10
58.91459686650461
 20
98.656790548445997
 30
0.0
 11
58.925116720110168
 21
98.649777312708963
 31
0.0
  0
LINE
  5
E612
  8
3
 10
58.907583630767618
 20
98.660297166314479
 30
0.0
 11
58.91459686650461
 21
98.656790548445997
 31
0.0
  0
LINE
  5
E613
  8
3
 10
58.897063777162032
 20
98.667310402051498
 30
0.0
 11
58.907583630767618
 21
98.660297166314479
 31
0.0
  0
LINE
  5
E614
  8
3
 10
58.886543923556466
 20
98.674323637788532
 30
0.0
 11
58.897063777162032
 21
98.667310402051498
 31
0.0
  0
LINE
  5
E615
  8
3
 10
58.876024069950972
 20
98.681336873525524
 30
0.0
 11
58.886543923556466
 21
98.674323637788532
 31
0.0
  0
LINE
  5
E616
  8
3
 10
58.869010834213981
 20
98.688350109262615
 30
0.0
 11
58.876024069950972
 21
98.681336873525524
 31
0.0
  0
LINE
  5
E617
  8
3
 10
58.858490980608373
 20
98.695363344999691
 30
0.0
 11
58.869010834213981
 21
98.688350109262615
 31
0.0
  0
LINE
  5
E618
  8
3
 10
58.82693141979172
 20
98.716403052210765
 30
0.0
 11
58.837451273397299
 21
98.709389816473731
 31
0.0
  0
LINE
  5
E619
  8
3
 10
58.816411566186218
 20
98.723416287947785
 30
0.0
 11
58.82693141979172
 21
98.716403052210765
 31
0.0
  0
LINE
  5
E61A
  8
3
 10
58.707706412262212
 20
98.769002320238414
 30
0.0
 11
58.816411566186218
 21
98.723416287947785
 31
0.0
  0
LINE
  5
E61B
  8
3
 10
58.651600526365961
 20
98.786535409581006
 30
0.0
 11
58.707706412262212
 21
98.769002320238414
 31
0.0
  0
LINE
  5
E61C
  8
3
 10
58.599001258338227
 20
98.80056188105506
 30
0.0
 11
58.651600526365961
 21
98.786535409581006
 31
0.0
  0
LINE
  5
E61D
  8
3
 10
58.53938875457348
 20
98.814588352529142
 30
0.0
 11
58.599001258338227
 21
98.80056188105506
 31
0.0
  0
LINE
  5
E61E
  8
3
 10
58.483282868677229
 20
98.821601588266162
 30
0.0
 11
58.53938875457348
 21
98.814588352529142
 31
0.0
  0
LINE
  5
E61F
  8
3
 10
58.42717698278107
 20
98.828614824003239
 30
0.0
 11
58.483282868677229
 21
98.821601588266162
 31
0.0
  0
LINE
  5
E620
  8
3
 10
58.371071096884812
 20
98.828614824003239
 30
0.0
 11
58.42717698278107
 21
98.828614824003239
 31
0.0
  0
LINE
  5
E621
  8
3
 10
58.311458593120051
 20
98.828614824003239
 30
0.0
 11
58.371071096884812
 21
98.828614824003239
 31
0.0
  0
LINE
  5
E622
  8
3
 10
58.255352707223778
 20
98.825108206134701
 30
0.0
 11
58.311458593120051
 21
98.828614824003239
 31
0.0
  0
LINE
  5
E623
  8
3
 10
58.199246821327542
 20
98.814588352529142
 30
0.0
 11
58.255352707223778
 21
98.825108206134701
 31
0.0
  0
LINE
  5
E624
  8
3
 10
58.139634317562717
 20
98.804068498923655
 30
0.0
 11
58.199246821327542
 21
98.814588352529142
 31
0.0
  0
LINE
  5
E625
  8
3
 10
58.837451273397299
 20
98.709389816473731
 30
0.0
 11
58.847971127002829
 21
98.702376580736654
 31
0.0
  0
LINE
  5
E626
  8
3
 10
58.087035049535046
 20
98.790042027449545
 30
0.0
 11
58.139634317562717
 21
98.804068498923655
 31
0.0
  0
LINE
  5
E627
  8
3
 10
58.030929163638831
 20
98.772508938106967
 30
0.0
 11
58.087035049535046
 21
98.790042027449545
 31
0.0
  0
LINE
  5
E628
  8
3
 10
58.847971127002829
 20
98.702376580736654
 30
0.0
 11
58.858490980608373
 21
98.695363344999691
 31
0.0
  0
LINE
  5
E629
  8
3
 10
58.129114463957251
 20
98.116771396694631
 30
0.0
 11
58.125607846088741
 21
98.109758160957654
 31
0.0
  0
LINE
  5
E62A
  8
3
 10
58.132621081825761
 20
98.116771396694631
 30
0.0
 11
58.129114463957251
 21
98.116771396694631
 31
0.0
  0
LINE
  5
E62B
  8
3
 10
58.139634317562717
 20
98.120278014563155
 30
0.0
 11
58.132621081825761
 21
98.116771396694631
 31
0.0
  0
LINE
  5
E62C
  8
3
 10
58.143140935431262
 20
98.123784632431693
 30
0.0
 11
58.139634317562717
 21
98.120278014563155
 31
0.0
  0
LINE
  5
E62D
  8
3
 10
58.146647553299829
 20
98.123784632431693
 30
0.0
 11
58.143140935431262
 21
98.123784632431693
 31
0.0
  0
LINE
  5
E62E
  8
3
 10
58.150154171168282
 20
98.127291250300246
 30
0.0
 11
58.146647553299829
 21
98.123784632431693
 31
0.0
  0
LINE
  5
E62F
  8
3
 10
58.15716740690533
 20
98.127291250300246
 30
0.0
 11
58.150154171168282
 21
98.127291250300246
 31
0.0
  0
LINE
  5
E630
  8
3
 10
58.160674024773861
 20
98.130797868168713
 30
0.0
 11
58.15716740690533
 21
98.127291250300246
 31
0.0
  0
LINE
  5
E631
  8
3
 10
58.16418064264235
 20
98.130797868168713
 30
0.0
 11
58.160674024773861
 21
98.130797868168713
 31
0.0
  0
LINE
  5
E632
  8
3
 10
58.16768726051091
 20
98.130797868168713
 30
0.0
 11
58.16418064264235
 21
98.130797868168713
 31
0.0
  0
LINE
  5
E633
  8
3
 10
58.174700496247958
 20
98.127291250300246
 30
0.0
 11
58.16768726051091
 21
98.130797868168713
 31
0.0
  0
LINE
  5
E634
  8
3
 10
58.178207114116411
 20
98.127291250300246
 30
0.0
 11
58.174700496247958
 21
98.127291250300246
 31
0.0
  0
LINE
  5
E635
  8
3
 10
58.178207114116411
 20
98.123784632431693
 30
0.0
 11
58.178207114116411
 21
98.127291250300246
 31
0.0
  0
LINE
  5
E636
  8
3
 10
58.181713731984949
 20
98.116771396694631
 30
0.0
 11
58.178207114116411
 21
98.123784632431693
 31
0.0
  0
LINE
  5
E637
  8
3
 10
58.185220349853488
 20
98.109758160957654
 30
0.0
 11
58.181713731984949
 21
98.116771396694631
 31
0.0
  0
LINE
  5
E638
  8
3
 10
58.60601449407531
 20
98.088718453746523
 30
0.0
 11
58.60601449407531
 21
98.085211835877985
 31
0.0
  0
LINE
  5
E639
  8
3
 10
58.60952111194382
 20
98.088718453746523
 30
0.0
 11
58.60601449407531
 21
98.088718453746523
 31
0.0
  0
LINE
  5
E63A
  8
3
 10
58.60952111194382
 20
98.092225071615019
 30
0.0
 11
58.60952111194382
 21
98.088718453746523
 31
0.0
  0
LINE
  5
E63B
  8
3
 10
58.61302772981233
 20
98.092225071615019
 30
0.0
 11
58.60952111194382
 21
98.092225071615019
 31
0.0
  0
LINE
  5
E63C
  8
3
 10
58.61653434768084
 20
98.092225071615019
 30
0.0
 11
58.61302772981233
 21
98.092225071615019
 31
0.0
  0
LINE
  5
E63D
  8
3
 10
58.62004096554935
 20
98.092225071615019
 30
0.0
 11
58.61653434768084
 21
98.092225071615019
 31
0.0
  0
LINE
  5
E63E
  8
3
 10
58.623547583417889
 20
98.092225071615019
 30
0.0
 11
58.62004096554935
 21
98.092225071615019
 31
0.0
  0
LINE
  5
E63F
  8
3
 10
58.627054201286398
 20
98.092225071615019
 30
0.0
 11
58.623547583417889
 21
98.092225071615019
 31
0.0
  0
LINE
  5
E640
  8
3
 10
59.216166003196911
 20
98.334181704542644
 30
0.0
 11
59.223179238933959
 21
98.323661850937015
 31
0.0
  0
LINE
  5
E641
  8
3
 10
58.125607846088741
 20
98.109758160957654
 30
0.0
 11
58.090541667403592
 21
98.064172128666897
 31
0.0
  0
LINE
  5
E642
  8
3
 10
58.188726967721998
 20
98.011572860639205
 30
0.0
 11
58.185220349853488
 21
98.109758160957654
 31
0.0
  0
LINE
  5
E643
  8
3
 10
58.686666705051202
 20
98.008066242770724
 30
0.0
 11
58.627054201286398
 21
98.092225071615019
 31
0.0
  0
LINE
  5
E644
  8
3
 10
58.090541667403592
 20
98.064172128666897
 30
0.0
 11
58.062488724455449
 21
98.008066242770724
 31
0.0
  0
LINE
  5
E645
  8
3
 10
58.037942399375851
 20
97.944947121137375
 30
0.0
 11
58.023915927901811
 21
97.878321381635601
 31
0.0
  0
LINE
  5
E646
  8
3
 10
58.185220349853488
 20
97.752083138369073
 30
0.0
 11
58.188726967721998
 21
97.804682406396807
 31
0.0
  0
LINE
  5
E647
  8
3
 10
58.185220349853488
 20
97.69948387034141
 30
0.0
 11
58.185220349853488
 21
97.752083138369073
 31
0.0
  0
LINE
  5
E648
  8
3
 10
58.185220349853488
 20
97.646884602313676
 30
0.0
 11
58.185220349853488
 21
97.69948387034141
 31
0.0
  0
LINE
  5
E649
  8
3
 10
58.735759355210313
 20
97.748576520500535
 30
0.0
 11
58.735759355210313
 21
97.801175788528326
 31
0.0
  0
LINE
  5
E64A
  8
3
 10
58.735759355210313
 20
97.692470634604334
 30
0.0
 11
58.735759355210313
 21
97.748576520500535
 31
0.0
  0
LINE
  5
E64B
  8
3
 10
58.732252737341838
 20
97.632858130839509
 30
0.0
 11
58.735759355210313
 21
97.692470634604334
 31
0.0
  0
LINE
  5
E64C
  8
3
 10
58.002876220690673
 20
97.738056666895034
 30
0.0
 11
57.999369602822178
 21
97.664417691656183
 31
0.0
  0
LINE
  5
E64D
  8
3
 10
58.00988945642775
 20
97.808189024265289
 30
0.0
 11
58.002876220690673
 21
97.738056666895034
 31
0.0
  0
LINE
  5
E64E
  8
3
 10
58.023915927901811
 20
97.878321381635601
 30
0.0
 11
58.00988945642775
 21
97.808189024265289
 31
0.0
  0
LINE
  5
E64F
  8
3
 10
57.978329895611097
 20
98.751469230895864
 30
0.0
 11
58.030929163638831
 21
98.772508938106967
 31
0.0
  0
LINE
  5
E650
  8
3
 10
57.487403394018941
 20
98.271062582909281
 30
0.0
 11
57.547015897783687
 21
98.372754501096267
 31
0.0
  0
LINE
  5
E651
  8
3
 10
57.873131359555629
 20
98.695363344999691
 30
0.0
 11
57.88365121316118
 21
98.698869962868116
 31
0.0
  0
LINE
  5
E652
  8
3
 10
57.86611812381858
 20
98.688350109262615
 30
0.0
 11
57.873131359555629
 21
98.695363344999691
 31
0.0
  0
LINE
  5
E653
  8
3
 10
57.855598270213079
 20
98.684843491394076
 30
0.0
 11
57.86611812381858
 21
98.688350109262615
 31
0.0
  0
LINE
  5
E654
  8
3
 10
57.845078416607521
 20
98.681336873525524
 30
0.0
 11
57.855598270213079
 21
98.684843491394076
 31
0.0
  0
LINE
  5
E655
  8
3
 10
57.838065180870473
 20
98.674323637788532
 30
0.0
 11
57.845078416607521
 21
98.681336873525524
 31
0.0
  0
LINE
  5
E656
  8
3
 10
57.831051945133453
 20
98.670817019920037
 30
0.0
 11
57.838065180870473
 21
98.674323637788532
 31
0.0
  0
LINE
  5
E657
  8
3
 10
57.824038709396433
 20
98.663803784183017
 30
0.0
 11
57.831051945133453
 21
98.670817019920037
 31
0.0
  0
LINE
  5
E658
  8
3
 10
57.813518855790882
 20
98.656790548445997
 30
0.0
 11
57.824038709396433
 21
98.663803784183017
 31
0.0
  0
LINE
  5
E659
  8
3
 10
57.810012237922336
 20
98.653283930577459
 30
0.0
 11
57.813518855790882
 21
98.656790548445997
 31
0.0
  0
LINE
  5
E65A
  8
3
 10
57.802999002185338
 20
98.646270694840425
 30
0.0
 11
57.810012237922336
 21
98.653283930577459
 31
0.0
  0
LINE
  5
E65B
  8
3
 10
57.7994923843168
 20
98.635750841234895
 30
0.0
 11
57.802999002185338
 21
98.646270694840425
 31
0.0
  0
LINE
  5
E65C
  8
3
 10
57.760919587763141
 20
98.614711134023764
 30
0.0
 11
57.7994923843168
 21
98.635750841234895
 31
0.0
  0
LINE
  5
E65D
  8
3
 10
57.743386498420541
 20
98.600684662549725
 30
0.0
 11
57.760919587763141
 21
98.614711134023764
 31
0.0
  0
LINE
  5
E65E
  8
3
 10
57.725853409078013
 20
98.586658191075685
 30
0.0
 11
57.743386498420541
 21
98.600684662549725
 31
0.0
  0
LINE
  5
E65F
  8
3
 10
57.708320319735442
 20
98.572631719601645
 30
0.0
 11
57.725853409078013
 21
98.586658191075685
 31
0.0
  0
LINE
  5
E660
  8
3
 10
57.690787230392829
 20
98.555098630259081
 30
0.0
 11
57.708320319735442
 21
98.572631719601645
 31
0.0
  0
LINE
  5
E661
  8
3
 10
57.673254141050251
 20
98.537565540916489
 30
0.0
 11
57.690787230392829
 21
98.555098630259081
 31
0.0
  0
LINE
  5
E662
  8
3
 10
57.659227669576211
 20
98.520032451573911
 30
0.0
 11
57.673254141050251
 21
98.537565540916489
 31
0.0
  0
LINE
  5
E663
  8
3
 10
57.641694580233569
 20
98.502499362231333
 30
0.0
 11
57.659227669576211
 21
98.520032451573911
 31
0.0
  0
LINE
  5
E664
  8
3
 10
57.627668108759593
 20
98.484966272888755
 30
0.0
 11
57.641694580233569
 21
98.502499362231333
 31
0.0
  0
LINE
  5
E665
  8
3
 10
57.613641637285497
 20
98.467433183546191
 30
0.0
 11
57.627668108759593
 21
98.484966272888755
 31
0.0
  0
LINE
  5
E666
  8
3
 10
57.596108547942947
 20
98.449900094203599
 30
0.0
 11
57.613641637285497
 21
98.467433183546191
 31
0.0
  0
LINE
  5
E667
  8
3
 10
57.582082076468822
 20
98.428860386992483
 30
0.0
 11
57.596108547942947
 21
98.449900094203599
 31
0.0
  0
LINE
  5
E668
  8
3
 10
57.571562222863349
 20
98.411327297649905
 30
0.0
 11
57.582082076468822
 21
98.428860386992483
 31
0.0
  0
LINE
  5
E669
  8
3
 10
57.557535751389253
 20
98.393794208307327
 30
0.0
 11
57.571562222863349
 21
98.411327297649905
 31
0.0
  0
LINE
  5
E66A
  8
3
 10
57.547015897783687
 20
98.372754501096267
 30
0.0
 11
57.557535751389253
 21
98.393794208307327
 31
0.0
  0
LINE
  5
E66B
  8
3
 10
57.901184302503793
 20
98.709389816473731
 30
0.0
 11
57.908197538240813
 21
98.712896434342227
 31
0.0
  0
LINE
  5
E66C
  8
3
 10
57.890664448898207
 20
98.702376580736654
 30
0.0
 11
57.901184302503793
 21
98.709389816473731
 31
0.0
  0
LINE
  5
E66D
  8
3
 10
57.88365121316118
 20
98.698869962868116
 30
0.0
 11
57.890664448898207
 21
98.702376580736654
 31
0.0
  0
LINE
  5
E66E
  8
3
 10
57.466363686807853
 20
98.218463314881546
 30
0.0
 11
57.487403394018941
 21
98.271062582909281
 31
0.0
  0
LINE
  5
E66F
  8
3
 10
57.908197538240813
 20
98.712896434342227
 30
0.0
 11
57.925730627583327
 21
98.723416287947785
 31
0.0
  0
LINE
  5
E670
  8
3
 10
57.985343131348081
 20
96.472167616361048
 30
0.0
 11
57.96079680626849
 21
96.465154380624028
 31
0.0
  0
LINE
  5
E671
  8
3
 10
57.943263716925941
 20
96.338916137357501
 30
0.0
 11
57.985343131348081
 21
96.356449226700079
 31
0.0
  0
LINE
  5
E672
  8
3
 10
57.967810042005567
 20
97.166477954327036
 30
0.0
 11
57.939757099057431
 21
97.169984572195531
 31
0.0
  0
LINE
  5
E673
  8
3
 10
57.96079680626849
 20
96.465154380624028
 30
0.0
 11
57.939757099057431
 21
96.458141144886994
 31
0.0
  0
LINE
  5
E674
  8
3
 10
58.942649809452718
 20
96.514247030783224
 30
0.0
 11
58.798878476843612
 21
96.514247030783224
 31
0.0
  0
LINE
  5
E675
  8
3
 10
58.227299764275699
 20
96.503727177177666
 30
0.0
 11
58.15716740690533
 21
96.503727177177666
 31
0.0
  0
LINE
  5
E676
  8
3
 10
58.314965210988618
 20
96.507233795046204
 30
0.0
 11
58.227299764275699
 21
96.503727177177666
 31
0.0
  0
LINE
  5
E677
  8
3
 10
58.420163747044029
 20
96.510740412914686
 30
0.0
 11
58.314965210988618
 21
96.507233795046204
 31
0.0
  0
LINE
  5
E678
  8
3
 10
58.53588213670502
 20
96.510740412914686
 30
0.0
 11
58.420163747044029
 21
96.510740412914686
 31
0.0
  0
LINE
  5
E679
  8
3
 10
58.665626997840057
 20
96.510740412914686
 30
0.0
 11
58.53588213670502
 21
96.510740412914686
 31
0.0
  0
LINE
  5
E67A
  8
3
 10
58.798878476843612
 20
96.514247030783224
 30
0.0
 11
58.665626997840057
 21
96.510740412914686
 31
0.0
  0
LINE
  5
E67B
  8
3
 10
59.086421142061909
 20
96.517753648651762
 30
0.0
 11
58.942649809452718
 21
96.514247030783224
 31
0.0
  0
LINE
  5
E67C
  8
3
 10
58.15716740690533
 20
96.503727177177666
 30
0.0
 11
58.07651519592951
 21
96.496713941440646
 31
0.0
  0
LINE
  5
E67D
  8
3
 10
58.051968870849862
 20
96.493207323572094
 30
0.0
 11
58.030929163638831
 21
96.486194087835102
 31
0.0
  0
LINE
  5
E67E
  8
3
 10
58.07651519592951
 20
96.496713941440646
 30
0.0
 11
58.051968870849862
 21
96.493207323572094
 31
0.0
  0
LINE
  5
E67F
  8
3
 10
58.809398330449191
 20
97.152451482852939
 30
0.0
 11
58.967196134532337
 21
97.145438247115919
 31
0.0
  0
LINE
  5
E680
  8
3
 10
58.662120379971519
 20
97.155958100721477
 30
0.0
 11
58.809398330449191
 21
97.152451482852939
 31
0.0
  0
LINE
  5
E681
  8
3
 10
58.51484242949391
 20
97.159464718590016
 30
0.0
 11
58.662120379971519
 21
97.155958100721477
 31
0.0
  0
LINE
  5
E682
  8
3
 10
58.378084332621818
 20
97.155958100721477
 30
0.0
 11
58.51484242949391
 21
97.159464718590016
 31
0.0
  0
LINE
  5
E683
  8
3
 10
58.24132623574971
 20
97.148944864984458
 30
0.0
 11
58.378084332621818
 21
97.155958100721477
 31
0.0
  0
LINE
  5
E684
  8
3
 10
58.185220349853488
 20
97.541686066258137
 30
0.0
 11
58.185220349853488
 21
97.594285334285885
 31
0.0
  0
LINE
  5
E685
  8
3
 10
58.185220349853488
 20
97.492593416098984
 30
0.0
 11
58.185220349853488
 21
97.541686066258137
 31
0.0
  0
LINE
  5
E686
  8
3
 10
58.185220349853488
 20
97.439994148071193
 30
0.0
 11
58.185220349853488
 21
97.492593416098984
 31
0.0
  0
LINE
  5
E687
  8
3
 10
58.185220349853488
 20
97.390901497912026
 30
0.0
 11
58.185220349853488
 21
97.439994148071193
 31
0.0
  0
LINE
  5
E688
  8
3
 10
58.188726967721998
 20
97.341808847752773
 30
0.0
 11
58.185220349853488
 21
97.390901497912026
 31
0.0
  0
LINE
  5
E689
  8
3
 10
58.192233585590458
 20
97.292716197593563
 30
0.0
 11
58.188726967721998
 21
97.341808847752773
 31
0.0
  0
LINE
  5
E68A
  8
3
 10
58.24132623574971
 20
97.299729433330654
 30
0.0
 11
58.192233585590458
 21
97.292716197593563
 31
0.0
  0
LINE
  5
E68B
  8
3
 10
58.265872560829337
 20
97.299729433330654
 30
0.0
 11
58.24132623574971
 21
97.299729433330654
 31
0.0
  0
LINE
  5
E68C
  8
3
 10
58.290418885908927
 20
97.299729433330654
 30
0.0
 11
58.265872560829337
 21
97.299729433330654
 31
0.0
  0
LINE
  5
E68D
  8
3
 10
58.318471828857042
 20
97.299729433330654
 30
0.0
 11
58.290418885908927
 21
97.299729433330654
 31
0.0
  0
LINE
  5
E68E
  8
3
 10
58.34652477180515
 20
97.299729433330654
 30
0.0
 11
58.318471828857042
 21
97.299729433330654
 31
0.0
  0
LINE
  5
E68F
  8
3
 10
58.371071096884812
 20
97.299729433330654
 30
0.0
 11
58.34652477180515
 21
97.299729433330654
 31
0.0
  0
LINE
  5
E690
  8
3
 10
58.399124039832941
 20
97.299729433330654
 30
0.0
 11
58.371071096884812
 21
97.299729433330654
 31
0.0
  0
LINE
  5
E691
  8
3
 10
58.423670364912482
 20
97.299729433330654
 30
0.0
 11
58.399124039832941
 21
97.299729433330654
 31
0.0
  0
LINE
  5
E692
  8
3
 10
58.451723307860618
 20
97.299729433330654
 30
0.0
 11
58.423670364912482
 21
97.299729433330654
 31
0.0
  0
LINE
  5
E693
  8
3
 10
58.476269632940237
 20
97.299729433330654
 30
0.0
 11
58.451723307860618
 21
97.299729433330654
 31
0.0
  0
LINE
  5
E694
  8
3
 10
58.504322575888352
 20
97.303236051199136
 30
0.0
 11
58.476269632940237
 21
97.299729433330654
 31
0.0
  0
LINE
  5
E695
  8
3
 10
58.528868900967971
 20
97.303236051199136
 30
0.0
 11
58.504322575888352
 21
97.303236051199136
 31
0.0
  0
LINE
  5
E696
  8
3
 10
58.553415226047548
 20
97.306742669067603
 30
0.0
 11
58.528868900967971
 21
97.303236051199136
 31
0.0
  0
LINE
  5
E697
  8
3
 10
58.577961551127203
 20
97.313755904804665
 30
0.0
 11
58.553415226047548
 21
97.306742669067603
 31
0.0
  0
LINE
  5
E698
  8
3
 10
58.602507876206751
 20
97.317262522673204
 30
0.0
 11
58.577961551127203
 21
97.313755904804665
 31
0.0
  0
LINE
  5
E699
  8
3
 10
58.728746119473328
 20
97.520646359047092
 30
0.0
 11
58.728746119473328
 21
97.576752244943293
 31
0.0
  0
LINE
  5
E69A
  8
3
 10
58.72523950160484
 20
97.464540473150805
 30
0.0
 11
58.728746119473328
 21
97.520646359047092
 31
0.0
  0
LINE
  5
E69B
  8
3
 10
58.72523950160484
 20
97.40843458725459
 30
0.0
 11
58.72523950160484
 21
97.464540473150805
 31
0.0
  0
LINE
  5
E69C
  8
3
 10
58.72523950160484
 20
97.352328701358374
 30
0.0
 11
58.72523950160484
 21
97.40843458725459
 31
0.0
  0
LINE
  5
E69D
  8
3
 10
58.732252737341838
 20
97.299729433330654
 30
0.0
 11
58.72523950160484
 21
97.352328701358374
 31
0.0
  0
LINE
  5
E69E
  8
3
 10
58.742772590947389
 20
97.247130165302906
 30
0.0
 11
58.732252737341838
 21
97.299729433330654
 31
0.0
  0
LINE
  5
E69F
  8
3
 10
59.135513792221097
 20
97.141931629247424
 30
0.0
 11
59.223179238933938
 21
97.140178320313154
 31
0.0
  0
LINE
  5
E6A0
  8
3
 10
58.967196134532337
 20
97.145438247115919
 30
0.0
 11
59.135513792221097
 21
97.141931629247424
 31
0.0
  0
LINE
  5
E6A1
  8
3
 10
58.108074756746191
 20
97.134918393510432
 30
0.0
 11
58.24132623574971
 21
97.148944864984458
 31
0.0
  0
LINE
  5
E6A2
  8
3
 10
58.006382838559233
 20
96.479180852098125
 30
0.0
 11
57.985343131348081
 21
96.472167616361048
 31
0.0
  0
LINE
  5
E6A3
  8
3
 10
57.995862984953668
 20
97.159464718590016
 30
0.0
 11
57.967810042005567
 21
97.166477954327036
 31
0.0
  0
LINE
  5
E6A4
  8
3
 10
58.020409310033301
 20
97.148944864984458
 30
0.0
 11
57.995862984953668
 21
97.159464718590016
 31
0.0
  0
LINE
  5
E6A5
  8
3
 10
58.016902692164763
 20
97.219077222354713
 30
0.0
 11
58.020409310033301
 21
97.148944864984458
 31
0.0
  0
LINE
  5
E6A6
  8
3
 10
58.013396074296217
 20
97.268169872513965
 30
0.0
 11
58.016902692164763
 21
97.219077222354713
 31
0.0
  0
LINE
  5
E6A7
  8
3
 10
58.00988945642775
 20
97.324275758410181
 30
0.0
 11
58.013396074296217
 21
97.268169872513965
 31
0.0
  0
LINE
  5
E6A8
  8
3
 10
58.006382838559233
 20
97.383888262175006
 30
0.0
 11
58.00988945642775
 21
97.324275758410181
 31
0.0
  0
LINE
  5
E6A9
  8
3
 10
58.002876220690673
 20
97.450514001676765
 30
0.0
 11
58.006382838559233
 21
97.383888262175006
 31
0.0
  0
LINE
  5
E6AA
  8
3
 10
57.999369602822178
 20
97.520646359047092
 30
0.0
 11
58.002876220690673
 21
97.450514001676765
 31
0.0
  0
LINE
  5
E6AB
  8
3
 10
57.999369602822178
 20
97.59077871641739
 30
0.0
 11
57.999369602822178
 21
97.520646359047092
 31
0.0
  0
LINE
  5
E6AC
  8
3
 10
58.030929163638831
 20
96.486194087835102
 30
0.0
 11
58.006382838559233
 21
96.479180852098125
 31
0.0
  0
LINE
  5
E6AD
  8
3
 10
57.97482327774253
 20
97.113878686299302
 30
0.0
 11
58.108074756746191
 21
97.134918393510432
 31
0.0
  0
LINE
  5
E6AE
  8
3
 10
58.581468168995677
 20
96.398528641122212
 30
0.0
 11
58.60952111194382
 21
96.391515405385235
 31
0.0
  0
LINE
  5
E6AF
  8
3
 10
58.07651519592951
 20
96.388008787516696
 30
0.0
 11
58.171193878379427
 21
96.412555112596237
 31
0.0
  0
LINE
  5
E6B0
  8
3
 10
58.549908608179059
 20
96.405541876859274
 30
0.0
 11
58.581468168995677
 21
96.398528641122212
 31
0.0
  0
LINE
  5
E6B1
  8
3
 10
58.518349047362449
 20
96.409048494727756
 30
0.0
 11
58.549908608179059
 21
96.405541876859274
 31
0.0
  0
LINE
  5
E6B2
  8
3
 10
58.486789486545767
 20
96.416061730464776
 30
0.0
 11
58.518349047362449
 21
96.409048494727756
 31
0.0
  0
LINE
  5
E6B3
  8
3
 10
58.455229925729128
 20
96.419568348333314
 30
0.0
 11
58.486789486545767
 21
96.416061730464776
 31
0.0
  0
LINE
  5
E6B4
  8
3
 10
58.42717698278107
 20
96.419568348333314
 30
0.0
 11
58.455229925729128
 21
96.419568348333314
 31
0.0
  0
LINE
  5
E6B5
  8
3
 10
58.395617421964367
 20
96.423074966201796
 30
0.0
 11
58.42717698278107
 21
96.419568348333314
 31
0.0
  0
LINE
  5
E6B6
  8
3
 10
58.364057861147728
 20
96.423074966201796
 30
0.0
 11
58.395617421964367
 21
96.423074966201796
 31
0.0
  0
LINE
  5
E6B7
  8
3
 10
58.33249830033111
 20
96.423074966201796
 30
0.0
 11
58.364057861147728
 21
96.423074966201796
 31
0.0
  0
LINE
  5
E6B8
  8
3
 10
58.297432121645947
 20
96.423074966201796
 30
0.0
 11
58.33249830033111
 21
96.423074966201796
 31
0.0
  0
LINE
  5
E6B9
  8
3
 10
58.265872560829337
 20
96.423074966201796
 30
0.0
 11
58.297432121645947
 21
96.423074966201796
 31
0.0
  0
LINE
  5
E6BA
  8
3
 10
58.234313000012691
 20
96.419568348333314
 30
0.0
 11
58.265872560829337
 21
96.423074966201796
 31
0.0
  0
LINE
  5
E6BB
  8
3
 10
58.202753439196073
 20
96.419568348333314
 30
0.0
 11
58.234313000012691
 21
96.419568348333314
 31
0.0
  0
LINE
  5
E6BC
  8
3
 10
58.171193878379427
 20
96.412555112596237
 30
0.0
 11
58.202753439196073
 21
96.419568348333314
 31
0.0
  0
LINE
  5
E6BD
  8
3
 10
58.823424801923238
 20
96.296836722935268
 30
0.0
 11
58.837451273397299
 21
96.289823487198248
 31
0.0
  0
LINE
  5
E6BE
  8
3
 10
58.809398330449191
 20
96.303849958672345
 30
0.0
 11
58.823424801923238
 21
96.296836722935268
 31
0.0
  0
LINE
  5
E6BF
  8
3
 10
58.795371858975102
 20
96.310863194409322
 30
0.0
 11
58.809398330449191
 21
96.303849958672345
 31
0.0
  0
LINE
  5
E6C0
  8
3
 10
58.781345387501062
 20
96.317876430146384
 30
0.0
 11
58.795371858975102
 21
96.310863194409322
 31
0.0
  0
LINE
  5
E6C1
  8
3
 10
58.767318916026959
 20
96.324889665883404
 30
0.0
 11
58.781345387501062
 21
96.317876430146384
 31
0.0
  0
LINE
  5
E6C2
  8
3
 10
58.753292444552947
 20
96.331902901620424
 30
0.0
 11
58.767318916026959
 21
96.324889665883404
 31
0.0
  0
LINE
  5
E6C3
  8
3
 10
58.739265973078851
 20
96.338916137357501
 30
0.0
 11
58.753292444552947
 21
96.331902901620424
 31
0.0
  0
LINE
  5
E6C4
  8
3
 10
58.72523950160484
 20
96.345929373094464
 30
0.0
 11
58.739265973078851
 21
96.338916137357501
 31
0.0
  0
LINE
  5
E6C5
  8
3
 10
58.71121303013075
 20
96.352942608831555
 30
0.0
 11
58.72523950160484
 21
96.345929373094464
 31
0.0
  0
LINE
  5
E6C6
  8
3
 10
58.697186558656682
 20
96.359955844568503
 30
0.0
 11
58.71121303013075
 21
96.352942608831555
 31
0.0
  0
LINE
  5
E6C7
  8
3
 10
58.683160087182607
 20
96.36696908030558
 30
0.0
 11
58.697186558656682
 21
96.359955844568503
 31
0.0
  0
LINE
  5
E6C8
  8
3
 10
58.672640233577113
 20
96.3739823160426
 30
0.0
 11
58.683160087182607
 21
96.36696908030558
 31
0.0
  0
LINE
  5
E6C9
  8
3
 10
58.60952111194382
 20
96.391515405385235
 30
0.0
 11
58.672640233577113
 21
96.3739823160426
 31
0.0
  0
LINE
  5
E6CA
  8
3
 10
59.107460849272911
 20
96.040853618533674
 30
0.0
 11
59.135513792221097
 21
95.998774204111498
 31
0.0
  0
LINE
  5
E6CB
  8
3
 10
58.851477744871339
 20
96.282810251461214
 30
0.0
 11
58.865504216345443
 21
96.275797015724223
 31
0.0
  0
LINE
  5
E6CC
  8
3
 10
58.837451273397299
 20
96.289823487198248
 30
0.0
 11
58.851477744871339
 21
96.282810251461214
 31
0.0
  0
LINE
  5
E6CD
  8
3
 10
59.075901288456322
 20
96.079426415087369
 30
0.0
 11
59.107460849272911
 21
96.040853618533674
 31
0.0
  0
LINE
  5
E6CE
  8
3
 10
58.89355715929355
 20
96.258263926381574
 30
0.0
 11
58.935636573715762
 21
96.22670436556497
 31
0.0
  0
LINE
  5
E6CF
  8
3
 10
58.865504216345443
 20
96.275797015724223
 30
0.0
 11
58.89355715929355
 21
96.258263926381574
 31
0.0
  0
LINE
  5
E6D0
  8
3
 10
59.044341727639697
 20
96.117999211641063
 30
0.0
 11
59.075901288456322
 21
96.079426415087369
 31
0.0
  0
LINE
  5
E6D1
  8
3
 10
59.00927554895452
 20
96.156572008194701
 30
0.0
 11
59.044341727639697
 21
96.117999211641063
 31
0.0
  0
LINE
  5
E6D2
  8
3
 10
58.974209370269392
 20
96.191638186879786
 30
0.0
 11
59.00927554895452
 21
96.156572008194701
 31
0.0
  0
LINE
  5
E6D3
  8
3
 10
58.935636573715762
 20
96.22670436556497
 30
0.0
 11
58.974209370269392
 21
96.191638186879786
 31
0.0
  0
LINE
  5
E6D4
  8
3
 10
58.030929163638831
 20
96.3739823160426
 30
0.0
 11
58.07651519592951
 21
96.388008787516696
 31
0.0
  0
LINE
  5
E6D5
  8
3
 10
57.985343131348081
 20
96.356449226700079
 30
0.0
 11
58.030929163638831
 21
96.3739823160426
 31
0.0
  0
LINE
  5
E6D6
  8
3
 10
57.855598270213079
 20
96.430088201938872
 30
0.0
 11
57.834558563001963
 21
96.423074966201796
 31
0.0
  0
LINE
  5
E6D7
  8
3
 10
57.87663797742411
 20
96.437101437675906
 30
0.0
 11
57.855598270213079
 21
96.430088201938872
 31
0.0
  0
LINE
  5
E6D8
  8
3
 10
57.897677684635227
 20
96.444114673412969
 30
0.0
 11
57.87663797742411
 21
96.437101437675906
 31
0.0
  0
LINE
  5
E6D9
  8
3
 10
57.918717391846322
 20
96.451127909149932
 30
0.0
 11
57.897677684635227
 21
96.444114673412969
 31
0.0
  0
LINE
  5
E6DA
  8
3
 10
57.708320319735442
 20
97.043746328929046
 30
0.0
 11
57.841571798738983
 21
97.082319125482684
 31
0.0
  0
LINE
  5
E6DB
  8
3
 10
57.571562222863349
 20
96.991147060901255
 30
0.0
 11
57.708320319735442
 21
97.043746328929046
 31
0.0
  0
LINE
  5
E6DC
  8
3
 10
57.480390158281949
 20
97.271676490382447
 30
0.0
 11
57.469870304676363
 21
97.282196343988062
 31
0.0
  0
LINE
  5
E6DD
  8
3
 10
57.490910011887479
 20
97.261156636776946
 30
0.0
 11
57.480390158281949
 21
97.271676490382447
 31
0.0
  0
LINE
  5
E6DE
  8
3
 10
57.501429865493009
 20
97.254143401039926
 30
0.0
 11
57.490910011887479
 21
97.261156636776946
 31
0.0
  0
LINE
  5
E6DF
  8
3
 10
57.515456336967048
 20
97.247130165302906
 30
0.0
 11
57.501429865493009
 21
97.254143401039926
 31
0.0
  0
LINE
  5
E6E0
  8
3
 10
57.529482808441152
 20
97.236610311697348
 30
0.0
 11
57.515456336967048
 21
97.247130165302906
 31
0.0
  0
LINE
  5
E6E1
  8
3
 10
57.58909531220587
 20
97.222583840223251
 30
0.0
 11
57.529482808441152
 21
97.236610311697348
 31
0.0
  0
LINE
  5
E6E2
  8
3
 10
57.620654873022602
 20
97.215570604486288
 30
0.0
 11
57.58909531220587
 21
97.222583840223251
 31
0.0
  0
LINE
  5
E6E3
  8
3
 10
57.652214433839127
 20
97.212063986617764
 30
0.0
 11
57.620654873022602
 21
97.215570604486288
 31
0.0
  0
LINE
  5
E6E4
  8
3
 10
57.687280612524312
 20
97.205050750880673
 30
0.0
 11
57.652214433839127
 21
97.212063986617764
 31
0.0
  0
LINE
  5
E6E5
  8
3
 10
57.718840173340993
 20
97.201544133012192
 30
0.0
 11
57.687280612524312
 21
97.205050750880673
 31
0.0
  0
LINE
  5
E6E6
  8
3
 10
57.753906352026092
 20
97.19803751514371
 30
0.0
 11
57.718840173340993
 21
97.201544133012192
 31
0.0
  0
LINE
  5
E6E7
  8
3
 10
57.785465912842767
 20
97.194530897275172
 30
0.0
 11
57.753906352026092
 21
97.19803751514371
 31
0.0
  0
LINE
  5
E6E8
  8
3
 10
57.820532091527859
 20
97.191024279406633
 30
0.0
 11
57.785465912842767
 21
97.194530897275172
 31
0.0
  0
LINE
  5
E6E9
  8
3
 10
57.852091652344569
 20
97.184011043669557
 30
0.0
 11
57.820532091527859
 21
97.191024279406633
 31
0.0
  0
LINE
  5
E6EA
  8
3
 10
57.88365121316118
 20
97.180504425801075
 30
0.0
 11
57.852091652344569
 21
97.184011043669557
 31
0.0
  0
LINE
  5
E6EB
  8
3
 10
57.911704156109323
 20
97.176997807932594
 30
0.0
 11
57.88365121316118
 21
97.180504425801075
 31
0.0
  0
LINE
  5
E6EC
  8
3
 10
57.774946059237237
 20
96.398528641122212
 30
0.0
 11
57.743386498420541
 21
96.377488933911138
 31
0.0
  0
LINE
  5
E6ED
  8
3
 10
57.795985766448332
 20
96.405541876859274
 30
0.0
 11
57.774946059237237
 21
96.398528641122212
 31
0.0
  0
LINE
  5
E6EE
  8
3
 10
57.813518855790882
 20
96.412555112596237
 30
0.0
 11
57.795985766448332
 21
96.405541876859274
 31
0.0
  0
LINE
  5
E6EF
  8
3
 10
57.834558563001963
 20
96.423074966201796
 30
0.0
 11
57.813518855790882
 21
96.412555112596237
 31
0.0
  0
LINE
  5
E6F0
  8
3
 10
57.490910011887479
 20
96.212677894090916
 30
0.0
 11
57.473376922544873
 21
96.195144804748324
 31
0.0
  0
LINE
  5
E6F1
  8
3
 10
57.511949719098602
 20
96.230210983433494
 30
0.0
 11
57.490910011887479
 21
96.212677894090916
 31
0.0
  0
LINE
  5
E6F2
  8
3
 10
57.532989426309683
 20
96.247744072776072
 30
0.0
 11
57.511949719098602
 21
96.230210983433494
 31
0.0
  0
LINE
  5
E6F3
  8
3
 10
57.550522515652233
 20
96.261770544250126
 30
0.0
 11
57.532989426309683
 21
96.247744072776072
 31
0.0
  0
LINE
  5
E6F4
  8
3
 10
57.571562222863349
 20
96.279303633592676
 30
0.0
 11
57.550522515652233
 21
96.261770544250126
 31
0.0
  0
LINE
  5
E6F5
  8
3
 10
57.592601930074437
 20
96.29333010506673
 30
0.0
 11
57.571562222863349
 21
96.279303633592676
 31
0.0
  0
LINE
  5
E6F6
  8
3
 10
57.617148255154042
 20
96.310863194409322
 30
0.0
 11
57.592601930074437
 21
96.29333010506673
 31
0.0
  0
LINE
  5
E6F7
  8
3
 10
57.638187962365102
 20
96.324889665883404
 30
0.0
 11
57.617148255154042
 21
96.310863194409322
 31
0.0
  0
LINE
  5
E6F8
  8
3
 10
57.662734287444721
 20
96.338916137357501
 30
0.0
 11
57.638187962365102
 21
96.324889665883404
 31
0.0
  0
LINE
  5
E6F9
  8
3
 10
57.687280612524312
 20
96.352942608831555
 30
0.0
 11
57.662734287444721
 21
96.338916137357501
 31
0.0
  0
LINE
  5
E6FA
  8
3
 10
57.715333555472448
 20
96.36696908030558
 30
0.0
 11
57.687280612524312
 21
96.352942608831555
 31
0.0
  0
LINE
  5
E6FB
  8
3
 10
57.743386498420541
 20
96.377488933911138
 30
0.0
 11
57.715333555472448
 21
96.36696908030558
 31
0.0
  0
LINE
  5
E6FC
  8
3
 10
57.557535751389253
 20
96.005787439848518
 30
0.0
 11
57.58558869433736
 21
96.047866854270751
 31
0.0
  0
LINE
  5
E6FD
  8
3
 10
57.645201198102107
 20
96.121505829509545
 30
0.0
 11
57.67676075891881
 21
96.156572008194701
 31
0.0
  0
LINE
  5
E6FE
  8
3
 10
57.58558869433736
 20
96.047866854270751
 30
0.0
 11
57.613641637285497
 21
96.086439650824346
 31
0.0
  0
LINE
  5
E6FF
  8
3
 10
57.613641637285497
 20
96.086439650824346
 30
0.0
 11
57.645201198102107
 21
96.121505829509545
 31
0.0
  0
LINE
  5
E700
  8
3
 10
57.862611505950071
 20
96.296836722935268
 30
0.0
 11
57.901184302503793
 21
96.317876430146384
 31
0.0
  0
LINE
  5
E701
  8
3
 10
57.820532091527859
 20
96.272290397855727
 30
0.0
 11
57.862611505950071
 21
96.296836722935268
 31
0.0
  0
LINE
  5
E702
  8
3
 10
57.746893116289101
 20
96.219691129827936
 30
0.0
 11
57.785465912842767
 21
96.244237454907534
 31
0.0
  0
LINE
  5
E703
  8
3
 10
57.711826937603938
 20
96.188131569011333
 30
0.0
 11
57.746893116289101
 21
96.219691129827936
 31
0.0
  0
LINE
  5
E704
  8
3
 10
57.67676075891881
 20
96.156572008194701
 30
0.0
 11
57.711826937603938
 21
96.188131569011333
 31
0.0
  0
LINE
  5
E705
  8
3
 10
57.785465912842767
 20
96.244237454907534
 30
0.0
 11
57.820532091527859
 21
96.272290397855727
 31
0.0
  0
LINE
  5
E706
  8
3
 10
57.532989426309683
 20
95.970721261163348
 30
0.0
 11
57.557535751389253
 21
96.005787439848518
 31
0.0
  0
LINE
  5
E707
  8
3
 10
57.841571798738983
 20
97.082319125482684
 30
0.0
 11
57.97482327774253
 21
97.113878686299302
 31
0.0
  0
LINE
  5
E708
  8
3
 10
57.939757099057431
 20
96.458141144886994
 30
0.0
 11
57.918717391846322
 21
96.451127909149932
 31
0.0
  0
LINE
  5
E709
  8
3
 10
57.939757099057431
 20
97.169984572195531
 30
0.0
 11
57.911704156109323
 21
97.176997807932594
 31
0.0
  0
LINE
  5
E70A
  8
3
 10
57.901184302503793
 20
96.317876430146384
 30
0.0
 11
57.943263716925941
 21
96.338916137357501
 31
0.0
  0
LINE
  5
E70B
  8
3
 10
59.223179238933959
 20
98.323661850937015
 30
0.0
 11
59.230192474670993
 21
98.313141997331513
 31
0.0
  0
LINE
  5
E70C
  8
3
 10
59.233699092539489
 20
96.517753648651762
 30
0.0
 11
59.086421142061909
 21
96.517753648651762
 31
0.0
  0
LINE
  5
E70D
  8
3
 10
59.349417482200487
 20
97.240116929565829
 30
0.0
 11
58.742772590947389
 21
97.247130165302906
 31
0.0
  0
LINE
  5
E70E
  8
3
 10
59.223179238933959
 20
97.140178320313154
 30
0.0
 11
59.92133122195338
 21
97.151524072112579
 31
0.0
  0
ARC
  5
E70F
  8
0
 10
55.615826743208522
 20
109.5946018379679
 30
0.0
 40
0.75
 50
90.0
 51
180.0
  0
LINE
  5
E710
  8
0
 10
54.861543743208472
 20
47.921271728817601
 30
0.0
 11
54.987294874278668
 21
50.983787992149132
 31
0.0
  0
ARC
  5
E711
  8
0
 10
57.983492667312362
 20
50.832795326697862
 30
0.0
 40
3.0
 50
122.61135978685709
 51
177.11503360335479
1001
GENIUS_GENODEF_13
1002
{
1000
HIER
1070
     0
1002
}
1002
{
1000
MANEDIT
1070
     0
1002
}
1002
{
1000
NOSEL
1070
     0
1002
}
1002
{
1000
BEHIND
1070
     0
1002
}
1002
{
1000
REACTOR
1002
}
1001
GENIUS_GENOBJ-N-FIL_13
1002
{
1000
OWNER
1000
GEN
1002
}
  0
LINE
  5
E712
  8
2
 10
59.58654374320848
 20
51.921271728817601
 30
0.0
 11
59.58654374320848
 21
49.921271728817601
 31
0.0
  0
LINE
  5
E713
  8
1
 10
62.761543743208478
 20
100.0840748730182
 30
0.0
 11
62.761543743208478
 21
105.68164414287079
 31
0.0
  0
LINE
  5
E714
  8
0
 10
74.161543743208483
 20
105.0258528379679
 30
0.0
 11
74.161543743208483
 21
100.10085283796791
 31
0.0
  0
LINE
  5
E715
  8
0
 10
73.054401743208473
 20
100.10085283796791
 30
0.0
 11
73.054401743208473
 21
105.0258528379679
 31
0.0
  0
ARC
  5
E716
  8
0
 10
74.911543743208483
 20
100.9633528379679
 30
0.0
 40
0.75
 50
180.0
 51
270.0
  0
ARC
  5
E717
  8
0
 10
74.911543743208483
 20
104.16335283796801
 30
0.0
 40
0.75
 50
90.0
 51
180.0
  0
ARC
  5
E718
  8
0
 10
74.911543743208483
 20
109.5946028379679
 30
0.0
 40
0.75
 50
90.0
 51
162.54240300000001
  0
LINE
  5
E719
  8
0
 10
73.054401743208473
 20
109.81960183796789
 30
0.0
 11
73.054401743208473
 21
110.3446018379679
 31
0.0
  0
LINE
  5
E71A
  8
2
 10
61.26154374320847
 20
47.921271728817601
 30
0.0
 11
61.26154374320847
 21
51.921271728817601
 31
0.0
  0
LINE
  5
E71B
  8
2
 10
61.511543743208478
 20
47.921271728817601
 30
0.0
 11
61.511543743208478
 21
51.921271728817601
 31
0.0
  0
LINE
  5
E71C
  8
2
 10
64.261543743208478
 20
47.921271728817601
 30
0.0
 11
64.261543743208478
 21
51.921271728817601
 31
0.0
  0
LINE
  5
E71D
  8
2
 10
64.011543743208478
 20
47.921271728817601
 30
0.0
 11
64.011543743208478
 21
51.921271728817601
 31
0.0
  0
LINE
  5
E71E
  8
2
 10
60.561543743208468
 20
49.921271728817601
 30
0.0
 11
60.561543743208468
 21
47.921271728817601
 31
0.0
  0
LINE
  5
E71F
  8
1
 10
62.761543743208463
 20
46.421271728817587
 30
0.0
 11
62.761543743208463
 21
53.421271728817572
 31
0.0
  0
LINE
  5
E720
  8
2
 10
65.93654374320846
 20
51.921271728817601
 30
0.0
 11
65.93654374320846
 21
49.921271728817601
 31
0.0
  0
LINE
  5
E721
  8
2
 10
65.93654374320846
 20
49.921271728817601
 30
0.0
 11
64.961543743208466
 21
49.921271728817601
 31
0.0
  0
LINE
  5
E722
  8
2
 10
64.961543743208495
 20
49.921271728817601
 30
0.0
 11
64.961543743208495
 21
47.921271728817601
 31
0.0
  0
LINE
  5
E723
  8
0
 10
74.161543743208483
 20
47.921271728817601
 30
0.0
 11
74.511543743208463
 21
57.171270728817603
 31
0.0
  0
LINE
  5
E724
  8
0
 10
71.434302810303564
 20
52.62127172881759
 30
0.0
 11
73.054401743208473
 21
57.079795328852242
 31
0.0
  0
ARC
  5
E725
  8
0
 10
74.801089651295882
 20
50.301825055541059
 30
0.0
 40
3.5
 50
96.858898165249116
 51
176.55714944288519
1001
GENIUS_GENODEF_13
1002
{
1000
HIER
1070
     0
1002
}
1002
{
1000
MANEDIT
1070
     0
1002
}
1002
{
1000
NOSEL
1070
     0
1002
}
1002
{
1000
BEHIND
1070
     0
1002
}
1002
{
1000
REACTOR
1002
}
1001
GENIUS_GENOBJ-N-FIL_13
1002
{
1000
OWNER
1000
GEN
1002
}
  0
LINE
  5
E726
  8
0
 10
71.151543743208492
 20
47.921271728817601
 30
0.0
 11
71.434302810303564
 21
52.62127172881759
 31
0.0
  0
LINE
  5
E727
  8
2
 10
76.261543743208463
 20
47.921271728817601
 30
0.0
 11
76.261543743208463
 21
51.921271728817601
 31
0.0
  0
LINE
  5
E728
  8
2
 10
76.511543743208478
 20
47.921271728817601
 30
0.0
 11
76.511543743208478
 21
51.921271728817601
 31
0.0
  0
LINE
  5
E729
  8
2
 10
75.56154374320846
 20
49.921271728817601
 30
0.0
 11
75.56154374320846
 21
47.921271728817601
 31
0.0
  0
LINE
  5
E72A
  8
2
 10
74.586543743208495
 20
51.921271728817601
 30
0.0
 11
74.586543743208495
 21
49.921271728817601
 31
0.0
  0
LINE
  5
E72B
  8
2
 10
74.586543743208495
 20
49.921271728817601
 30
0.0
 11
75.561543743208489
 21
49.921271728817601
 31
0.0
  0
LINE
  5
E72C
  8
0
 10
73.054401743208473
 20
57.079795328852242
 30
0.0
 11
71.065780743208464
 21
59.771715728817611
 31
0.0
  0
ARC
  5
E72D
  8
0
 10
70.046184743208471
 20
59.296270728817611
 30
0.0
 40
1.125
 50
25.0
 51
90.0
  0
ARC
  5
E72E
  8
0
 10
70.033884385660031
 20
58.171270728817603
 30
0.0
 40
2.25
 50
90.0
 51
120.0
  0
LINE
  5
E72F
  8
2
 10
158.1365417432084
 20
51.921271728817572
 30
0.0
 11
151.7865417432084
 21
51.921271728817572
 31
0.0
1001
GENIUS_GENOREF_13
1005
0
  0
LINE
  5
E731
  8
0
 10
158.56154174320841
 20
47.921271728817601
 30
0.0
 11
151.36154174320839
 21
47.921271728817537
 31
0.0
1001
GENIUS_GENOREF_13
1005
0
  0
LINE
  5
E732
  8
0
 10
162.6892011007568
 20
60.421270728817603
 30
0.0
 11
154.96154374320841
 21
60.421270728817603
 31
0.0
  0
CIRCLE
  5
E733
  8
0
 10
154.96154174320839
 20
57.421270728817611
 30
0.0
 40
1.25
  0
LINE
  5
E734
  8
0
 10
158.33998207949301
 20
53.776776493981032
 30
0.0
 11
154.24292371128061
 21
54.452016364391277
 31
0.0
  0
LINE
  5
E735
  8
0
 10
157.89091365697919
 20
52.921271728817601
 30
0.0
 11
152.03216982943761
 21
52.921271728817537
 31
0.0
1001
GENIUS_GENOREF_13
1005
0
  0
LINE
  5
E736
  8
0
 10
80.968685743208496
 20
109.06960183796789
 30
0.0
 11
80.968685743208496
 21
105.8133528379679
 31
0.0
  0
ARC
  5
E737
  8
0
 10
80.218685743208511
 20
99.350852837967977
 30
0.0
 40
0.75
 50
359.99999000000003
 51
90.0
  0
ARC
  5
E738
  8
0
 10
80.218685743208511
 20
105.8133528379679
 30
0.0
 40
0.75
 50
270.0
 51
0.0
  0
LINE
  5
E739
  8
0
 10
80.968685743208496
 20
99.313352837967955
 30
0.0
 11
80.968685743208496
 21
96.188352837967955
 31
0.0
  0
ARC
  5
E73A
  8
0
 10
80.6115437432085
 20
100.9633528379679
 30
0.0
 40
0.75
 50
270.0
 51
0.0
  0
ARC
  5
E73B
  8
0
 10
80.6115437432085
 20
104.16335283796801
 30
0.0
 40
0.75
 50
0.0
 51
90.0
  0
ARC
  5
E73C
  8
0
 10
80.218685743208511
 20
109.06960183796789
 30
0.0
 40
0.75
 50
0.0
 51
90.0
  0
ARC
  5
E73D
  8
0
 10
80.6115437432085
 20
109.5946028379679
 30
0.0
 40
0.75
 50
0.0
 51
90.0
  0
LINE
  5
E73F
  8
0
 10
81.011543743208463
 20
57.171270728817603
 30
0.0
 11
81.361543743208472
 21
47.921271728817601
 31
0.0
  0
LINE
  5
E740
  8
2
 10
80.936543743208475
 20
49.921271728817601
 30
0.0
 11
79.961543743208466
 21
49.921271728817601
 31
0.0
  0
LINE
  5
E741
  8
2
 10
79.961543743208495
 20
49.921271728817601
 30
0.0
 11
79.961543743208495
 21
47.921271728817601
 31
0.0
  0
LINE
  5
E742
  8
2
 10
79.261543743208478
 20
47.921271728817601
 30
0.0
 11
79.261543743208478
 21
51.921271728817601
 31
0.0
  0
LINE
  5
E743
  8
2
 10
79.011543743208478
 20
47.921271728817601
 30
0.0
 11
79.011543743208478
 21
51.921271728817601
 31
0.0
  0
LINE
  5
E744
  8
2
 10
80.936543743208475
 20
51.921271728817601
 30
0.0
 11
80.936543743208475
 21
49.921271728817601
 31
0.0
  0
LINE
  5
E746
  8
0
 10
151.72100120369049
 20
57.421270728817632
 30
0.0
 11
151.36154174320839
 21
47.921271728817601
 31
0.0
  0
ARC
  5
E747
  8
0
 10
154.7299288311807
 20
57.421270728817611
 30
0.0
 40
3.0089276274901691
 50
85.585238677006345
 51
260.68551032355452
  0
LINE
  5
E748
  8
2
 10
151.7865417432084
 20
49.921271728817572
 30
0.0
 11
152.7615417432084
 21
49.921271728817572
 31
0.0
  0
ARC
  5
E749
  8
0
 10
152.03216982943761
 20
52.421271728817572
 30
0.0
 40
0.5
 50
90.000000000000725
 51
177.8330850827758
1001
GENIUS_GENOREF_13
1005
0
1001
GENIUS_GENODEF_13
1002
{
1000
HIER
1070
     0
1002
}
1002
{
1000
MANEDIT
1070
     0
1002
}
1002
{
1000
NOSEL
1070
     0
1002
}
1002
{
1000
BEHIND
1070
     0
1002
}
1002
{
1000
REACTOR
1002
}
1001
GENIUS_GENOBJ-N-FIL_13
1002
{
1000
OWNER
1000
GEN
1002
}
  0
LINE
  5
E74A
  8
2
 10
151.7865417432084
 20
51.921271728817572
 30
0.0
 11
151.7865417432084
 21
49.921271728817572
 31
0.0
  0
LINE
  5
E74B
  8
2
 10
153.46154174320839
 20
47.921271728817572
 30
0.0
 11
153.46154174320839
 21
51.921271728817572
 31
0.0
  0
LINE
  5
E74C
  8
2
 10
153.71154174320839
 20
47.921271728817572
 30
0.0
 11
153.71154174320839
 21
51.921271728817572
 31
0.0
  0
LINE
  5
E74D
  8
2
 10
152.7615417432084
 20
49.921271728817572
 30
0.0
 11
152.7615417432084
 21
47.921271728817572
 31
0.0
  0
LINE
  5
E74E
  8
0
 10
161.2887826761133
 20
52.62127172881759
 30
0.0
 11
159.66868374320839
 21
57.079795328852242
 31
0.0
  0
ARC
  5
E74F
  8
0
 10
157.92199583512101
 20
50.301825055541059
 30
0.0
 40
3.5
 50
3.442850557114729
 51
83.141101834750927
1001
GENIUS_GENODEF_13
1002
{
1000
HIER
1070
     0
1002
}
1002
{
1000
MANEDIT
1070
     0
1002
}
1002
{
1000
NOSEL
1070
     0
1002
}
1002
{
1000
BEHIND
1070
     0
1002
}
1002
{
1000
REACTOR
1002
}
1001
GENIUS_GENOBJ-N-FIL_13
1002
{
1000
OWNER
1000
GEN
1002
}
  0
LINE
  5
E750
  8
2
 10
157.1615417432084
 20
49.921271728817572
 30
0.0
 11
157.1615417432084
 21
47.921271728817572
 31
0.0
  0
LINE
  5
E751
  8
2
 10
156.46154174320839
 20
47.921271728817572
 30
0.0
 11
156.46154174320839
 21
51.921271728817572
 31
0.0
  0
LINE
  5
E752
  8
2
 10
156.21154174320839
 20
47.921271728817572
 30
0.0
 11
156.21154174320839
 21
51.921271728817572
 31
0.0
  0
LINE
  5
E753
  8
2
 10
158.1365417432084
 20
51.921271728817572
 30
0.0
 11
158.1365417432084
 21
49.921271728817572
 31
0.0
  0
LINE
  5
E754
  8
2
 10
158.1365417432084
 20
49.921271728817572
 30
0.0
 11
157.16154174320829
 21
49.921271728817572
 31
0.0
  0
LINE
  5
E755
  8
0
 10
158.56154174320841
 20
47.921271728817601
 30
0.0
 11
158.33998207949301
 21
53.776776493981032
 31
0.0
  0
ARC
  5
E756
  8
0
 10
157.89091365697919
 20
52.421271728817629
 30
0.0
 40
0.5
 50
2.1669149172247102
 51
90.000000000000725
1001
GENIUS_GENODEF_13
1002
{
1000
HIER
1070
     0
1002
}
1002
{
1000
MANEDIT
1070
     0
1002
}
1002
{
1000
NOSEL
1070
     0
1002
}
1002
{
1000
BEHIND
1070
     0
1002
}
1002
{
1000
REACTOR
1002
}
1001
GENIUS_GENOBJ-N-FIL_13
1002
{
1000
OWNER
1000
GEN
1002
}
  0
LINE
  5
E757
  8
0
 10
161.2887826761133
 20
52.62127172881759
 30
0.0
 11
161.41567901590099
 21
50.512010288930441
 31
0.0
  0
LINE
  5
E758
  8
0
 10
161.5715417432084
 20
47.921271728817601
 30
0.0
 11
161.41567901590111
 21
50.512010288928963
 31
0.0
  0
LINE
  5
E759
  8
0
 10
159.66868374320839
 20
57.079795328852242
 30
0.0
 11
161.7678506796253
 21
59.959032361608422
 31
0.0
  0
ARC
  5
E75A
  8
0
 10
162.67690074320839
 20
59.296270728817611
 30
0.0
 40
1.125
 50
90.0
 51
143.90531151659101
  0
ARC
  5
E75B
  8
0
 10
162.6892011007568
 20
58.171270728817603
 30
0.0
 40
2.25
 50
60.0
 51
90.0
  0
LINE
  5
E75C
  8
2
 10
166.7865417432084
 20
51.921271728817601
 30
0.0
 11
166.7865417432084
 21
49.921271728817601
 31
0.0
  0
LINE
  5
E75D
  8
2
 10
166.7865417432084
 20
49.921271728817601
 30
0.0
 11
167.7615417432084
 21
49.921271728817601
 31
0.0
  0
LINE
  5
E75E
  8
2
 10
167.7615417432084
 20
49.921271728817601
 30
0.0
 11
167.7615417432084
 21
47.921271728817601
 31
0.0
  0
LINE
  5
E75F
  8
2
 10
171.46154174320839
 20
47.921271728817601
 30
0.0
 11
171.46154174320839
 21
51.921271728817601
 31
0.0
  0
LINE
  5
E760
  8
2
 10
171.21154174320839
 20
47.921271728817601
 30
0.0
 11
171.21154174320839
 21
51.921271728817601
 31
0.0
  0
LINE
  5
E761
  8
2
 10
168.46154174320839
 20
47.921271728817601
 30
0.0
 11
168.46154174320839
 21
51.921271728817601
 31
0.0
  0
LINE
  5
E762
  8
2
 10
168.71154174320839
 20
47.921271728817601
 30
0.0
 11
168.71154174320839
 21
51.921271728817601
 31
0.0
  0
LINE
  5
E763
  8
1
 10
169.96154174320839
 20
46.421271728817587
 30
0.0
 11
169.9615417432083
 21
53.421271728817629
 31
0.0
  0
LINE
  5
E764
  8
3
 10
5.0024709014338384
 20
52.338994388772591
 30
0.0
 11
34.729184584983223
 21
52.338994388772562
 31
0.0
  0
LINE
  5
E765
  8
3
 10
23.014427717273179
 20
55.980091542742997
 30
0.0
 11
23.05650713169533
 21
55.934505510452261
 31
0.0
  0
LINE
  5
E766
  8
3
 10
23.421195390020898
 20
54.346007616014901
 30
0.0
 11
22.923255652691779
 21
54.346007616014901
 31
0.0
  0
LINE
  5
E767
  8
0
 10
34.865826743208551
 20
47.921271728817601
 30
0.0
 11
4.8658287432085379
 21
47.921271728817601
 31
0.0
  0
LINE
  5
E769
  8
0
 10
33.996793576924723
 20
60.344603837967867
 30
0.0
 11
5.7348619094923086
 21
60.344603837968009
 31
0.0
  0
LINE
  5
E76A
  8
2
 10
173.1365417432084
 20
51.921271728817601
 30
0.0
 11
173.1365417432084
 21
49.921271728817601
 31
0.0
  0
LINE
  5
E76B
  8
2
 10
173.1365417432084
 20
49.921271728817601
 30
0.0
 11
172.1615417432084
 21
49.921271728817601
 31
0.0
  0
LINE
  5
E76C
  8
2
 10
172.1615417432084
 20
49.921271728817601
 30
0.0
 11
172.1615417432084
 21
47.921271728817601
 31
0.0
  0
ARC
  5
E76D
  8
0
 10
174.7395928191045
 20
50.832795326697862
 30
0.0
 40
3.0
 50
2.8849663966451411
 51
57.388640213142843
1001
GENIUS_GENODEF_13
1002
{
1000
HIER
1070
     0
1002
}
1002
{
1000
MANEDIT
1070
     0
1002
}
1002
{
1000
NOSEL
1070
     0
1002
}
1002
{
1000
BEHIND
1070
     0
1002
}
1002
{
1000
REACTOR
1002
}
1001
GENIUS_GENOBJ-N-FIL_13
1002
{
1000
OWNER
1000
GEN
1002
}
  0
LINE
  5
E76E
  8
0
 10
177.86154174320839
 20
47.921271728817601
 30
0.0
 11
177.7357906121382
 21
50.983787992149132
 31
0.0
  0
LINE
  5
E76F
  8
0
 10
4.8658287432085379
 20
47.921271728817601
 30
0.0
 11
5.2351009112311706
 21
59.860061671484402
 31
0.0
  0
ARC
  5
E770
  8
0
 10
5.7348619094923086
 20
59.844603837968002
 30
0.0
 40
0.5
 50
89.999999999999943
 51
178.22838046909311
1001
GENIUS_GENODEF_13
1002
{
1000
HIER
1070
     0
1002
}
1002
{
1000
MANEDIT
1070
     0
1002
}
1002
{
1000
NOSEL
1070
     0
1002
}
1002
{
1000
BEHIND
1070
     0
1002
}
1002
{
1000
REACTOR
1002
}
1001
GENIUS_GENOBJ-N-FIL_13
1002
{
1000
OWNER
1000
GEN
1002
}
  0
LINE
  5
E771
  8
2
 10
15.540827743208521
 20
49.921271728817601
 30
0.0
 11
14.56582774320853
 21
49.921271728817601
 31
0.0
  0
LINE
  5
E772
  8
2
 10
15.540827743208521
 20
51.921271728817629
 30
0.0
 11
9.1908277432085583
 21
51.921271728817601
 31
0.0
1001
GENIUS_GENOREF_13
1005
0
  0
LINE
  5
E773
  8
2
 10
9.1908277432085583
 20
49.921271728817601
 30
0.0
 11
10.165827743208551
 21
49.921271728817601
 31
0.0
  0
LINE
  5
E774
  8
2
 10
9.1908277432085583
 20
51.921271728817601
 30
0.0
 11
9.1908277432085583
 21
49.921271728817601
 31
0.0
  0
LINE
  5
E775
  8
2
 10
10.165827743208521
 20
49.921271728817601
 30
0.0
 11
10.165827743208521
 21
47.921271728817601
 31
0.0
  0
LINE
  5
E776
  8
2
 10
10.86582774320854
 20
47.921271728817601
 30
0.0
 11
10.86582774320854
 21
51.921271728817601
 31
0.0
  0
LINE
  5
E777
  8
2
 10
14.56582774320856
 20
49.921271728817601
 30
0.0
 11
14.56582774320856
 21
47.921271728817601
 31
0.0
  0
LINE
  5
E778
  8
2
 10
11.11582774320854
 20
47.921271728817601
 30
0.0
 11
11.11582774320854
 21
51.921271728817601
 31
0.0
  0
LINE
  5
E779
  8
2
 10
13.61582774320854
 20
47.921271728817601
 30
0.0
 11
13.61582774320854
 21
51.921271728817601
 31
0.0
  0
LINE
  5
E77A
  8
2
 10
13.86582774320854
 20
47.921271728817601
 30
0.0
 11
13.86582774320854
 21
51.921271728817601
 31
0.0
  0
LINE
  5
E77B
  8
1
 10
12.36582774320854
 20
46.421271728817587
 30
0.0
 11
12.365827743208531
 21
53.421271728817601
 31
0.0
  0
LINE
  5
E77C
  8
3
 10
21.36982393693955
 20
55.068370896929054
 30
0.0
 11
21.36982393693955
 21
55.022784864638361
 31
0.0
  0
LINE
  5
E77D
  8
3
 10
21.464502619389439
 20
55.033304718243841
 30
0.0
 11
21.464502619389439
 21
55.068370896929054
 31
0.0
  0
LINE
  5
E77E
  8
3
 10
20.773698899291961
 20
55.050837807586468
 30
0.0
 11
20.770192281423451
 21
55.064864279060508
 31
0.0
  0
POLYLINE
  5
E77F
  8
3
 66
     1
 10
0.0
 20
0.0
 30
0.0
 70
     1
  0
VERTEX
  5
E780
  8
3
 10
22.092187217853681
 20
55.106943693482712
 30
0.0
  0
VERTEX
  5
E781
  8
3
 10
22.58311371944578
 20
55.106943693482712
 30
0.0
  0
VERTEX
  5
E782
  8
3
 10
22.58662033731429
 20
55.099930457745728
 30
0.0
  0
VERTEX
  5
E783
  8
3
 10
22.590126955182829
 20
55.092917222008623
 30
0.0
  0
VERTEX
  5
E784
  8
3
 10
22.590126955182829
 20
55.089410604140141
 30
0.0
  0
VERTEX
  5
E785
  8
3
 10
22.590126955182829
 20
55.082397368403122
 30
0.0
  0
VERTEX
  5
E786
  8
3
 10
22.58662033731429
 20
55.07889075053459
 30
0.0
  0
VERTEX
  5
E787
  8
3
 10
22.58311371944578
 20
55.071877514797592
 30
0.0
  0
VERTEX
  5
E788
  8
3
 10
22.579607101577299
 20
55.064864279060508
 30
0.0
  0
VERTEX
  5
E789
  8
3
 10
22.572593865840251
 20
55.057851043323502
 30
0.0
  0
VERTEX
  5
E78A
  8
3
 10
22.565580630103231
 20
55.054344425454993
 30
0.0
  0
VERTEX
  5
E78B
  8
3
 10
22.558567394366179
 20
55.047331189717958
 30
0.0
  0
VERTEX
  5
E78C
  8
3
 10
22.551554158629159
 20
55.04031795398091
 30
0.0
  0
VERTEX
  5
E78D
  8
3
 10
22.544540922892111
 20
55.033304718243841
 30
0.0
  0
VERTEX
  5
E78E
  8
3
 10
22.537527687155059
 20
55.029798100375388
 30
0.0
  0
VERTEX
  5
E78F
  8
3
 10
22.530514451418071
 20
55.022784864638361
 30
0.0
  0
VERTEX
  5
E790
  8
3
 10
22.519994597812509
 20
55.012265011032838
 30
0.0
  0
VERTEX
  5
E791
  8
3
 10
22.498954890601429
 20
54.99823853955877
 30
0.0
  0
VERTEX
  5
E792
  8
3
 10
22.474408565521831
 20
54.98421206808473
 30
0.0
  0
VERTEX
  5
E793
  8
3
 10
22.453368858310739
 20
54.973692214479151
 30
0.0
  0
VERTEX
  5
E794
  8
3
 10
22.432329151099619
 20
54.966678978742067
 30
0.0
  0
VERTEX
  5
E795
  8
3
 10
22.407782826020021
 20
54.959665743005097
 30
0.0
  0
VERTEX
  5
E796
  8
3
 10
22.386743118808941
 20
54.95265250726802
 30
0.0
  0
VERTEX
  5
E797
  8
3
 10
22.362196793729339
 20
54.945639271531007
 30
0.0
  0
VERTEX
  5
E798
  8
3
 10
22.337650468649741
 20
54.942132653662497
 30
0.0
  0
VERTEX
  5
E799
  8
3
 10
22.313104143570111
 20
54.938626035793959
 30
0.0
  0
VERTEX
  5
E79A
  8
3
 10
22.288557818490521
 20
54.938626035793959
 30
0.0
  0
VERTEX
  5
E79B
  8
3
 10
22.264011493410891
 20
54.938626035793959
 30
0.0
  0
VERTEX
  5
E79C
  8
3
 10
22.239465168331289
 20
54.938626035793959
 30
0.0
  0
VERTEX
  5
E79D
  8
3
 10
22.21842546112023
 20
54.942132653662497
 30
0.0
  0
VERTEX
  5
E79E
  8
3
 10
22.193879136040611
 20
54.945639271531007
 30
0.0
  0
VERTEX
  5
E79F
  8
3
 10
22.148293103749889
 20
54.95615912513653
 30
0.0
  0
VERTEX
  5
E7A0
  8
3
 10
22.137773250144331
 20
54.959665743005097
 30
0.0
  0
VERTEX
  5
E7A1
  8
3
 10
22.130760014407318
 20
54.963172360873578
 30
0.0
  0
VERTEX
  5
E7A2
  8
3
 10
22.120240160801782
 20
54.966678978742067
 30
0.0
  0
VERTEX
  5
E7A3
  8
3
 10
22.11322692506474
 20
54.973692214479151
 30
0.0
  0
VERTEX
  5
E7A4
  8
3
 10
22.106213689327721
 20
54.977198832347618
 30
0.0
  0
VERTEX
  5
E7A5
  8
3
 10
22.099200453590669
 20
54.98421206808473
 30
0.0
  0
VERTEX
  5
E7A6
  8
3
 10
22.092187217853681
 20
54.991225303821722
 30
0.0
  0
VERTEX
  5
E7A7
  8
3
 10
22.088680599985171
 20
54.99823853955877
 30
0.0
  0
VERTEX
  5
E7A8
  8
3
 10
22.081667364248119
 20
55.005251775295761
 30
0.0
  0
VERTEX
  5
E7A9
  8
3
 10
22.078160746379609
 20
55.012265011032838
 30
0.0
  0
VERTEX
  5
E7AA
  8
3
 10
22.074654128511071
 20
55.019278246769858
 30
0.0
  0
VERTEX
  5
E7AB
  8
3
 10
22.071147510642561
 20
55.026291482506849
 30
0.0
  0
VERTEX
  5
E7AC
  8
3
 10
22.067640892774051
 20
55.033304718243841
 30
0.0
  0
VERTEX
  5
E7AD
  8
3
 10
22.064134274905541
 20
55.043824571849399
 30
0.0
  0
VERTEX
  5
E7AE
  8
3
 10
22.060627657036999
 20
55.061357661192041
 30
0.0
  0
VERTEX
  5
E7AF
  8
3
 10
22.085173982116629
 20
55.10343707561421
 30
0.0
  0
VERTEX
  5
E7B0
  8
3
 10
22.088680599985171
 20
55.10343707561421
 30
0.0
  0
VERTEX
  5
E7B1
  8
3
 10
22.092187217853681
 20
55.106943693482712
 30
0.0
  0
SEQEND
  5
E7B2
  8
3
  0
LINE
  5
E7B3
  8
3
 10
18.87661863242527
 20
55.022784864638361
 30
0.0
 11
18.862592160951181
 21
55.068370896929054
 31
0.0
  0
LINE
  5
E7B4
  8
3
 10
18.136722262168568
 20
54.966678978742067
 30
0.0
 11
18.115682554957459
 21
55.099930457745728
 31
0.0
  0
LINE
  5
E7B5
  8
3
 10
18.753887007027231
 20
55.068370896929054
 30
0.0
 11
18.757393624895769
 21
55.043824571849399
 31
0.0
  0
LINE
  5
E7B6
  8
3
 10
19.574435588259771
 20
55.075384132666073
 30
0.0
 11
19.588462059733839
 21
55.061357661192041
 31
0.0
  0
LINE
  5
E7B7
  8
3
 10
17.186428819800959
 20
55.082397368403122
 30
0.0
 11
17.242534705697182
 21
55.054344425454993
 31
0.0
  0
LINE
  5
E7B8
  8
3
 10
16.478092010360911
 20
55.022784864638361
 30
0.0
 11
16.460558921018329
 21
55.07889075053459
 31
0.0
  0
LINE
  5
E7B9
  8
3
 10
19.062469379456559
 20
54.703682638603482
 30
0.0
 11
19.030909818639941
 21
54.738748817288638
 31
0.0
  0
LINE
  5
E7BA
  8
3
 10
19.037923054376961
 20
54.482765712887009
 30
0.0
 11
19.05545614371951
 21
54.465232623544409
 31
0.0
  0
LINE
  5
E7BB
  8
3
 10
19.129095118958329
 20
54.384580412568589
 30
0.0
 11
18.364652423622061
 21
54.384580412568589
 31
0.0
  0
LINE
  5
E7BC
  8
2
 10
15.540827743208521
 20
51.921271728817601
 30
0.0
 11
15.540827743208521
 21
49.921271728817601
 31
0.0
  0
LINE
  5
E7BD
  8
3
 10
18.932724518321521
 20
54.89304000350333
 30
0.0
 11
18.911684811110401
 21
54.93511941792547
 31
0.0
  0
LINE
  5
E7BE
  8
3
 10
18.080616376272332
 20
54.931612800056968
 30
0.0
 11
18.07360314053528
 21
54.90355985710886
 31
0.0
  0
LINE
  5
E7BF
  8
3
 10
18.792459803580901
 20
54.931612800056968
 30
0.0
 11
18.799473039317942
 21
54.910573092845851
 31
0.0
  0
LINE
  5
E7C0
  8
3
 10
18.16828182298519
 20
54.833427499738519
 30
0.0
 11
18.136722262168568
 21
54.966678978742067
 31
0.0
  0
LINE
  5
E7C1
  8
3
 10
19.006363493560311
 20
54.777321613842297
 30
0.0
 11
18.978310550612179
 21
54.812387792527403
 31
0.0
  0
LINE
  5
E7C2
  8
3
 10
19.030909818639941
 20
54.738748817288638
 30
0.0
 11
19.006363493560311
 21
54.777321613842297
 31
0.0
  0
LINE
  5
E7C3
  8
3
 10
18.978310550612179
 20
54.812387792527403
 30
0.0
 11
18.953764225532609
 21
54.854467206949607
 31
0.0
  0
LINE
  5
E7C4
  8
3
 10
18.953764225532609
 20
54.854467206949607
 30
0.0
 11
18.932724518321521
 21
54.89304000350333
 31
0.0
  0
LINE
  5
E7C5
  8
3
 10
18.873112014556739
 20
54.735242199420071
 30
0.0
 11
18.883631868162301
 21
54.707189256471992
 31
0.0
  0
LINE
  5
E7C6
  8
3
 10
18.883631868162301
 20
54.707189256471992
 30
0.0
 11
18.89765833963634
 21
54.679136313523848
 31
0.0
  0
LINE
  5
E7C7
  8
3
 10
18.89765833963634
 20
54.679136313523848
 30
0.0
 11
18.911684811110401
 21
54.654589988444251
 31
0.0
  0
LINE
  5
E7C8
  8
3
 10
18.911684811110401
 20
54.654589988444251
 30
0.0
 11
18.925711282584469
 21
54.630043663364631
 31
0.0
  0
LINE
  5
E7C9
  8
3
 10
18.925711282584469
 20
54.630043663364631
 30
0.0
 11
18.939737754058541
 21
54.609003956153572
 31
0.0
  0
LINE
  5
E7CA
  8
3
 10
18.939737754058541
 20
54.609003956153572
 30
0.0
 11
18.957270843401119
 21
54.584457631073967
 31
0.0
  0
LINE
  5
E7CB
  8
3
 10
18.957270843401119
 20
54.584457631073967
 30
0.0
 11
18.971297314875159
 21
54.563417923862893
 31
0.0
  0
LINE
  5
E7CC
  8
3
 10
18.971297314875159
 20
54.563417923862893
 30
0.0
 11
18.98883040421774
 21
54.54237821665177
 31
0.0
  0
LINE
  5
E7CD
  8
3
 10
18.98883040421774
 20
54.54237821665177
 30
0.0
 11
19.002856875691769
 21
54.52484512730922
 31
0.0
  0
LINE
  5
E7CE
  8
3
 10
19.002856875691769
 20
54.52484512730922
 30
0.0
 11
19.020389965034379
 21
54.503805420098132
 31
0.0
  0
LINE
  5
E7CF
  8
3
 10
19.020389965034379
 20
54.503805420098132
 30
0.0
 11
19.037923054376961
 21
54.482765712887009
 31
0.0
  0
LINE
  5
E7D0
  8
3
 10
18.827525982266081
 20
54.826414264001492
 30
0.0
 11
18.838045835871611
 21
54.805374556790412
 31
0.0
  0
LINE
  5
E7D1
  8
3
 10
18.838045835871611
 20
54.805374556790412
 30
0.0
 11
18.845059071608599
 21
54.787841467447862
 31
0.0
  0
LINE
  5
E7D2
  8
3
 10
18.845059071608599
 20
54.787841467447862
 30
0.0
 11
18.852072307345651
 21
54.766801760236767
 31
0.0
  0
LINE
  5
E7D3
  8
3
 10
18.852072307345651
 20
54.766801760236767
 30
0.0
 11
18.873112014556739
 21
54.735242199420071
 31
0.0
  0
LINE
  5
E7D4
  8
3
 10
18.07360314053528
 20
54.90355985710886
 30
0.0
 11
18.070096522666802
 21
54.875506914160717
 31
0.0
  0
LINE
  5
E7D5
  8
3
 10
18.070096522666802
 20
54.875506914160717
 30
0.0
 11
18.066589904798288
 21
54.843947353344113
 31
0.0
  0
LINE
  5
E7D6
  8
3
 10
18.066589904798288
 20
54.843947353344113
 30
0.0
 11
18.05957666906124
 21
54.812387792527403
 31
0.0
  0
LINE
  5
E7D7
  8
3
 10
18.05957666906124
 20
54.812387792527403
 30
0.0
 11
18.05607005119273
 21
54.777321613842297
 31
0.0
  0
LINE
  5
E7D8
  8
3
 10
18.05607005119273
 20
54.777321613842297
 30
0.0
 11
18.052563433324188
 21
54.745762053025629
 31
0.0
  0
LINE
  5
E7D9
  8
3
 10
18.052563433324188
 20
54.745762053025629
 30
0.0
 11
18.049056815455678
 21
54.71069587434053
 31
0.0
  0
LINE
  5
E7DA
  8
3
 10
18.049056815455678
 20
54.71069587434053
 30
0.0
 11
18.045550197587168
 21
54.679136313523848
 31
0.0
  0
LINE
  5
E7DB
  8
3
 10
18.045550197587168
 20
54.679136313523848
 30
0.0
 11
18.038536961850131
 21
54.644070134838671
 31
0.0
  0
LINE
  5
E7DC
  8
3
 10
18.038536961850131
 20
54.644070134838671
 30
0.0
 11
18.03503034398161
 21
54.612510574022139
 31
0.0
  0
LINE
  5
E7DD
  8
3
 10
18.03503034398161
 20
54.612510574022139
 30
0.0
 11
18.028017108244619
 21
54.580951013205407
 31
0.0
  0
LINE
  5
E7DE
  8
3
 10
18.028017108244619
 20
54.580951013205407
 30
0.0
 11
18.013990636770529
 21
54.521338509440682
 31
0.0
  0
LINE
  5
E7DF
  8
3
 10
18.013990636770529
 20
54.521338509440682
 30
0.0
 11
18.003470783165
 21
54.507312037966578
 31
0.0
  0
LINE
  5
E7E0
  8
3
 10
18.003470783165
 20
54.507312037966578
 30
0.0
 11
17.996457547427951
 21
54.493285566492553
 31
0.0
  0
LINE
  5
E7E1
  8
3
 10
17.996457547427951
 20
54.493285566492553
 30
0.0
 11
17.989444311690931
 21
54.482765712887009
 31
0.0
  0
LINE
  5
E7E2
  8
3
 10
17.989444311690931
 20
54.482765712887009
 30
0.0
 11
17.978924458085402
 21
54.472245859281479
 31
0.0
  0
LINE
  5
E7E3
  8
3
 10
17.978924458085402
 20
54.472245859281479
 30
0.0
 11
17.96840460447984
 21
54.461726005675899
 31
0.0
  0
LINE
  5
E7E4
  8
3
 10
18.259453887566622
 20
54.563417923862893
 30
0.0
 11
18.206854619538859
 21
54.700176020734972
 31
0.0
  0
LINE
  5
E7E5
  8
3
 10
18.206854619538859
 20
54.700176020734972
 30
0.0
 11
18.16828182298519
 21
54.833427499738519
 31
0.0
  0
LINE
  5
E7E6
  8
3
 10
18.799473039317942
 20
54.910573092845851
 30
0.0
 11
18.80648627505493
 21
54.889533385634763
 31
0.0
  0
LINE
  5
E7E7
  8
3
 10
18.80648627505493
 20
54.889533385634763
 30
0.0
 11
18.813499510791981
 21
54.86849367842364
 31
0.0
  0
LINE
  5
E7E8
  8
3
 10
18.813499510791981
 20
54.86849367842364
 30
0.0
 11
18.820512746529001
 21
54.847453971212623
 31
0.0
  0
LINE
  5
E7E9
  8
3
 10
18.820512746529001
 20
54.847453971212623
 30
0.0
 11
18.827525982266081
 21
54.826414264001492
 31
0.0
  0
LINE
  5
E7EA
  8
3
 10
18.89415172176782
 20
54.977198832347618
 30
0.0
 11
18.87661863242527
 21
55.022784864638361
 31
0.0
  0
LINE
  5
E7EB
  8
3
 10
18.764406860632789
 20
55.022784864638361
 30
0.0
 11
18.771420096369781
 21
54.99823853955877
 31
0.0
  0
LINE
  5
E7EC
  8
3
 10
17.659822232050509
 20
54.991225303821722
 30
0.0
 11
17.729954589420799
 21
54.991225303821722
 31
0.0
  0
LINE
  5
E7ED
  8
3
 10
17.729954589420799
 20
54.991225303821722
 30
0.0
 11
17.800086946791112
 21
54.994731921690203
 31
0.0
  0
LINE
  5
E7EE
  8
3
 10
17.800086946791112
 20
54.994731921690203
 30
0.0
 11
17.86671268629291
 21
54.99823853955877
 31
0.0
  0
LINE
  5
E7EF
  8
3
 10
17.86671268629291
 20
54.99823853955877
 30
0.0
 11
17.926325190057671
 21
55.001745157427273
 31
0.0
  0
LINE
  5
E7F0
  8
3
 10
17.926325190057671
 20
55.001745157427273
 30
0.0
 11
17.982431075953912
 21
55.005251775295761
 31
0.0
  0
LINE
  5
E7F1
  8
3
 10
17.982431075953912
 20
55.005251775295761
 30
0.0
 11
18.031523726113129
 21
55.0087583931643
 31
0.0
  0
LINE
  5
E7F2
  8
3
 10
18.031523726113129
 20
55.0087583931643
 30
0.0
 11
18.101656083483419
 21
55.012265011032838
 31
0.0
  0
LINE
  5
E7F3
  8
3
 10
18.101656083483419
 20
55.012265011032838
 30
0.0
 11
18.091136229877861
 21
54.987718685953212
 31
0.0
  0
LINE
  5
E7F4
  8
3
 10
18.091136229877861
 20
54.987718685953212
 30
0.0
 11
18.084122994140841
 21
54.959665743005097
 31
0.0
  0
LINE
  5
E7F5
  8
3
 10
18.771420096369781
 20
54.99823853955877
 30
0.0
 11
18.778433332106861
 21
54.977198832347618
 31
0.0
  0
LINE
  5
E7F6
  8
3
 10
18.757393624895769
 20
55.043824571849399
 30
0.0
 11
18.764406860632789
 21
55.022784864638361
 31
0.0
  0
LINE
  5
E7F7
  8
3
 10
18.785446567843849
 20
54.95265250726802
 30
0.0
 11
18.792459803580901
 21
54.931612800056968
 31
0.0
  0
LINE
  5
E7F8
  8
3
 10
18.084122994140841
 20
54.959665743005097
 30
0.0
 11
18.080616376272332
 21
54.931612800056968
 31
0.0
  0
LINE
  5
E7F9
  8
3
 10
18.911684811110401
 20
54.93511941792547
 30
0.0
 11
18.89415172176782
 21
54.977198832347618
 31
0.0
  0
LINE
  5
E7FA
  8
3
 10
18.778433332106861
 20
54.977198832347618
 30
0.0
 11
18.785446567843849
 21
54.95265250726802
 31
0.0
  0
LINE
  5
E7FB
  8
3
 10
17.95788475087431
 20
54.451206152070341
 30
0.0
 11
17.947364897268749
 21
54.440686298464811
 31
0.0
  0
LINE
  5
E7FC
  8
3
 10
17.947364897268749
 20
54.440686298464811
 30
0.0
 11
17.933338425794691
 21
54.433673062727792
 31
0.0
  0
LINE
  5
E7FD
  8
3
 10
17.933338425794691
 20
54.433673062727792
 30
0.0
 11
17.922818572189129
 21
54.426659826990772
 31
0.0
  0
LINE
  5
E7FE
  8
3
 10
17.922818572189129
 20
54.426659826990772
 30
0.0
 11
17.90879210071509
 21
54.419646591253752
 31
0.0
  0
LINE
  5
E7FF
  8
3
 10
17.90879210071509
 20
54.419646591253752
 30
0.0
 11
17.894765629241022
 21
54.412633355516711
 31
0.0
  0
LINE
  5
E800
  8
3
 10
17.894765629241022
 20
54.412633355516711
 30
0.0
 11
17.88073915776695
 21
54.405620119779677
 31
0.0
  0
LINE
  5
E801
  8
3
 10
17.88073915776695
 20
54.405620119779677
 30
0.0
 11
17.86671268629291
 21
54.402113501911138
 31
0.0
  0
LINE
  5
E802
  8
3
 10
17.86671268629291
 20
54.402113501911138
 30
0.0
 11
17.852686214818839
 21
54.395100266174119
 31
0.0
  0
LINE
  5
E803
  8
3
 10
17.852686214818839
 20
54.395100266174119
 30
0.0
 11
17.828139889739251
 21
54.391593648305623
 31
0.0
  0
LINE
  5
E804
  8
3
 10
17.828139889739251
 20
54.391593648305623
 30
0.0
 11
17.765020768105948
 21
54.388087030437127
 31
0.0
  0
LINE
  5
E805
  8
3
 10
17.765020768105948
 20
54.388087030437127
 30
0.0
 11
17.701901646472692
 21
54.384580412568589
 31
0.0
  0
LINE
  5
E806
  8
3
 10
17.701901646472692
 20
54.384580412568589
 30
0.0
 11
17.638782524839399
 21
54.384580412568589
 31
0.0
  0
LINE
  5
E807
  8
3
 10
18.364652423622061
 20
54.384580412568589
 30
0.0
 11
18.36114580575352
 21
54.384580412568589
 31
0.0
  0
LINE
  5
E808
  8
3
 10
18.36114580575352
 20
54.384580412568589
 30
0.0
 11
18.35763918788501
 21
54.388087030437127
 31
0.0
  0
LINE
  5
E809
  8
3
 10
18.35763918788501
 20
54.388087030437127
 30
0.0
 11
18.35763918788501
 21
54.391593648305623
 31
0.0
  0
LINE
  5
E80A
  8
3
 10
18.35763918788501
 20
54.391593648305623
 30
0.0
 11
18.35763918788501
 21
54.395100266174119
 31
0.0
  0
LINE
  5
E80B
  8
3
 10
18.35763918788501
 20
54.395100266174119
 30
0.0
 11
18.3541325700165
 21
54.398606884042607
 31
0.0
  0
LINE
  5
E80C
  8
3
 10
18.3541325700165
 20
54.398606884042607
 30
0.0
 11
18.3541325700165
 21
54.402113501911138
 31
0.0
  0
LINE
  5
E80D
  8
3
 10
18.3541325700165
 20
54.402113501911138
 30
0.0
 11
18.350625952148022
 21
54.405620119779677
 31
0.0
  0
LINE
  5
E80E
  8
3
 10
18.350625952148022
 20
54.405620119779677
 30
0.0
 11
18.350625952148022
 21
54.409126737648187
 31
0.0
  0
LINE
  5
E80F
  8
3
 10
18.350625952148022
 20
54.409126737648187
 30
0.0
 11
18.350625952148022
 21
54.416139973385242
 31
0.0
  0
LINE
  5
E810
  8
3
 10
18.350625952148022
 20
54.416139973385242
 30
0.0
 11
18.34711933427948
 21
54.416139973385242
 31
0.0
  0
LINE
  5
E811
  8
3
 10
18.34711933427948
 20
54.416139973385242
 30
0.0
 11
18.34361271641097
 21
54.416139973385242
 31
0.0
  0
LINE
  5
E812
  8
3
 10
18.34361271641097
 20
54.416139973385242
 30
0.0
 11
18.34010609854246
 21
54.416139973385242
 31
0.0
  0
LINE
  5
E813
  8
3
 10
18.34010609854246
 20
54.416139973385242
 30
0.0
 11
18.34010609854246
 21
54.419646591253752
 31
0.0
  0
LINE
  5
E814
  8
3
 10
18.34010609854246
 20
54.419646591253752
 30
0.0
 11
18.33659948067395
 21
54.419646591253752
 31
0.0
  0
LINE
  5
E815
  8
3
 10
18.33659948067395
 20
54.419646591253752
 30
0.0
 11
18.333092862805412
 21
54.419646591253752
 31
0.0
  0
LINE
  5
E816
  8
3
 10
18.333092862805412
 20
54.419646591253752
 30
0.0
 11
18.329586244936898
 21
54.419646591253752
 31
0.0
  0
LINE
  5
E817
  8
3
 10
18.329586244936898
 20
54.419646591253752
 30
0.0
 11
18.326079627068388
 21
54.423153209122233
 31
0.0
  0
LINE
  5
E818
  8
3
 10
17.96840460447984
 20
54.461726005675899
 30
0.0
 11
17.95788475087431
 21
54.451206152070341
 31
0.0
  0
LINE
  5
E819
  8
3
 10
18.326079627068388
 20
54.423153209122233
 30
0.0
 11
18.259453887566622
 21
54.563417923862893
 31
0.0
  0
LINE
  5
E81A
  8
3
 10
16.537704514125661
 20
54.90005323924035
 30
0.0
 11
16.527184660520131
 21
54.917586328582871
 31
0.0
  0
LINE
  5
E81B
  8
3
 10
17.032137633586299
 20
54.458219387807382
 30
0.0
 11
16.979538365558572
 21
54.47925909501847
 31
0.0
  0
LINE
  5
E81C
  8
3
 10
16.551730985599729
 20
54.875506914160717
 30
0.0
 11
16.548224367731191
 21
54.882520149897744
 31
0.0
  0
LINE
  5
E81D
  8
3
 10
16.548224367731191
 20
54.882520149897744
 30
0.0
 11
16.541211131994171
 21
54.89304000350333
 31
0.0
  0
LINE
  5
E81E
  8
3
 10
16.541211131994171
 20
54.89304000350333
 30
0.0
 11
16.537704514125661
 21
54.90005323924035
 31
0.0
  0
LINE
  5
E81F
  8
3
 10
16.87784644737161
 20
54.538871598783231
 30
0.0
 11
16.856806740160518
 21
54.54939145238879
 31
0.0
  0
LINE
  5
E820
  8
3
 10
16.856806740160518
 20
54.54939145238879
 30
0.0
 11
16.83927365081794
 21
54.563417923862893
 31
0.0
  0
LINE
  5
E821
  8
3
 10
16.83927365081794
 20
54.563417923862893
 30
0.0
 11
16.821740561475391
 21
54.573937777468359
 31
0.0
  0
LINE
  5
E822
  8
3
 10
16.821740561475391
 20
54.573937777468359
 30
0.0
 11
16.800700854264282
 21
54.587964248942491
 31
0.0
  0
LINE
  5
E823
  8
3
 10
16.800700854264282
 20
54.587964248942491
 30
0.0
 11
16.783167764921728
 21
54.605497338285041
 31
0.0
  0
LINE
  5
E824
  8
3
 10
16.783167764921728
 20
54.605497338285041
 30
0.0
 11
16.765634675579118
 21
54.61952380975913
 31
0.0
  0
LINE
  5
E825
  8
3
 10
16.765634675579118
 20
54.61952380975913
 30
0.0
 11
16.74810158623654
 21
54.633550281233113
 31
0.0
  0
LINE
  5
E826
  8
3
 10
16.74810158623654
 20
54.633550281233113
 30
0.0
 11
16.730568496893991
 21
54.651083370575748
 31
0.0
  0
LINE
  5
E827
  8
3
 10
16.730568496893991
 20
54.651083370575748
 30
0.0
 11
16.713035407551409
 21
54.665109842049787
 31
0.0
  0
LINE
  5
E828
  8
3
 10
16.713035407551409
 20
54.665109842049787
 30
0.0
 11
16.695502318208838
 21
54.682642931392358
 31
0.0
  0
LINE
  5
E829
  8
3
 10
16.695502318208838
 20
54.682642931392358
 30
0.0
 11
16.67796922886626
 21
54.700176020734972
 31
0.0
  0
LINE
  5
E82A
  8
3
 10
16.67796922886626
 20
54.700176020734972
 30
0.0
 11
16.663942757392189
 21
54.71770911007755
 31
0.0
  0
LINE
  5
E82B
  8
3
 10
16.663942757392189
 20
54.71770911007755
 30
0.0
 11
16.64991628591812
 21
54.735242199420071
 31
0.0
  0
LINE
  5
E82C
  8
3
 10
16.64991628591812
 20
54.735242199420071
 30
0.0
 11
16.635889814444081
 21
54.752775288762678
 31
0.0
  0
LINE
  5
E82D
  8
3
 10
16.635889814444081
 20
54.752775288762678
 30
0.0
 11
16.614850107233021
 21
54.791348085316343
 31
0.0
  0
LINE
  5
E82E
  8
3
 10
16.614850107233021
 20
54.791348085316343
 30
0.0
 11
16.604330253627442
 21
54.794854703184882
 31
0.0
  0
LINE
  5
E82F
  8
3
 10
16.604330253627442
 20
54.794854703184882
 30
0.0
 11
16.59731701789039
 21
54.801867938921873
 31
0.0
  0
LINE
  5
E830
  8
3
 10
16.59731701789039
 20
54.801867938921873
 30
0.0
 11
16.59381040002188
 21
54.805374556790412
 31
0.0
  0
LINE
  5
E831
  8
3
 10
16.59381040002188
 20
54.805374556790412
 30
0.0
 11
16.58679716428486
 21
54.81589441039597
 31
0.0
  0
LINE
  5
E832
  8
3
 10
16.58679716428486
 20
54.81589441039597
 30
0.0
 11
16.57978392854784
 21
54.82290764613299
 31
0.0
  0
LINE
  5
E833
  8
3
 10
16.57978392854784
 20
54.82290764613299
 30
0.0
 11
16.576277310679359
 21
54.829920881870009
 31
0.0
  0
LINE
  5
E834
  8
3
 10
16.576277310679359
 20
54.829920881870009
 30
0.0
 11
16.569264074942311
 21
54.836934117607058
 31
0.0
  0
LINE
  5
E835
  8
3
 10
16.569264074942311
 20
54.836934117607058
 30
0.0
 11
16.565757457073801
 21
54.847453971212623
 31
0.0
  0
LINE
  5
E836
  8
3
 10
16.565757457073801
 20
54.847453971212623
 30
0.0
 11
16.56225083920523
 21
54.857973824818117
 31
0.0
  0
LINE
  5
E837
  8
3
 10
16.56225083920523
 20
54.857973824818117
 30
0.0
 11
16.55523760346821
 21
54.864987060555173
 31
0.0
  0
LINE
  5
E838
  8
3
 10
16.55523760346821
 20
54.864987060555173
 30
0.0
 11
16.551730985599729
 21
54.875506914160717
 31
0.0
  0
LINE
  5
E839
  8
3
 10
16.979538365558572
 20
54.47925909501847
 30
0.0
 11
16.87784644737161
 21
54.538871598783231
 31
0.0
  0
LINE
  5
E83A
  8
3
 10
16.49913171757203
 20
54.970185596610627
 30
0.0
 11
16.478092010360911
 21
55.022784864638361
 31
0.0
  0
LINE
  5
E83B
  8
3
 10
17.372279566832251
 20
55.015771628901348
 30
0.0
 11
17.44241192420256
 21
55.001745157427273
 31
0.0
  0
LINE
  5
E83C
  8
3
 10
17.44241192420256
 20
55.001745157427273
 30
0.0
 11
17.51254428157284
 21
54.994731921690203
 31
0.0
  0
LINE
  5
E83D
  8
3
 10
17.51254428157284
 20
54.994731921690203
 30
0.0
 11
17.58618325681169
 21
54.991225303821722
 31
0.0
  0
LINE
  5
E83E
  8
3
 10
17.30565382733047
 20
55.029798100375388
 30
0.0
 11
17.372279566832251
 21
55.015771628901348
 31
0.0
  0
LINE
  5
E83F
  8
3
 10
17.242534705697182
 20
55.054344425454993
 30
0.0
 11
17.30565382733047
 21
55.029798100375388
 31
0.0
  0
LINE
  5
E840
  8
3
 10
16.527184660520131
 20
54.917586328582871
 30
0.0
 11
16.49913171757203
 21
54.970185596610627
 31
0.0
  0
LINE
  5
E841
  8
3
 10
17.575663403206129
 20
54.381073794700079
 30
0.0
 11
17.516050899441382
 21
54.381073794700079
 31
0.0
  0
LINE
  5
E842
  8
3
 10
17.516050899441382
 20
54.381073794700079
 30
0.0
 11
17.452931777808121
 21
54.384580412568589
 31
0.0
  0
LINE
  5
E843
  8
3
 10
17.20746852701205
 20
54.409126737648187
 30
0.0
 11
17.1478560232473
 21
54.423153209122233
 31
0.0
  0
LINE
  5
E844
  8
3
 10
17.1478560232473
 20
54.423153209122233
 30
0.0
 11
17.088243519482511
 21
54.437179680596273
 31
0.0
  0
LINE
  5
E845
  8
3
 10
17.389812656174851
 20
54.388087030437127
 30
0.0
 11
17.326693534541558
 21
54.391593648305623
 31
0.0
  0
LINE
  5
E846
  8
3
 10
17.267081030776779
 20
54.398606884042607
 30
0.0
 11
17.20746852701205
 21
54.409126737648187
 31
0.0
  0
LINE
  5
E847
  8
3
 10
17.326693534541558
 20
54.391593648305623
 30
0.0
 11
17.267081030776779
 21
54.398606884042607
 31
0.0
  0
LINE
  5
E848
  8
3
 10
17.452931777808121
 20
54.384580412568589
 30
0.0
 11
17.389812656174851
 21
54.388087030437127
 31
0.0
  0
LINE
  5
E849
  8
3
 10
17.088243519482511
 20
54.437179680596273
 30
0.0
 11
17.032137633586299
 21
54.458219387807382
 31
0.0
  0
LINE
  5
E84A
  8
3
 10
17.58618325681169
 20
54.991225303821722
 30
0.0
 11
17.659822232050509
 21
54.991225303821722
 31
0.0
  0
LINE
  5
E84B
  8
3
 10
17.638782524839399
 20
54.384580412568589
 30
0.0
 11
17.575663403206129
 21
54.381073794700079
 31
0.0
  0
LINE
  5
E84C
  8
3
 10
20.31433195851648
 20
54.917586328582871
 30
0.0
 11
20.37745108014974
 21
54.917586328582871
 31
0.0
  0
LINE
  5
E84D
  8
3
 10
20.33537166572756
 20
54.465232623544409
 30
0.0
 11
20.30731872277946
 21
54.412633355516711
 31
0.0
  0
LINE
  5
E84E
  8
3
 10
20.454596673257068
 20
54.780828231710821
 30
0.0
 11
20.451090055388558
 21
54.924599564319919
 31
0.0
  0
ARC
  5
E84F
  8
3
 10
20.467347251707618
 20
54.84781792040738
 30
0.0
 40
0.0784838663297868
 50
101.9548373798295
 51
174.968359139189
  0
LINE
  5
E850
  8
3
 10
21.362810701202509
 20
54.93511941792547
 30
0.0
 11
21.359304083333999
 21
54.89304000350333
 31
0.0
  0
LINE
  5
E851
  8
3
 10
21.48203570873201
 20
54.90005323924035
 30
0.0
 11
21.464502619389439
 21
54.99823853955877
 31
0.0
  0
LINE
  5
E852
  8
3
 10
20.384464315886792
 20
54.812387792527403
 30
0.0
 11
20.380957698018278
 21
54.780828231710821
 31
0.0
  0
LINE
  5
E853
  8
3
 10
20.45810329112561
 20
54.640563516970211
 30
0.0
 11
20.45810329112561
 21
54.679136313523848
 31
0.0
  0
LINE
  5
E854
  8
3
 10
20.45810329112561
 20
54.679136313523848
 30
0.0
 11
20.45810329112561
 21
54.724722345814541
 31
0.0
  0
LINE
  5
E855
  8
3
 10
20.45810329112561
 20
54.724722345814541
 30
0.0
 11
20.454596673257068
 21
54.780828231710821
 31
0.0
  0
LINE
  5
E856
  8
3
 10
20.380957698018278
 20
54.780828231710821
 30
0.0
 11
20.380957698018278
 21
54.745762053025629
 31
0.0
  0
LINE
  5
E857
  8
3
 10
20.380957698018278
 20
54.745762053025629
 30
0.0
 11
20.37745108014974
 21
54.714202492209012
 31
0.0
  0
LINE
  5
E858
  8
3
 10
20.37745108014974
 20
54.714202492209012
 30
0.0
 11
20.37745108014974
 21
54.682642931392358
 31
0.0
  0
LINE
  5
E859
  8
3
 10
20.37745108014974
 20
54.682642931392358
 30
0.0
 11
20.37394446228123
 21
54.647576752707209
 31
0.0
  0
LINE
  5
E85A
  8
3
 10
20.389165829584609
 20
54.854701415808051
 30
0.0
 11
20.384464315886792
 21
54.812387792527403
 31
0.0
  0
LINE
  5
E85B
  8
3
 10
20.45810329112561
 20
54.472245859281479
 30
0.0
 11
20.45810329112561
 21
54.493285566492553
 31
0.0
  0
LINE
  5
E85C
  8
3
 10
20.45810329112561
 20
54.493285566492553
 30
0.0
 11
20.45810329112561
 21
54.514325273703662
 31
0.0
  0
LINE
  5
E85D
  8
3
 10
20.45810329112561
 20
54.514325273703662
 30
0.0
 11
20.45810329112561
 21
54.535364980914721
 31
0.0
  0
LINE
  5
E85E
  8
3
 10
20.45810329112561
 20
54.535364980914721
 30
0.0
 11
20.45810329112561
 21
54.556404688125838
 31
0.0
  0
LINE
  5
E85F
  8
3
 10
20.45810329112561
 20
54.556404688125838
 30
0.0
 11
20.45810329112561
 21
54.580951013205407
 31
0.0
  0
LINE
  5
E860
  8
3
 10
20.45810329112561
 20
54.580951013205407
 30
0.0
 11
20.45810329112561
 21
54.609003956153572
 31
0.0
  0
LINE
  5
E861
  8
3
 10
20.37043784441272
 20
54.61601719189062
 30
0.0
 11
20.366931226544239
 21
54.584457631073967
 31
0.0
  0
LINE
  5
E862
  8
3
 10
20.366931226544239
 20
54.584457631073967
 30
0.0
 11
20.3634246086757
 21
54.552898070257299
 31
0.0
  0
LINE
  5
E863
  8
3
 10
20.3634246086757
 20
54.552898070257299
 30
0.0
 11
20.35641137293868
 21
54.52484512730922
 31
0.0
  0
LINE
  5
E864
  8
3
 10
20.35641137293868
 20
54.52484512730922
 30
0.0
 11
20.345891519333119
 21
54.493285566492553
 31
0.0
  0
LINE
  5
E865
  8
3
 10
20.345891519333119
 20
54.493285566492553
 30
0.0
 11
20.33537166572756
 21
54.465232623544409
 31
0.0
  0
LINE
  5
E866
  8
3
 10
20.45810329112561
 20
54.609003956153572
 30
0.0
 11
20.45810329112561
 21
54.640563516970211
 31
0.0
  0
LINE
  5
E867
  8
3
 10
20.37394446228123
 20
54.647576752707209
 30
0.0
 11
20.37043784441272
 21
54.61601719189062
 31
0.0
  0
LINE
  5
E868
  8
3
 10
21.212026132856352
 20
54.584457631073967
 30
0.0
 11
21.187479807776729
 21
54.559911305994369
 31
0.0
  0
LINE
  5
E869
  8
3
 10
21.187479807776729
 20
54.559911305994369
 30
0.0
 11
21.162933482697149
 21
54.535364980914721
 31
0.0
  0
LINE
  5
E86A
  8
3
 10
21.162933482697149
 20
54.535364980914721
 30
0.0
 11
21.13838715761753
 21
54.514325273703662
 31
0.0
  0
LINE
  5
E86B
  8
3
 10
21.13838715761753
 20
54.514325273703662
 30
0.0
 11
21.113840832537932
 21
54.489778948624028
 31
0.0
  0
LINE
  5
E86C
  8
3
 10
21.113840832537932
 20
54.489778948624028
 30
0.0
 11
21.085787889589831
 21
54.472245859281479
 31
0.0
  0
LINE
  5
E86D
  8
3
 10
21.338264376122911
 20
54.808881174658978
 30
0.0
 11
21.306704815306261
 21
54.731735581551561
 31
0.0
  0
LINE
  5
E86E
  8
3
 10
21.524115123154221
 20
54.766801760236767
 30
0.0
 11
21.506582033811611
 21
54.808881174658978
 31
0.0
  0
LINE
  5
E86F
  8
3
 10
21.306704815306261
 20
54.731735581551561
 30
0.0
 11
21.28917172596368
 21
54.700176020734972
 31
0.0
  0
LINE
  5
E870
  8
3
 10
21.28917172596368
 20
54.700176020734972
 30
0.0
 11
21.271638636621109
 21
54.668616459918347
 31
0.0
  0
LINE
  5
E871
  8
3
 10
21.271638636621109
 20
54.668616459918347
 30
0.0
 11
21.254105547278531
 21
54.640563516970211
 31
0.0
  0
LINE
  5
E872
  8
3
 10
21.587234244787481
 20
54.647576752707209
 30
0.0
 11
21.56268791970788
 21
54.682642931392358
 31
0.0
  0
LINE
  5
E873
  8
3
 10
21.56268791970788
 20
54.682642931392358
 30
0.0
 11
21.541648212496799
 21
54.724722345814541
 31
0.0
  0
LINE
  5
E874
  8
3
 10
21.541648212496799
 20
54.724722345814541
 30
0.0
 11
21.524115123154221
 21
54.766801760236767
 31
0.0
  0
LINE
  5
E875
  8
3
 10
21.359304083333999
 20
54.89304000350333
 30
0.0
 11
21.348784229728441
 21
54.850960589081069
 31
0.0
  0
LINE
  5
E876
  8
3
 10
21.348784229728441
 20
54.850960589081069
 30
0.0
 11
21.338264376122911
 21
54.808881174658978
 31
0.0
  0
LINE
  5
E877
  8
3
 10
21.506582033811611
 20
54.808881174658978
 30
0.0
 11
21.492555562337571
 21
54.854467206949607
 31
0.0
  0
LINE
  5
E878
  8
3
 10
21.492555562337571
 20
54.854467206949607
 30
0.0
 11
21.48203570873201
 21
54.90005323924035
 31
0.0
  0
LINE
  5
E879
  8
3
 10
21.76256513821323
 20
54.458219387807382
 30
0.0
 11
21.727498959528081
 21
54.482765712887009
 31
0.0
  0
LINE
  5
E87A
  8
3
 10
21.727498959528081
 20
54.482765712887009
 30
0.0
 11
21.695939398711459
 21
54.510818655835124
 31
0.0
  0
LINE
  5
E87B
  8
3
 10
21.695939398711459
 20
54.510818655835124
 30
0.0
 11
21.664379837894838
 21
54.54237821665177
 31
0.0
  0
LINE
  5
E87C
  8
3
 10
21.233065840067439
 20
54.612510574022139
 30
0.0
 11
21.212026132856352
 21
54.584457631073967
 31
0.0
  0
LINE
  5
E87D
  8
3
 10
21.636326894946681
 20
54.573937777468359
 30
0.0
 11
21.611780569867079
 21
54.609003956153572
 31
0.0
  0
LINE
  5
E87E
  8
3
 10
21.664379837894838
 20
54.54237821665177
 30
0.0
 11
21.636326894946681
 21
54.573937777468359
 31
0.0
  0
LINE
  5
E87F
  8
3
 10
21.254105547278531
 20
54.640563516970211
 30
0.0
 11
21.233065840067439
 21
54.612510574022139
 31
0.0
  0
LINE
  5
E880
  8
3
 10
21.611780569867079
 20
54.609003956153572
 30
0.0
 11
21.587234244787481
 21
54.647576752707209
 31
0.0
  0
LINE
  5
E881
  8
3
 10
20.773698899291961
 20
55.012265011032838
 30
0.0
 11
20.773698899291961
 21
55.026291482506849
 31
0.0
  0
LINE
  5
E882
  8
3
 10
21.36982393693955
 20
55.022784864638361
 30
0.0
 11
21.36982393693955
 21
54.980705450216128
 31
0.0
  0
LINE
  5
E883
  8
3
 10
21.464502619389439
 20
54.99823853955877
 30
0.0
 11
21.464502619389439
 21
55.033304718243841
 31
0.0
  0
LINE
  5
E884
  8
3
 10
20.770192281423451
 20
54.980705450216128
 30
0.0
 11
20.773698899291961
 21
54.991225303821722
 31
0.0
  0
LINE
  5
E885
  8
3
 10
20.763179045686432
 20
54.959665743005097
 30
0.0
 11
20.766685663554941
 21
54.959665743005097
 31
0.0
  0
LINE
  5
E886
  8
3
 10
20.766685663554941
 20
54.959665743005097
 30
0.0
 11
20.766685663554941
 21
54.966678978742067
 31
0.0
  0
LINE
  5
E887
  8
3
 10
20.766685663554941
 20
54.966678978742067
 30
0.0
 11
20.770192281423451
 21
54.973692214479151
 31
0.0
  0
LINE
  5
E888
  8
3
 10
20.770192281423451
 20
54.973692214479151
 30
0.0
 11
20.770192281423451
 21
54.980705450216128
 31
0.0
  0
LINE
  5
E889
  8
3
 10
20.773698899291961
 20
54.991225303821722
 30
0.0
 11
20.773698899291961
 21
55.001745157427273
 31
0.0
  0
LINE
  5
E88A
  8
3
 10
20.773698899291961
 20
55.001745157427273
 30
0.0
 11
20.773698899291961
 21
55.012265011032838
 31
0.0
  0
LINE
  5
E88B
  8
3
 10
20.773698899291961
 20
55.026291482506849
 30
0.0
 11
20.773698899291961
 21
55.036811336112372
 31
0.0
  0
LINE
  5
E88C
  8
3
 10
20.773698899291961
 20
55.036811336112372
 30
0.0
 11
20.773698899291961
 21
55.050837807586468
 31
0.0
  0
LINE
  5
E88D
  8
3
 10
20.56680844504956
 20
54.93511941792547
 30
0.0
 11
20.633434184551358
 21
54.942132653662497
 31
0.0
  0
LINE
  5
E88E
  8
3
 10
20.440570201783029
 20
54.924599564319919
 30
0.0
 11
20.5036893234163
 21
54.928106182188429
 31
0.0
  0
LINE
  5
E88F
  8
3
 10
20.451090055388558
 20
54.924599564319919
 30
0.0
 11
20.440570201783029
 21
54.924599564319919
 31
0.0
  0
LINE
  5
E890
  8
3
 10
20.37745108014974
 20
54.917586328582871
 30
0.0
 11
20.440570201783029
 21
54.924599564319919
 31
0.0
  0
LINE
  5
E891
  8
3
 10
20.5036893234163
 20
54.928106182188429
 30
0.0
 11
20.56680844504956
 21
54.93511941792547
 31
0.0
  0
LINE
  5
E892
  8
3
 10
20.633434184551358
 20
54.942132653662497
 30
0.0
 11
20.763179045686432
 21
54.959665743005097
 31
0.0
  0
LINE
  5
E893
  8
3
 10
21.36982393693955
 20
54.980705450216128
 30
0.0
 11
21.362810701202509
 21
54.93511941792547
 31
0.0
  0
LINE
  5
E894
  8
3
 10
22.32362399717567
 20
54.346007616014901
 30
0.0
 11
22.285051200622011
 21
54.34250099814637
 31
0.0
  0
LINE
  5
E895
  8
3
 10
22.165826193092499
 20
54.338994380277882
 30
0.0
 11
22.12725339653883
 21
54.34250099814637
 31
0.0
  0
LINE
  5
E896
  8
3
 10
22.12725339653883
 20
54.34250099814637
 30
0.0
 11
22.088680599985171
 21
54.346007616014901
 31
0.0
  0
LINE
  5
E897
  8
3
 10
22.246478404068341
 20
54.338994380277882
 30
0.0
 11
22.207905607514672
 21
54.338994380277882
 31
0.0
  0
LINE
  5
E898
  8
3
 10
22.207905607514672
 20
54.338994380277882
 30
0.0
 11
22.165826193092499
 21
54.338994380277882
 31
0.0
  0
LINE
  5
E899
  8
3
 10
22.285051200622011
 20
54.34250099814637
 30
0.0
 11
22.246478404068341
 21
54.338994380277882
 31
0.0
  0
LINE
  5
E89A
  8
3
 10
22.446355622573691
 20
54.36354070535748
 30
0.0
 11
22.404276208151519
 21
54.35652746962046
 31
0.0
  0
LINE
  5
E89B
  8
3
 10
22.404276208151519
 20
54.35652746962046
 30
0.0
 11
22.365703411597849
 21
54.349514233883383
 31
0.0
  0
LINE
  5
E89C
  8
3
 10
22.365703411597849
 20
54.349514233883383
 30
0.0
 11
22.32362399717567
 21
54.346007616014901
 31
0.0
  0
LINE
  5
E89D
  8
3
 10
22.712858580580839
 20
54.381073794700079
 30
0.0
 11
22.709351962712329
 21
54.388087030437127
 31
0.0
  0
LINE
  5
E89E
  8
3
 10
22.709351962712329
 20
54.388087030437127
 30
0.0
 11
22.705845344843819
 21
54.391593648305623
 31
0.0
  0
LINE
  5
E89F
  8
3
 10
22.705845344843819
 20
54.391593648305623
 30
0.0
 11
22.702338726975292
 21
54.398606884042607
 31
0.0
  0
LINE
  5
E8A0
  8
3
 10
22.702338726975292
 20
54.398606884042607
 30
0.0
 11
22.702338726975292
 21
54.405620119779677
 31
0.0
  0
LINE
  5
E8A1
  8
3
 10
22.702338726975292
 20
54.405620119779677
 30
0.0
 11
22.698832109106771
 21
54.412633355516711
 31
0.0
  0
LINE
  5
E8A2
  8
3
 10
22.698832109106771
 20
54.412633355516711
 30
0.0
 11
22.69532549123829
 21
54.419646591253752
 31
0.0
  0
LINE
  5
E8A3
  8
3
 10
22.69532549123829
 20
54.419646591253752
 30
0.0
 11
22.69181887336978
 21
54.437179680596273
 31
0.0
  0
LINE
  5
E8A4
  8
3
 10
22.69181887336978
 20
54.437179680596273
 30
0.0
 11
22.688312255501241
 21
54.437179680596273
 31
0.0
  0
LINE
  5
E8A5
  8
3
 10
22.688312255501241
 20
54.437179680596273
 30
0.0
 11
22.684805637632738
 21
54.437179680596273
 31
0.0
  0
LINE
  5
E8A6
  8
3
 10
22.684805637632738
 20
54.437179680596273
 30
0.0
 11
22.684805637632738
 21
54.440686298464811
 31
0.0
  0
LINE
  5
E8A7
  8
3
 10
22.684805637632738
 20
54.440686298464811
 30
0.0
 11
22.681299019764221
 21
54.440686298464811
 31
0.0
  0
LINE
  5
E8A8
  8
3
 10
22.681299019764221
 20
54.440686298464811
 30
0.0
 11
22.67779240189569
 21
54.444192916333371
 31
0.0
  0
LINE
  5
E8A9
  8
3
 10
22.67779240189569
 20
54.444192916333371
 30
0.0
 11
22.67428578402718
 21
54.444192916333371
 31
0.0
  0
LINE
  5
E8AA
  8
3
 10
22.67428578402718
 20
54.444192916333371
 30
0.0
 11
22.67077916615867
 21
54.444192916333371
 31
0.0
  0
LINE
  5
E8AB
  8
3
 10
22.67077916615867
 20
54.444192916333371
 30
0.0
 11
22.66727254829016
 21
54.444192916333371
 31
0.0
  0
LINE
  5
E8AC
  8
3
 10
22.66727254829016
 20
54.444192916333371
 30
0.0
 11
22.663765930421619
 21
54.444192916333371
 31
0.0
  0
LINE
  5
E8AD
  8
3
 10
22.663765930421619
 20
54.444192916333371
 30
0.0
 11
22.660259312553109
 21
54.444192916333371
 31
0.0
  0
LINE
  5
E8AE
  8
3
 10
22.660259312553109
 20
54.444192916333371
 30
0.0
 11
22.656752694684599
 21
54.444192916333371
 31
0.0
  0
LINE
  5
E8AF
  8
3
 10
22.656752694684599
 20
54.444192916333371
 30
0.0
 11
22.653246076816089
 21
54.444192916333371
 31
0.0
  0
LINE
  5
E8B0
  8
3
 10
22.653246076816089
 20
54.444192916333371
 30
0.0
 11
22.649739458947579
 21
54.444192916333371
 31
0.0
  0
LINE
  5
E8B1
  8
3
 10
22.649739458947579
 20
54.444192916333371
 30
0.0
 11
22.646232841079069
 21
54.447699534201831
 31
0.0
  0
LINE
  5
E8B2
  8
3
 10
22.646232841079069
 20
54.447699534201831
 30
0.0
 11
22.639219605342021
 21
54.440686298464811
 31
0.0
  0
LINE
  5
E8B3
  8
3
 10
22.639219605342021
 20
54.440686298464811
 30
0.0
 11
22.632206369605001
 21
54.437179680596273
 31
0.0
  0
LINE
  5
E8B4
  8
3
 10
22.632206369605001
 20
54.437179680596273
 30
0.0
 11
22.625193133867949
 21
54.433673062727792
 31
0.0
  0
LINE
  5
E8B5
  8
3
 10
22.625193133867949
 20
54.433673062727792
 30
0.0
 11
22.614673280262402
 21
54.43016644485926
 31
0.0
  0
LINE
  5
E8B6
  8
3
 10
22.614673280262402
 20
54.43016644485926
 30
0.0
 11
22.607660044525399
 21
54.423153209122233
 31
0.0
  0
LINE
  5
E8B7
  8
3
 10
22.607660044525399
 20
54.423153209122233
 30
0.0
 11
22.600646808788351
 21
54.419646591253752
 31
0.0
  0
LINE
  5
E8B8
  8
3
 10
22.600646808788351
 20
54.419646591253752
 30
0.0
 11
22.593633573051331
 21
54.416139973385242
 31
0.0
  0
LINE
  5
E8B9
  8
3
 10
22.593633573051331
 20
54.416139973385242
 30
0.0
 11
22.58662033731429
 21
54.412633355516711
 31
0.0
  0
LINE
  5
E8BA
  8
3
 10
22.58662033731429
 20
54.412633355516711
 30
0.0
 11
22.57610048370876
 21
54.409126737648187
 31
0.0
  0
LINE
  5
E8BB
  8
3
 10
22.57610048370876
 20
54.409126737648187
 30
0.0
 11
22.569087247971741
 21
54.405620119779677
 31
0.0
  0
LINE
  5
E8BC
  8
3
 10
22.569087247971741
 20
54.405620119779677
 30
0.0
 11
22.562074012234689
 21
54.402113501911138
 31
0.0
  0
LINE
  5
E8BD
  8
3
 10
22.562074012234689
 20
54.402113501911138
 30
0.0
 11
22.555060776497669
 21
54.398606884042607
 31
0.0
  0
LINE
  5
E8BE
  8
3
 10
22.555060776497669
 20
54.398606884042607
 30
0.0
 11
22.548047540760621
 21
54.395100266174119
 31
0.0
  0
LINE
  5
E8BF
  8
3
 10
22.548047540760621
 20
54.395100266174119
 30
0.0
 11
22.541034305023629
 21
54.391593648305623
 31
0.0
  0
LINE
  5
E8C0
  8
3
 10
22.541034305023629
 20
54.391593648305623
 30
0.0
 11
22.530514451418071
 21
54.384580412568589
 31
0.0
  0
LINE
  5
E8C1
  8
3
 10
22.530514451418071
 20
54.384580412568589
 30
0.0
 11
22.488435036995892
 21
54.374060558963031
 31
0.0
  0
LINE
  5
E8C2
  8
3
 10
22.488435036995892
 20
54.374060558963031
 30
0.0
 11
22.446355622573691
 21
54.36354070535748
 31
0.0
  0
LINE
  5
E8C3
  8
3
 10
22.716365198449349
 20
54.374060558963031
 30
0.0
 11
22.712858580580839
 21
54.381073794700079
 31
0.0
  0
LINE
  5
E8C4
  8
3
 10
22.747924759265999
 20
54.346007616014901
 30
0.0
 11
22.740911523528951
 21
54.346007616014901
 31
0.0
  0
LINE
  5
E8C5
  8
3
 10
22.740911523528951
 20
54.346007616014901
 30
0.0
 11
22.737404905660441
 21
54.353020851751921
 31
0.0
  0
LINE
  5
E8C6
  8
3
 10
22.737404905660441
 20
54.353020851751921
 30
0.0
 11
22.730391669923421
 21
54.35652746962046
 31
0.0
  0
LINE
  5
E8C7
  8
3
 10
22.730391669923421
 20
54.35652746962046
 30
0.0
 11
22.726885052054911
 21
54.36003408748897
 31
0.0
  0
LINE
  5
E8C8
  8
3
 10
22.726885052054911
 20
54.36003408748897
 30
0.0
 11
22.723378434186401
 21
54.36354070535748
 31
0.0
  0
LINE
  5
E8C9
  8
3
 10
22.723378434186401
 20
54.36354070535748
 30
0.0
 11
22.719871816317891
 21
54.370553941094492
 31
0.0
  0
LINE
  5
E8CA
  8
3
 10
22.719871816317891
 20
54.370553941094492
 30
0.0
 11
22.716365198449349
 21
54.374060558963031
 31
0.0
  0
LINE
  5
E8CB
  8
3
 10
22.923255652691779
 20
54.346007616014901
 30
0.0
 11
22.747924759265999
 21
54.346007616014901
 31
0.0
  0
LINE
  5
E8CC
  8
3
 10
22.050107803431501
 20
54.349514233883383
 30
0.0
 11
22.011535006877839
 21
54.35652746962046
 31
0.0
  0
LINE
  5
E8CD
  8
3
 10
20.966562882060291
 20
54.405620119779677
 30
0.0
 11
20.903443760426999
 21
54.384580412568589
 31
0.0
  0
LINE
  5
E8CE
  8
3
 10
20.68252683471059
 20
54.353020851751921
 30
0.0
 11
20.65447389176245
 21
54.353020851751921
 31
0.0
  0
LINE
  5
E8CF
  8
3
 10
20.65447389176245
 20
54.353020851751921
 30
0.0
 11
20.629927566682831
 21
54.353020851751921
 31
0.0
  0
LINE
  5
E8D0
  8
3
 10
20.629927566682831
 20
54.353020851751921
 30
0.0
 11
20.601874623734709
 21
54.353020851751921
 31
0.0
  0
LINE
  5
E8D1
  8
3
 10
20.601874623734709
 20
54.353020851751921
 30
0.0
 11
20.573821680786612
 21
54.353020851751921
 31
0.0
  0
LINE
  5
E8D2
  8
3
 10
20.573821680786612
 20
54.353020851751921
 30
0.0
 11
20.54927535570701
 21
54.35652746962046
 31
0.0
  0
LINE
  5
E8D3
  8
3
 10
20.791231988634561
 20
54.36003408748897
 30
0.0
 11
20.763179045686432
 21
54.36003408748897
 31
0.0
  0
LINE
  5
E8D4
  8
3
 10
20.763179045686432
 20
54.36003408748897
 30
0.0
 11
20.73863272060677
 21
54.35652746962046
 31
0.0
  0
LINE
  5
E8D5
  8
3
 10
20.73863272060677
 20
54.35652746962046
 30
0.0
 11
20.710579777658669
 21
54.35652746962046
 31
0.0
  0
LINE
  5
E8D6
  8
3
 10
20.710579777658669
 20
54.35652746962046
 30
0.0
 11
20.68252683471059
 21
54.353020851751921
 31
0.0
  0
LINE
  5
E8D7
  8
3
 10
20.84733787453078
 20
54.370553941094492
 30
0.0
 11
20.819284931582668
 21
54.36354070535748
 31
0.0
  0
LINE
  5
E8D8
  8
3
 10
20.819284931582668
 20
54.36354070535748
 30
0.0
 11
20.791231988634561
 21
54.36003408748897
 31
0.0
  0
LINE
  5
E8D9
  8
3
 10
20.875390817478891
 20
54.374060558963031
 30
0.0
 11
20.84733787453078
 21
54.370553941094492
 31
0.0
  0
LINE
  5
E8DA
  8
3
 10
20.46511652686263
 20
54.391593648305623
 30
0.0
 11
20.46160990899412
 21
54.423153209122233
 31
0.0
  0
LINE
  5
E8DB
  8
3
 10
20.46160990899412
 20
54.423153209122233
 30
0.0
 11
20.45810329112561
 21
54.451206152070341
 31
0.0
  0
LINE
  5
E8DC
  8
3
 10
20.46862314473114
 20
54.35652746962046
 30
0.0
 11
20.46511652686263
 21
54.391593648305623
 31
0.0
  0
LINE
  5
E8DD
  8
3
 10
20.52122241275887
 20
54.35652746962046
 30
0.0
 11
20.46862314473114
 21
54.35652746962046
 31
0.0
  0
LINE
  5
E8DE
  8
3
 10
20.54927535570701
 20
54.35652746962046
 30
0.0
 11
20.52122241275887
 21
54.35652746962046
 31
0.0
  0
LINE
  5
E8DF
  8
3
 10
20.903443760426999
 20
54.384580412568589
 30
0.0
 11
20.875390817478891
 21
54.374060558963031
 31
0.0
  0
LINE
  5
E8E0
  8
3
 10
21.972962210324141
 20
54.367047323226039
 30
0.0
 11
21.895816617216841
 21
54.388087030437127
 31
0.0
  0
LINE
  5
E8E1
  8
3
 10
21.895816617216841
 20
54.388087030437127
 30
0.0
 11
21.888803381479789
 21
54.388087030437127
 31
0.0
  0
LINE
  5
E8E2
  8
3
 10
21.888803381479789
 20
54.388087030437127
 30
0.0
 11
21.885296763611279
 21
54.391593648305623
 31
0.0
  0
LINE
  5
E8E3
  8
3
 10
21.885296763611279
 20
54.391593648305623
 30
0.0
 11
21.881790145742741
 21
54.391593648305623
 31
0.0
  0
LINE
  5
E8E4
  8
3
 10
21.881790145742741
 20
54.391593648305623
 30
0.0
 11
21.878283527874231
 21
54.395100266174119
 31
0.0
  0
LINE
  5
E8E5
  8
3
 10
21.878283527874231
 20
54.395100266174119
 30
0.0
 11
21.874776910005721
 21
54.395100266174119
 31
0.0
  0
LINE
  5
E8E6
  8
3
 10
21.057734946641691
 20
54.451206152070341
 30
0.0
 11
21.026175385825042
 21
54.437179680596273
 31
0.0
  0
LINE
  5
E8E7
  8
3
 10
21.026175385825042
 20
54.437179680596273
 30
0.0
 11
20.998122442876941
 21
54.419646591253752
 31
0.0
  0
LINE
  5
E8E8
  8
3
 10
20.998122442876941
 20
54.419646591253752
 30
0.0
 11
20.966562882060291
 21
54.405620119779677
 31
0.0
  0
LINE
  5
E8E9
  8
3
 10
21.871270292137211
 20
54.398606884042607
 30
0.0
 11
21.867763674268669
 21
54.402113501911138
 31
0.0
  0
LINE
  5
E8EA
  8
3
 10
21.867763674268669
 20
54.402113501911138
 30
0.0
 11
21.864257056400159
 21
54.402113501911138
 31
0.0
  0
LINE
  5
E8EB
  8
3
 10
21.864257056400159
 20
54.402113501911138
 30
0.0
 11
21.86075043853165
 21
54.405620119779677
 31
0.0
  0
LINE
  5
E8EC
  8
3
 10
21.86075043853165
 20
54.405620119779677
 30
0.0
 11
21.85724382066315
 21
54.405620119779677
 31
0.0
  0
LINE
  5
E8ED
  8
3
 10
21.85724382066315
 20
54.405620119779677
 30
0.0
 11
21.853737202794608
 21
54.405620119779677
 31
0.0
  0
LINE
  5
E8EE
  8
3
 10
21.853737202794608
 20
54.405620119779677
 30
0.0
 11
21.853737202794608
 21
54.409126737648187
 31
0.0
  0
LINE
  5
E8EF
  8
3
 10
21.853737202794608
 20
54.409126737648187
 30
0.0
 11
21.85023058492612
 21
54.409126737648187
 31
0.0
  0
LINE
  5
E8F0
  8
3
 10
21.84672396705761
 20
54.409126737648187
 30
0.0
 11
21.839710731320562
 21
54.412633355516711
 31
0.0
  0
LINE
  5
E8F1
  8
3
 10
21.839710731320562
 20
54.412633355516711
 30
0.0
 11
21.801137934766899
 21
54.433673062727792
 31
0.0
  0
LINE
  5
E8F2
  8
3
 10
21.85023058492612
 20
54.409126737648187
 30
0.0
 11
21.84672396705761
 21
54.409126737648187
 31
0.0
  0
LINE
  5
E8F3
  8
3
 10
21.874776910005721
 20
54.395100266174119
 30
0.0
 11
21.871270292137211
 21
54.398606884042607
 31
0.0
  0
LINE
  5
E8F4
  8
3
 10
22.011535006877839
 20
54.35652746962046
 30
0.0
 11
21.972962210324141
 21
54.367047323226039
 31
0.0
  0
LINE
  5
E8F5
  8
3
 10
22.088680599985171
 20
54.346007616014901
 30
0.0
 11
22.050107803431501
 21
54.349514233883383
 31
0.0
  0
LINE
  5
E8F6
  8
3
 10
20.45810329112561
 20
54.451206152070341
 30
0.0
 11
20.45810329112561
 21
54.472245859281479
 31
0.0
  0
LINE
  5
E8F7
  8
3
 10
21.085787889589831
 20
54.472245859281479
 30
0.0
 11
21.057734946641691
 21
54.451206152070341
 31
0.0
  0
LINE
  5
E8F8
  8
3
 10
21.801137934766899
 20
54.433673062727792
 30
0.0
 11
21.76256513821323
 21
54.458219387807382
 31
0.0
  0
LINE
  5
E8F9
  8
3
 10
19.318452483858149
 20
54.500298802229622
 30
0.0
 11
19.297412776647061
 21
54.510818655835124
 31
0.0
  0
LINE
  5
E8FA
  8
3
 10
19.297412776647061
 20
54.510818655835124
 30
0.0
 11
19.279879687304511
 21
54.52484512730922
 31
0.0
  0
LINE
  5
E8FB
  8
3
 10
19.279879687304511
 20
54.52484512730922
 30
0.0
 11
19.24481350861933
 21
54.54939145238879
 31
0.0
  0
LINE
  5
E8FC
  8
3
 10
19.094028940273169
 20
54.668616459918347
 30
0.0
 11
19.062469379456559
 21
54.703682638603482
 31
0.0
  0
LINE
  5
E8FD
  8
3
 10
19.16416129764352
 20
54.605497338285041
 30
0.0
 11
19.129095118958329
 21
54.637056899101651
 31
0.0
  0
LINE
  5
E8FE
  8
3
 10
19.202734094197151
 20
54.577444395336897
 30
0.0
 11
19.16416129764352
 21
54.605497338285041
 31
0.0
  0
LINE
  5
E8FF
  8
3
 10
19.129095118958329
 20
54.637056899101651
 30
0.0
 11
19.094028940273169
 21
54.668616459918347
 31
0.0
  0
LINE
  5
E900
  8
3
 10
19.24481350861933
 20
54.54939145238879
 30
0.0
 11
19.202734094197151
 21
54.577444395336897
 31
0.0
  0
LINE
  5
E901
  8
3
 10
19.392091459096999
 20
54.458219387807382
 30
0.0
 11
19.374558369754389
 21
54.468739241412919
 31
0.0
  0
LINE
  5
E902
  8
3
 10
19.374558369754389
 20
54.468739241412919
 30
0.0
 11
19.35351866254334
 21
54.47925909501847
 31
0.0
  0
LINE
  5
E903
  8
3
 10
19.35351866254334
 20
54.47925909501847
 30
0.0
 11
19.33598557320073
 21
54.489778948624028
 31
0.0
  0
LINE
  5
E904
  8
3
 10
19.33598557320073
 20
54.489778948624028
 30
0.0
 11
19.318452483858149
 21
54.500298802229622
 31
0.0
  0
LINE
  5
E905
  8
3
 10
19.630541474156018
 20
55.022784864638361
 30
0.0
 11
19.64456794563009
 21
55.0087583931643
 31
0.0
  0
LINE
  5
E906
  8
3
 10
19.70768706726335
 20
54.966678978742067
 30
0.0
 11
19.71820692086888
 21
54.95615912513653
 31
0.0
  0
LINE
  5
E907
  8
3
 10
19.64456794563009
 20
55.0087583931643
 30
0.0
 11
19.662101034972661
 21
54.99823853955877
 31
0.0
  0
LINE
  5
E908
  8
3
 10
19.662101034972661
 20
54.99823853955877
 30
0.0
 11
19.676127506446729
 21
54.98421206808473
 31
0.0
  0
LINE
  5
E909
  8
3
 10
19.676127506446729
 20
54.98421206808473
 30
0.0
 11
19.693660595789279
 21
54.973692214479151
 31
0.0
  0
LINE
  5
E90A
  8
3
 10
19.693660595789279
 20
54.973692214479151
 30
0.0
 11
19.70768706726335
 21
54.966678978742067
 31
0.0
  0
LINE
  5
E90B
  8
3
 10
19.588462059733839
 20
55.061357661192041
 30
0.0
 11
19.598981913339401
 21
55.050837807586468
 31
0.0
  0
LINE
  5
E90C
  8
3
 10
19.598981913339401
 20
55.050837807586468
 30
0.0
 11
19.61651500268195
 21
55.036811336112372
 31
0.0
  0
LINE
  5
E90D
  8
3
 10
19.61651500268195
 20
55.036811336112372
 30
0.0
 11
19.630541474156018
 21
55.022784864638361
 31
0.0
  0
LINE
  5
E90E
  8
3
 10
19.932110610848319
 20
54.924599564319919
 30
0.0
 11
19.9987363503501
 21
54.921092946451431
 31
0.0
  0
LINE
  5
E90F
  8
3
 10
19.73924662808
 20
54.945639271531007
 30
0.0
 11
19.80236574971326
 21
54.93511941792547
 31
0.0
  0
LINE
  5
E910
  8
3
 10
19.80236574971326
 20
54.93511941792547
 30
0.0
 11
19.868991489215059
 21
54.931612800056968
 31
0.0
  0
LINE
  5
E911
  8
3
 10
19.868991489215059
 20
54.931612800056968
 30
0.0
 11
19.932110610848319
 21
54.924599564319919
 31
0.0
  0
LINE
  5
E912
  8
3
 10
19.9987363503501
 20
54.921092946451431
 30
0.0
 11
20.061855471983389
 21
54.917586328582871
 31
0.0
  0
LINE
  5
E913
  8
3
 10
20.12497459361666
 20
54.917586328582871
 30
0.0
 11
20.188093715249948
 21
54.914079710714383
 31
0.0
  0
LINE
  5
E914
  8
3
 10
20.188093715249948
 20
54.914079710714383
 30
0.0
 11
20.251212836883209
 21
54.914079710714383
 31
0.0
  0
LINE
  5
E915
  8
3
 10
20.251212836883209
 20
54.914079710714383
 30
0.0
 11
20.31433195851648
 21
54.917586328582871
 31
0.0
  0
LINE
  5
E916
  8
3
 10
20.061855471983389
 20
54.917586328582871
 30
0.0
 11
20.12497459361666
 21
54.917586328582871
 31
0.0
  0
LINE
  5
E917
  8
3
 10
19.71820692086888
 20
54.95615912513653
 30
0.0
 11
19.73924662808
 21
54.945639271531007
 31
0.0
  0
LINE
  5
E918
  8
3
 10
19.07298923306212
 20
54.444192916333371
 30
0.0
 11
19.090522322404691
 21
54.423153209122233
 31
0.0
  0
LINE
  5
E919
  8
3
 10
19.090522322404691
 20
54.423153209122233
 30
0.0
 11
19.129095118958329
 21
54.384580412568589
 31
0.0
  0
LINE
  5
E91A
  8
3
 10
19.742753245948499
 20
54.367047323226039
 30
0.0
 11
19.697167213657789
 21
54.374060558963031
 31
0.0
  0
LINE
  5
E91B
  8
3
 10
19.472743670072841
 20
54.423153209122233
 30
0.0
 11
19.451703962861728
 21
54.43016644485926
 31
0.0
  0
LINE
  5
E91C
  8
3
 10
19.430664255650669
 20
54.440686298464811
 30
0.0
 11
19.413131166308091
 21
54.447699534201831
 31
0.0
  0
LINE
  5
E91D
  8
3
 10
19.451703962861728
 20
54.43016644485926
 30
0.0
 11
19.430664255650669
 21
54.440686298464811
 31
0.0
  0
LINE
  5
E91E
  8
3
 10
19.697167213657789
 20
54.374060558963031
 30
0.0
 11
19.651581181367099
 21
54.381073794700079
 31
0.0
  0
LINE
  5
E91F
  8
3
 10
19.651581181367099
 20
54.381073794700079
 30
0.0
 11
19.560409116785731
 21
54.395100266174119
 31
0.0
  0
LINE
  5
E920
  8
3
 10
19.560409116785731
 20
54.395100266174119
 30
0.0
 11
19.535862791706109
 21
54.398606884042607
 31
0.0
  0
LINE
  5
E921
  8
3
 10
19.535862791706109
 20
54.398606884042607
 30
0.0
 11
19.514823084495021
 21
54.405620119779677
 31
0.0
  0
LINE
  5
E922
  8
3
 10
19.514823084495021
 20
54.405620119779677
 30
0.0
 11
19.493783377283929
 21
54.416139973385242
 31
0.0
  0
LINE
  5
E923
  8
3
 10
19.493783377283929
 20
54.416139973385242
 30
0.0
 11
19.472743670072841
 21
54.423153209122233
 31
0.0
  0
LINE
  5
E924
  8
3
 10
19.98470987887606
 20
54.349514233883383
 30
0.0
 11
19.935617228716829
 21
54.349514233883383
 31
0.0
  0
LINE
  5
E925
  8
3
 10
19.935617228716829
 20
54.349514233883383
 30
0.0
 11
19.886524578557641
 21
54.353020851751921
 31
0.0
  0
LINE
  5
E926
  8
3
 10
19.886524578557641
 20
54.353020851751921
 30
0.0
 11
19.840938546266951
 21
54.35652746962046
 31
0.0
  0
LINE
  5
E927
  8
3
 10
19.840938546266951
 20
54.35652746962046
 30
0.0
 11
19.791845896107731
 21
54.36003408748897
 31
0.0
  0
LINE
  5
E928
  8
3
 10
19.791845896107731
 20
54.36003408748897
 30
0.0
 11
19.742753245948499
 21
54.367047323226039
 31
0.0
  0
LINE
  5
E929
  8
3
 10
20.07938856132597
 20
54.353020851751921
 30
0.0
 11
20.03029591116675
 21
54.353020851751921
 31
0.0
  0
LINE
  5
E92A
  8
3
 10
20.03029591116675
 20
54.353020851751921
 30
0.0
 11
19.98470987887606
 21
54.349514233883383
 31
0.0
  0
LINE
  5
E92B
  8
3
 10
20.30731872277946
 20
54.412633355516711
 30
0.0
 11
20.261732690488738
 21
54.395100266174119
 31
0.0
  0
LINE
  5
E92C
  8
3
 10
20.261732690488738
 20
54.395100266174119
 30
0.0
 11
20.216146658198049
 21
54.381073794700079
 31
0.0
  0
LINE
  5
E92D
  8
3
 10
20.17406724377588
 20
54.367047323226039
 30
0.0
 11
20.12497459361666
 21
54.36003408748897
 31
0.0
  0
LINE
  5
E92E
  8
3
 10
20.12497459361666
 20
54.36003408748897
 30
0.0
 11
20.07938856132597
 21
54.353020851751921
 31
0.0
  0
LINE
  5
E92F
  8
3
 10
20.216146658198049
 20
54.381073794700079
 30
0.0
 11
20.17406724377588
 21
54.367047323226039
 31
0.0
  0
LINE
  5
E930
  8
3
 10
19.05545614371951
 20
54.465232623544409
 30
0.0
 11
19.07298923306212
 21
54.444192916333371
 31
0.0
  0
LINE
  5
E931
  8
3
 10
19.413131166308091
 20
54.447699534201831
 30
0.0
 11
19.392091459096999
 21
54.458219387807382
 31
0.0
  0
LINE
  5
E932
  8
1
 10
19.865827743208541
 20
54.354612916009529
 30
0.0
 11
19.865827743208541
 21
44.921271728817601
 31
0.0
  0
LINE
  5
E933
  8
3
 10
19.023896582902889
 20
55.927492274715291
 30
0.0
 11
19.058962761588049
 21
55.966065071268922
 31
0.0
  0
LINE
  5
E934
  8
3
 10
18.110422628154708
 20
56.215034939933503
 30
0.0
 11
18.099076876355269
 21
56.913186922952917
 31
0.0
  0
LINE
  5
E935
  8
3
 10
18.010484018902019
 20
56.34127318320003
 30
0.0
 11
18.003470783165
 21
55.734628291946933
 31
0.0
  0
LINE
  5
E936
  8
3
 10
18.732847299816111
 20
56.225554793539033
 30
0.0
 11
18.732847299816111
 21
56.078276843061438
 31
0.0
  0
LINE
  5
E937
  8
3
 10
18.974803932743669
 20
55.857359917344979
 30
0.0
 11
18.992337022086272
 21
55.88541286029308
 31
0.0
  0
LINE
  5
E938
  8
3
 10
18.992337022086272
 20
55.88541286029308
 30
0.0
 11
19.023896582902889
 21
55.927492274715291
 31
0.0
  0
LINE
  5
E939
  8
3
 10
18.960777461269629
 20
55.829306974396843
 30
0.0
 11
18.967790697006681
 21
55.843333445870883
 31
0.0
  0
LINE
  5
E93A
  8
3
 10
18.967790697006681
 20
55.843333445870883
 30
0.0
 11
18.974803932743669
 21
55.857359917344979
 31
0.0
  0
LINE
  5
E93B
  8
3
 10
18.859085543082671
 20
55.60137681294335
 30
0.0
 11
18.87661863242527
 21
55.664495934576649
 31
0.0
  0
LINE
  5
E93C
  8
3
 10
18.87661863242527
 20
55.664495934576649
 30
0.0
 11
18.883631868162301
 21
55.675015788182151
 31
0.0
  0
LINE
  5
E93D
  8
3
 10
18.883631868162301
 20
55.675015788182151
 30
0.0
 11
18.890645103899342
 21
55.689042259656219
 31
0.0
  0
LINE
  5
E93E
  8
3
 10
18.890645103899342
 20
55.689042259656219
 30
0.0
 11
18.89765833963634
 21
55.703068731130287
 31
0.0
  0
LINE
  5
E93F
  8
3
 10
18.89765833963634
 20
55.703068731130287
 30
0.0
 11
18.904671575373381
 21
55.717095202604384
 31
0.0
  0
LINE
  5
E940
  8
3
 10
18.904671575373381
 20
55.717095202604384
 30
0.0
 11
18.911684811110401
 21
55.731121674078388
 31
0.0
  0
LINE
  5
E941
  8
3
 10
18.911684811110401
 20
55.731121674078388
 30
0.0
 11
18.918698046847449
 21
55.745148145552491
 31
0.0
  0
LINE
  5
E942
  8
3
 10
18.918698046847449
 20
55.745148145552491
 30
0.0
 11
18.925711282584469
 21
55.759174617026503
 31
0.0
  0
LINE
  5
E943
  8
3
 10
18.925711282584469
 20
55.759174617026503
 30
0.0
 11
18.932724518321521
 21
55.773201088500592
 31
0.0
  0
LINE
  5
E944
  8
3
 10
18.932724518321521
 20
55.773201088500592
 30
0.0
 11
18.939737754058541
 21
55.787227559974639
 31
0.0
  0
LINE
  5
E945
  8
3
 10
18.939737754058541
 20
55.787227559974639
 30
0.0
 11
18.946750989795561
 21
55.801254031448728
 31
0.0
  0
LINE
  5
E946
  8
3
 10
18.946750989795561
 20
55.801254031448728
 30
0.0
 11
18.953764225532609
 21
55.815280502922768
 31
0.0
  0
LINE
  5
E947
  8
3
 10
18.953764225532609
 20
55.815280502922768
 30
0.0
 11
18.960777461269629
 21
55.829306974396843
 31
0.0
  0
LINE
  5
E948
  8
3
 10
18.838045835871611
 20
55.163049579378963
 30
0.0
 11
18.831032600134559
 21
55.194609140195602
 31
0.0
  0
LINE
  5
E949
  8
3
 10
18.831032600134559
 20
55.194609140195602
 30
0.0
 11
18.831032600134559
 21
55.226168701012227
 31
0.0
  0
LINE
  5
E94A
  8
3
 10
18.831032600134559
 20
55.226168701012227
 30
0.0
 11
18.827525982266081
 21
55.257728261828873
 31
0.0
  0
LINE
  5
E94B
  8
3
 10
18.827525982266081
 20
55.257728261828873
 30
0.0
 11
18.827525982266081
 21
55.289287822645491
 31
0.0
  0
LINE
  5
E94C
  8
3
 10
18.827525982266081
 20
55.289287822645491
 30
0.0
 11
18.827525982266081
 21
55.32435400133064
 31
0.0
  0
LINE
  5
E94D
  8
3
 10
18.827525982266081
 20
55.32435400133064
 30
0.0
 11
18.827525982266081
 21
55.355913562147272
 31
0.0
  0
LINE
  5
E94E
  8
3
 10
18.827525982266081
 20
55.355913562147272
 30
0.0
 11
18.827525982266081
 21
55.387473122963911
 31
0.0
  0
LINE
  5
E94F
  8
3
 10
18.827525982266081
 20
55.387473122963911
 30
0.0
 11
18.831032600134559
 21
55.419032683780607
 31
0.0
  0
LINE
  5
E950
  8
3
 10
18.831032600134559
 20
55.419032683780607
 30
0.0
 11
18.831032600134559
 21
55.447085626728658
 31
0.0
  0
LINE
  5
E951
  8
3
 10
18.831032600134559
 20
55.447085626728658
 30
0.0
 11
18.834539218003069
 21
55.478645187545311
 31
0.0
  0
LINE
  5
E952
  8
3
 10
18.834539218003069
 20
55.478645187545311
 30
0.0
 11
18.841552453740121
 21
55.510204748361993
 31
0.0
  0
LINE
  5
E953
  8
3
 10
18.841552453740121
 20
55.510204748361993
 30
0.0
 11
18.845059071608599
 21
55.541764309178603
 31
0.0
  0
LINE
  5
E954
  8
3
 10
18.845059071608599
 20
55.541764309178603
 30
0.0
 11
18.852072307345651
 21
55.573323869995221
 31
0.0
  0
LINE
  5
E955
  8
3
 10
18.862592160951181
 20
55.068370896929054
 30
0.0
 11
18.838045835871611
 21
55.163049579378963
 31
0.0
  0
LINE
  5
E956
  8
3
 10
18.852072307345651
 20
55.573323869995221
 30
0.0
 11
18.859085543082671
 21
55.60137681294335
 31
0.0
  0
LINE
  5
E957
  8
3
 10
18.115682554957459
 20
55.099930457745728
 30
0.0
 11
18.101656083483419
 21
55.23318193674924
 31
0.0
  0
LINE
  5
E958
  8
3
 10
18.105162701351951
 20
55.959051835531881
 30
0.0
 11
18.108669319220471
 21
56.127369493220641
 31
0.0
  0
LINE
  5
E959
  8
3
 10
18.108669319220471
 20
56.127369493220641
 30
0.0
 11
18.110422628154708
 21
56.215034939933481
 31
0.0
  0
LINE
  5
E95A
  8
3
 10
18.003470783165
 20
55.734628291946933
 30
0.0
 11
17.950871515137258
 21
55.724108438341382
 31
0.0
  0
LINE
  5
E95B
  8
3
 10
17.950871515137258
 20
55.724108438341382
 30
0.0
 11
17.898272247109531
 21
55.717095202604384
 31
0.0
  0
LINE
  5
E95C
  8
3
 10
17.898272247109531
 20
55.717095202604384
 30
0.0
 11
17.84216636121328
 21
55.717095202604384
 31
0.0
  0
LINE
  5
E95D
  8
3
 10
17.84216636121328
 20
55.717095202604384
 30
0.0
 11
17.786060475317068
 21
55.717095202604384
 31
0.0
  0
LINE
  5
E95E
  8
3
 10
17.786060475317068
 20
55.717095202604384
 30
0.0
 11
17.729954589420799
 21
55.720601820472872
 31
0.0
  0
LINE
  5
E95F
  8
3
 10
17.729954589420799
 20
55.720601820472872
 30
0.0
 11
17.67384870352458
 21
55.720601820472872
 31
0.0
  0
LINE
  5
E960
  8
3
 10
17.933338425794691
 20
55.594363577206281
 30
0.0
 11
17.936845043663201
 21
55.56981725212674
 31
0.0
  0
LINE
  5
E961
  8
3
 10
17.936845043663201
 20
55.56981725212674
 30
0.0
 11
17.943858279400239
 21
55.545270927047092
 31
0.0
  0
LINE
  5
E962
  8
3
 10
17.943858279400239
 20
55.545270927047092
 30
0.0
 11
17.947364897268749
 21
55.520724601967508
 31
0.0
  0
LINE
  5
E963
  8
3
 10
17.947364897268749
 20
55.520724601967508
 30
0.0
 11
17.947364897268749
 21
55.496178276887889
 31
0.0
  0
LINE
  5
E964
  8
3
 10
17.947364897268749
 20
55.496178276887889
 30
0.0
 11
17.950871515137258
 21
55.468125333939781
 31
0.0
  0
LINE
  5
E965
  8
3
 10
17.950871515137258
 20
55.468125333939781
 30
0.0
 11
17.950871515137258
 21
55.443579008860162
 31
0.0
  0
LINE
  5
E966
  8
3
 10
17.950871515137258
 20
55.443579008860162
 30
0.0
 11
17.950871515137258
 21
55.415526065912019
 31
0.0
  0
LINE
  5
E967
  8
3
 10
17.950871515137258
 20
55.415526065912019
 30
0.0
 11
17.950871515137258
 21
55.390979740832471
 31
0.0
  0
LINE
  5
E968
  8
3
 10
17.950871515137258
 20
55.390979740832471
 30
0.0
 11
17.950871515137258
 21
55.362926797884342
 31
0.0
  0
LINE
  5
E969
  8
3
 10
17.950871515137258
 20
55.362926797884342
 30
0.0
 11
17.950871515137258
 21
55.33838047280468
 31
0.0
  0
LINE
  5
E96A
  8
3
 10
17.950871515137258
 20
55.33838047280468
 30
0.0
 11
17.950871515137258
 21
55.310327529856579
 31
0.0
  0
LINE
  5
E96B
  8
3
 10
17.950871515137258
 20
55.310327529856579
 30
0.0
 11
17.950871515137258
 21
55.282274586908471
 31
0.0
  0
LINE
  5
E96C
  8
3
 10
17.950871515137258
 20
55.282274586908471
 30
0.0
 11
17.950871515137258
 21
55.257728261828873
 31
0.0
  0
LINE
  5
E96D
  8
3
 10
17.950871515137258
 20
55.257728261828873
 30
0.0
 11
17.950871515137258
 21
55.23318193674924
 31
0.0
  0
LINE
  5
E96E
  8
3
 10
17.950871515137258
 20
55.23318193674924
 30
0.0
 11
17.95788475087431
 21
55.184089286589987
 31
0.0
  0
LINE
  5
E96F
  8
3
 10
17.95788475087431
 20
55.184089286589987
 30
0.0
 11
17.90879210071509
 21
55.180582668721541
 31
0.0
  0
LINE
  5
E970
  8
3
 10
17.90879210071509
 20
55.180582668721541
 30
0.0
 11
17.859699450555858
 21
55.177076050853032
 31
0.0
  0
LINE
  5
E971
  8
3
 10
17.859699450555858
 20
55.177076050853032
 30
0.0
 11
17.81060680039667
 21
55.177076050853032
 31
0.0
  0
LINE
  5
E972
  8
3
 10
17.81060680039667
 20
55.177076050853032
 30
0.0
 11
17.758007532368911
 21
55.177076050853032
 31
0.0
  0
LINE
  5
E973
  8
3
 10
17.758007532368911
 20
55.177076050853032
 30
0.0
 11
17.70891488220974
 21
55.177076050853032
 31
0.0
  0
LINE
  5
E974
  8
3
 10
17.70891488220974
 20
55.177076050853032
 30
0.0
 11
17.656315614181999
 21
55.177076050853032
 31
0.0
  0
LINE
  5
E975
  8
3
 10
18.101656083483419
 20
55.23318193674924
 30
0.0
 11
18.0946428477464
 21
55.369940033621361
 31
0.0
  0
LINE
  5
E976
  8
3
 10
18.0946428477464
 20
55.369940033621361
 30
0.0
 11
18.091136229877861
 21
55.506698130493447
 31
0.0
  0
LINE
  5
E977
  8
3
 10
18.091136229877861
 20
55.506698130493447
 30
0.0
 11
18.0946428477464
 21
55.653976080971063
 31
0.0
  0
LINE
  5
E978
  8
3
 10
18.0946428477464
 20
55.653976080971063
 30
0.0
 11
18.09814946561491
 21
55.801254031448728
 31
0.0
  0
LINE
  5
E979
  8
3
 10
18.09814946561491
 20
55.801254031448728
 30
0.0
 11
18.105162701351951
 21
55.959051835531881
 31
0.0
  0
LINE
  5
E97A
  8
3
 10
18.746873771290179
 20
55.14902310790486
 30
0.0
 11
18.753887007027231
 21
55.068370896929054
 31
0.0
  0
LINE
  5
E97B
  8
3
 10
18.732847299816111
 20
56.078276843061438
 30
0.0
 11
18.736353917684649
 21
55.934505510452261
 31
0.0
  0
LINE
  5
E97C
  8
3
 10
18.736353917684649
 20
55.790734177843142
 30
0.0
 11
18.739860535553191
 21
55.657482698839601
 31
0.0
  0
LINE
  5
E97D
  8
3
 10
18.739860535553191
 20
55.657482698839601
 30
0.0
 11
18.739860535553191
 21
55.527737837704557
 31
0.0
  0
LINE
  5
E97E
  8
3
 10
18.739860535553191
 20
55.527737837704557
 30
0.0
 11
18.739860535553191
 21
55.412019448043559
 31
0.0
  0
LINE
  5
E97F
  8
3
 10
18.739860535553191
 20
55.412019448043559
 30
0.0
 11
18.743367153421669
 21
55.306820911988162
 31
0.0
  0
LINE
  5
E980
  8
3
 10
18.743367153421669
 20
55.306820911988162
 30
0.0
 11
18.746873771290179
 21
55.219155465275229
 31
0.0
  0
LINE
  5
E981
  8
3
 10
18.746873771290179
 20
55.219155465275229
 30
0.0
 11
18.746873771290179
 21
55.14902310790486
 31
0.0
  0
LINE
  5
E982
  8
3
 10
18.736353917684649
 20
55.934505510452261
 30
0.0
 11
18.736353917684649
 21
55.790734177843142
 31
0.0
  0
LINE
  5
E983
  8
3
 10
17.67384870352458
 20
55.720601820472872
 30
0.0
 11
17.61774281762834
 21
55.724108438341382
 31
0.0
  0
LINE
  5
E984
  8
3
 10
18.725834064079091
 20
56.913186922952917
 30
0.0
 11
18.099076876355269
 21
56.913186922952917
 31
0.0
  0
LINE
  5
E985
  8
3
 10
18.725834064079091
 20
56.793961915423409
 30
0.0
 11
18.72934068194763
 21
56.646348937760848
 31
0.0
  0
LINE
  5
E986
  8
3
 10
18.72934068194763
 20
56.646348937760848
 30
0.0
 11
18.72934068194763
 21
56.513097458757272
 31
0.0
  0
LINE
  5
E987
  8
3
 10
18.72934068194763
 20
56.513097458757272
 30
0.0
 11
18.72934068194763
 21
56.369326126148167
 31
0.0
  0
LINE
  5
E988
  8
3
 10
18.72934068194763
 20
56.369326126148167
 30
0.0
 11
18.732847299816111
 21
56.225554793539033
 31
0.0
  0
LINE
  5
E989
  8
3
 10
18.725834064079091
 20
56.913186922952917
 30
0.0
 11
18.725834064079091
 21
56.793961915423409
 31
0.0
  0
LINE
  5
E98A
  8
3
 10
16.92693909753083
 20
56.215034939933503
 30
0.0
 11
16.937458951136389
 21
56.222048175670523
 31
0.0
  0
LINE
  5
E98B
  8
3
 10
17.558130313863561
 20
55.727615056209849
 30
0.0
 11
17.502024427967338
 21
55.727615056209849
 31
0.0
  0
LINE
  5
E98C
  8
3
 10
17.502024427967338
 20
55.727615056209849
 30
0.0
 11
17.44942515993958
 21
55.727615056209849
 31
0.0
  0
LINE
  5
E98D
  8
3
 10
17.60371634615424
 20
55.177076050853032
 30
0.0
 11
17.551117078126509
 21
55.177076050853032
 31
0.0
  0
LINE
  5
E98E
  8
3
 10
17.551117078126509
 20
55.177076050853032
 30
0.0
 11
17.4985178100988
 21
55.177076050853032
 31
0.0
  0
LINE
  5
E98F
  8
3
 10
17.4985178100988
 20
55.177076050853032
 30
0.0
 11
17.44591854207107
 21
55.180582668721541
 31
0.0
  0
LINE
  5
E990
  8
3
 10
17.242534705697182
 20
55.678522406050739
 30
0.0
 11
17.158375876852858
 21
55.618909902285942
 31
0.0
  0
LINE
  5
E991
  8
3
 10
17.239028087828672
 20
55.180582668721541
 30
0.0
 11
17.140842787510248
 21
55.177076050853032
 31
0.0
  0
LINE
  5
E992
  8
3
 10
17.140842787510248
 20
55.117463547088278
 30
0.0
 11
17.186428819800959
 21
55.082397368403122
 31
0.0
  0
LINE
  5
E993
  8
3
 10
16.916419243925269
 20
56.208021704196447
 30
0.0
 11
16.92693909753083
 21
56.215034939933503
 31
0.0
  0
LINE
  5
E994
  8
3
 10
17.158375876852858
 20
55.618909902285942
 30
0.0
 11
17.158375876852858
 21
55.615403284417432
 31
0.0
  0
LINE
  5
E995
  8
3
 10
17.158375876852858
 20
55.615403284417432
 30
0.0
 11
17.158375876852858
 21
55.611896666548887
 31
0.0
  0
LINE
  5
E996
  8
3
 10
17.158375876852858
 20
55.611896666548887
 30
0.0
 11
17.158375876852858
 21
55.608390048680377
 31
0.0
  0
LINE
  5
E997
  8
3
 10
17.158375876852858
 20
55.608390048680377
 30
0.0
 11
17.158375876852858
 21
55.60488343081186
 31
0.0
  0
LINE
  5
E998
  8
3
 10
17.158375876852858
 20
55.60488343081186
 30
0.0
 11
17.158375876852858
 21
55.60137681294335
 31
0.0
  0
LINE
  5
E999
  8
3
 10
17.158375876852858
 20
55.60137681294335
 30
0.0
 11
17.161882494721372
 21
55.60137681294335
 31
0.0
  0
LINE
  5
E99A
  8
3
 10
17.161882494721372
 20
55.60137681294335
 30
0.0
 11
17.161882494721372
 21
55.597870195074847
 31
0.0
  0
LINE
  5
E99B
  8
3
 10
17.161882494721372
 20
55.597870195074847
 30
0.0
 11
17.16538911258985
 21
55.597870195074847
 31
0.0
  0
LINE
  5
E99C
  8
3
 10
17.140842787510248
 20
55.177076050853032
 30
0.0
 11
17.133829551773228
 21
55.173569432984493
 31
0.0
  0
LINE
  5
E99D
  8
3
 10
17.133829551773228
 20
55.173569432984493
 30
0.0
 11
17.12681631603618
 21
55.170062815115948
 31
0.0
  0
LINE
  5
E99E
  8
3
 10
17.12681631603618
 20
55.170062815115948
 30
0.0
 11
17.12330969816767
 21
55.170062815115948
 31
0.0
  0
LINE
  5
E99F
  8
3
 10
17.12330969816767
 20
55.170062815115948
 30
0.0
 11
17.12330969816767
 21
55.166556197247502
 31
0.0
  0
LINE
  5
E9A0
  8
3
 10
17.12330969816767
 20
55.166556197247502
 30
0.0
 11
17.11980308029916
 21
55.159542961510454
 31
0.0
  0
LINE
  5
E9A1
  8
3
 10
17.11980308029916
 20
55.159542961510454
 30
0.0
 11
17.11980308029916
 21
55.156036343641887
 31
0.0
  0
LINE
  5
E9A2
  8
3
 10
17.11980308029916
 20
55.156036343641887
 30
0.0
 11
17.11980308029916
 21
55.152529725773398
 31
0.0
  0
LINE
  5
E9A3
  8
3
 10
17.11980308029916
 20
55.152529725773398
 30
0.0
 11
17.12330969816767
 21
55.14902310790486
 31
0.0
  0
LINE
  5
E9A4
  8
3
 10
17.12330969816767
 20
55.14902310790486
 30
0.0
 11
17.12330969816767
 21
55.142009872167812
 31
0.0
  0
LINE
  5
E9A5
  8
3
 10
17.12330969816767
 20
55.142009872167812
 30
0.0
 11
17.12681631603618
 21
55.138503254299359
 31
0.0
  0
LINE
  5
E9A6
  8
3
 10
17.12681631603618
 20
55.138503254299359
 30
0.0
 11
17.12681631603618
 21
55.134996636430799
 31
0.0
  0
LINE
  5
E9A7
  8
3
 10
17.12681631603618
 20
55.134996636430799
 30
0.0
 11
17.130322933904718
 21
55.131490018562261
 31
0.0
  0
LINE
  5
E9A8
  8
3
 10
17.130322933904718
 20
55.131490018562261
 30
0.0
 11
17.133829551773228
 21
55.124476782825298
 31
0.0
  0
LINE
  5
E9A9
  8
3
 10
17.133829551773228
 20
55.124476782825298
 30
0.0
 11
17.133829551773228
 21
55.120970164956788
 31
0.0
  0
LINE
  5
E9AA
  8
3
 10
17.133829551773228
 20
55.120970164956788
 30
0.0
 11
17.140842787510248
 21
55.117463547088278
 31
0.0
  0
LINE
  5
E9AB
  8
3
 10
16.548224367731191
 20
55.839826828002373
 30
0.0
 11
16.55523760346821
 21
55.850346681607903
 31
0.0
  0
LINE
  5
E9AC
  8
3
 10
16.460558921018329
 20
55.07889075053459
 30
0.0
 11
16.446532449544229
 21
55.131490018562261
 31
0.0
  0
LINE
  5
E9AD
  8
3
 10
16.541211131994171
 20
55.829306974396843
 30
0.0
 11
16.548224367731191
 21
55.839826828002373
 31
0.0
  0
LINE
  5
E9AE
  8
3
 10
16.446532449544229
 20
55.131490018562261
 30
0.0
 11
16.436012595938731
 21
55.191102522327071
 31
0.0
  0
LINE
  5
E9AF
  8
3
 10
16.436012595938731
 20
55.191102522327071
 30
0.0
 11
16.425492742333169
 21
55.247208408223322
 31
0.0
  0
LINE
  5
E9B0
  8
3
 10
16.425492742333169
 20
55.247208408223322
 30
0.0
 11
16.421986124464659
 21
55.303314294119581
 31
0.0
  0
LINE
  5
E9B1
  8
3
 10
16.421986124464659
 20
55.303314294119581
 30
0.0
 11
16.421986124464659
 21
55.362926797884342
 31
0.0
  0
LINE
  5
E9B2
  8
3
 10
16.421986124464659
 20
55.362926797884342
 30
0.0
 11
16.421986124464659
 21
55.419032683780607
 31
0.0
  0
LINE
  5
E9B3
  8
3
 10
16.421986124464659
 20
55.419032683780607
 30
0.0
 11
16.428999360201711
 21
55.475138569676773
 31
0.0
  0
LINE
  5
E9B4
  8
3
 10
16.428999360201711
 20
55.475138569676773
 30
0.0
 11
16.436012595938731
 21
55.53124445557301
 31
0.0
  0
LINE
  5
E9B5
  8
3
 10
16.436012595938731
 20
55.53124445557301
 30
0.0
 11
16.450039067412799
 21
55.590856959337771
 31
0.0
  0
LINE
  5
E9B6
  8
3
 10
16.450039067412799
 20
55.590856959337771
 30
0.0
 11
16.464065538886839
 21
55.643456227365498
 31
0.0
  0
LINE
  5
E9B7
  8
3
 10
16.464065538886839
 20
55.643456227365498
 30
0.0
 11
16.48159862822942
 21
55.699562113261749
 31
0.0
  0
LINE
  5
E9B8
  8
3
 10
16.48159862822942
 20
55.699562113261749
 30
0.0
 11
16.527184660520131
 21
55.808267267185762
 31
0.0
  0
LINE
  5
E9B9
  8
3
 10
16.527184660520131
 20
55.808267267185762
 30
0.0
 11
16.534197896257119
 21
55.818787120791256
 31
0.0
  0
LINE
  5
E9BA
  8
3
 10
16.534197896257119
 20
55.818787120791256
 30
0.0
 11
16.541211131994171
 21
55.829306974396843
 31
0.0
  0
LINE
  5
E9BB
  8
3
 10
16.55523760346821
 20
55.850346681607903
 30
0.0
 11
16.56225083920523
 21
55.860866535213518
 31
0.0
  0
LINE
  5
E9BC
  8
3
 10
16.56225083920523
 20
55.860866535213518
 30
0.0
 11
16.569264074942311
 21
55.867879770950509
 31
0.0
  0
LINE
  5
E9BD
  8
3
 10
16.569264074942311
 20
55.867879770950509
 30
0.0
 11
16.576277310679359
 21
55.87839962455601
 31
0.0
  0
LINE
  5
E9BE
  8
3
 10
16.576277310679359
 20
55.87839962455601
 30
0.0
 11
16.58329054641635
 21
55.888919478161569
 31
0.0
  0
LINE
  5
E9BF
  8
3
 10
16.58329054641635
 20
55.888919478161569
 30
0.0
 11
16.590303782153399
 21
55.899439331767162
 31
0.0
  0
LINE
  5
E9C0
  8
3
 10
16.590303782153399
 20
55.899439331767162
 30
0.0
 11
16.59381040002188
 21
55.906452567504147
 31
0.0
  0
LINE
  5
E9C1
  8
3
 10
16.59381040002188
 20
55.906452567504147
 30
0.0
 11
16.6008236357589
 21
55.916972421109712
 31
0.0
  0
LINE
  5
E9C2
  8
3
 10
16.6008236357589
 20
55.916972421109712
 30
0.0
 11
16.607836871495952
 21
55.927492274715291
 31
0.0
  0
LINE
  5
E9C3
  8
3
 10
16.607836871495952
 20
55.927492274715291
 30
0.0
 11
16.614850107233021
 21
55.934505510452261
 31
0.0
  0
LINE
  5
E9C4
  8
3
 10
16.614850107233021
 20
55.934505510452261
 30
0.0
 11
16.618356725101499
 21
55.945025364057813
 31
0.0
  0
LINE
  5
E9C5
  8
3
 10
16.618356725101499
 20
55.945025364057813
 30
0.0
 11
16.632383196575571
 21
55.96957168913746
 31
0.0
  0
LINE
  5
E9C6
  8
3
 10
16.632383196575571
 20
55.96957168913746
 30
0.0
 11
16.734075114762529
 21
56.081783460929927
 31
0.0
  0
LINE
  5
E9C7
  8
3
 10
16.734075114762529
 20
56.081783460929927
 30
0.0
 11
16.744594968368091
 21
56.088796696667004
 31
0.0
  0
LINE
  5
E9C8
  8
3
 10
16.744594968368091
 20
56.088796696667004
 30
0.0
 11
16.75511482197356
 21
56.095809932403959
 31
0.0
  0
LINE
  5
E9C9
  8
3
 10
16.75511482197356
 20
56.095809932403959
 30
0.0
 11
16.765634675579118
 21
56.102823168141008
 31
0.0
  0
LINE
  5
E9CA
  8
3
 10
16.765634675579118
 20
56.102823168141008
 30
0.0
 11
16.77264791131617
 21
56.109836403878042
 31
0.0
  0
LINE
  5
E9CB
  8
3
 10
16.77264791131617
 20
56.109836403878042
 30
0.0
 11
16.783167764921728
 21
56.116849639615111
 31
0.0
  0
LINE
  5
E9CC
  8
3
 10
16.783167764921728
 20
56.116849639615111
 30
0.0
 11
16.79368761852723
 21
56.127369493220641
 31
0.0
  0
LINE
  5
E9CD
  8
3
 10
16.79368761852723
 20
56.127369493220641
 30
0.0
 11
16.804207472132791
 21
56.134382728957661
 31
0.0
  0
LINE
  5
E9CE
  8
3
 10
16.804207472132791
 20
56.134382728957661
 30
0.0
 11
16.814727325738339
 21
56.141395964694681
 31
0.0
  0
LINE
  5
E9CF
  8
3
 10
16.814727325738339
 20
56.141395964694681
 30
0.0
 11
16.821740561475391
 21
56.151915818300211
 31
0.0
  0
LINE
  5
E9D0
  8
3
 10
16.821740561475391
 20
56.151915818300211
 30
0.0
 11
16.832260415080921
 21
56.15892905403723
 31
0.0
  0
LINE
  5
E9D1
  8
3
 10
16.832260415080921
 20
56.15892905403723
 30
0.0
 11
16.842780268686479
 21
56.165942289774279
 31
0.0
  0
LINE
  5
E9D2
  8
3
 10
16.842780268686479
 20
56.165942289774279
 30
0.0
 11
16.853300122292008
 21
56.172955525511327
 31
0.0
  0
LINE
  5
E9D3
  8
3
 10
16.853300122292008
 20
56.172955525511327
 30
0.0
 11
16.86732659376608
 21
56.17996876124834
 31
0.0
  0
LINE
  5
E9D4
  8
3
 10
16.86732659376608
 20
56.17996876124834
 30
0.0
 11
16.87784644737161
 21
56.190488614853898
 31
0.0
  0
LINE
  5
E9D5
  8
3
 10
16.87784644737161
 20
56.190488614853898
 30
0.0
 11
16.905899390319739
 21
56.204515086328001
 31
0.0
  0
LINE
  5
E9D6
  8
3
 10
16.905899390319739
 20
56.204515086328001
 30
0.0
 11
16.916419243925269
 21
56.208021704196447
 31
0.0
  0
LINE
  5
E9D7
  8
3
 10
17.34072000601563
 20
55.713588584735838
 30
0.0
 11
17.291627355856399
 21
55.699562113261749
 31
0.0
  0
LINE
  5
E9D8
  8
3
 10
17.34072000601563
 20
55.180582668721541
 30
0.0
 11
17.291627355856399
 21
55.180582668721541
 31
0.0
  0
LINE
  5
E9D9
  8
3
 10
17.291627355856399
 20
55.699562113261749
 30
0.0
 11
17.242534705697182
 21
55.678522406050739
 31
0.0
  0
LINE
  5
E9DA
  8
3
 10
17.291627355856399
 20
55.180582668721541
 30
0.0
 11
17.239028087828672
 21
55.180582668721541
 31
0.0
  0
LINE
  5
E9DB
  8
3
 10
17.39331927404336
 20
55.720601820472872
 30
0.0
 11
17.34072000601563
 21
55.713588584735838
 31
0.0
  0
LINE
  5
E9DC
  8
3
 10
17.39331927404336
 20
55.180582668721541
 30
0.0
 11
17.34072000601563
 21
55.180582668721541
 31
0.0
  0
LINE
  5
E9DD
  8
3
 10
17.44942515993958
 20
55.727615056209849
 30
0.0
 11
17.39331927404336
 21
55.720601820472872
 31
0.0
  0
LINE
  5
E9DE
  8
3
 10
17.44591854207107
 20
55.180582668721541
 30
0.0
 11
17.39331927404336
 21
55.180582668721541
 31
0.0
  0
LINE
  5
E9DF
  8
3
 10
17.189935437669469
 20
56.316726858120461
 30
0.0
 11
17.20746852701205
 21
56.320233475988999
 31
0.0
  0
LINE
  5
E9E0
  8
3
 10
16.937458951136389
 20
56.222048175670523
 30
0.0
 11
16.947978804741918
 21
56.229061411407542
 31
0.0
  0
LINE
  5
E9E1
  8
3
 10
16.947978804741918
 20
56.229061411407542
 30
0.0
 11
16.96200527621599
 21
56.232568029276109
 31
0.0
  0
LINE
  5
E9E2
  8
3
 10
16.96200527621599
 20
56.232568029276109
 30
0.0
 11
16.97252512982152
 21
56.239581265013101
 31
0.0
  0
LINE
  5
E9E3
  8
3
 10
16.97252512982152
 20
56.239581265013101
 30
0.0
 11
16.983044983427071
 21
56.243087882881639
 31
0.0
  0
LINE
  5
E9E4
  8
3
 10
16.983044983427071
 20
56.243087882881639
 30
0.0
 11
16.993564837032611
 21
56.25010111861863
 31
0.0
  0
LINE
  5
E9E5
  8
3
 10
16.993564837032611
 20
56.25010111861863
 30
0.0
 11
17.004084690638159
 21
56.253607736487169
 31
0.0
  0
LINE
  5
E9E6
  8
3
 10
17.004084690638159
 20
56.253607736487169
 30
0.0
 11
17.018111162112231
 21
56.257114354355679
 31
0.0
  0
LINE
  5
E9E7
  8
3
 10
17.018111162112231
 20
56.257114354355679
 30
0.0
 11
17.028631015717789
 21
56.264127590092727
 31
0.0
  0
LINE
  5
E9E8
  8
3
 10
17.028631015717789
 20
56.264127590092727
 30
0.0
 11
17.039150869323318
 21
56.26763420796123
 31
0.0
  0
LINE
  5
E9E9
  8
3
 10
17.039150869323318
 20
56.26763420796123
 30
0.0
 11
17.049670722928852
 21
56.274647443698278
 31
0.0
  0
LINE
  5
E9EA
  8
3
 10
17.049670722928852
 20
56.274647443698278
 30
0.0
 11
17.06019057653441
 21
56.281660679435277
 31
0.0
  0
LINE
  5
E9EB
  8
3
 10
17.06019057653441
 20
56.281660679435277
 30
0.0
 11
17.081230283745501
 21
56.295687150909338
 31
0.0
  0
LINE
  5
E9EC
  8
3
 10
17.081230283745501
 20
56.295687150909338
 30
0.0
 11
17.098763373088069
 21
56.299193768777883
 31
0.0
  0
LINE
  5
E9ED
  8
3
 10
17.098763373088069
 20
56.299193768777883
 30
0.0
 11
17.11629646243065
 21
56.302700386646393
 31
0.0
  0
LINE
  5
E9EE
  8
3
 10
17.11629646243065
 20
56.302700386646393
 30
0.0
 11
17.133829551773228
 21
56.306207004514903
 31
0.0
  0
LINE
  5
E9EF
  8
3
 10
17.133829551773228
 20
56.306207004514903
 30
0.0
 11
17.15136264111581
 21
56.309713622383413
 31
0.0
  0
LINE
  5
E9F0
  8
3
 10
17.15136264111581
 20
56.309713622383413
 30
0.0
 11
17.168895730458392
 21
56.313220240251951
 31
0.0
  0
LINE
  5
E9F1
  8
3
 10
17.168895730458392
 20
56.313220240251951
 30
0.0
 11
17.189935437669469
 21
56.316726858120461
 31
0.0
  0
LINE
  5
E9F2
  8
3
 10
17.326693534541558
 20
56.334259947462982
 30
0.0
 11
17.361759713226721
 21
56.33776656533152
 31
0.0
  0
LINE
  5
E9F3
  8
3
 10
17.20746852701205
 20
56.320233475988999
 30
0.0
 11
17.225001616354628
 21
56.320233475988999
 31
0.0
  0
LINE
  5
E9F4
  8
3
 10
17.225001616354628
 20
56.320233475988999
 30
0.0
 11
17.242534705697182
 21
56.323740093857509
 31
0.0
  0
LINE
  5
E9F5
  8
3
 10
17.242534705697182
 20
56.323740093857509
 30
0.0
 11
17.260067795039792
 21
56.327246711725991
 31
0.0
  0
LINE
  5
E9F6
  8
3
 10
17.260067795039792
 20
56.327246711725991
 30
0.0
 11
17.277600884382341
 21
56.327246711725991
 31
0.0
  0
LINE
  5
E9F7
  8
3
 10
17.277600884382341
 20
56.327246711725991
 30
0.0
 11
17.291627355856399
 21
56.330753329594501
 31
0.0
  0
LINE
  5
E9F8
  8
3
 10
17.291627355856399
 20
56.330753329594501
 30
0.0
 11
17.309160445199009
 21
56.334259947462982
 31
0.0
  0
LINE
  5
E9F9
  8
3
 10
17.309160445199009
 20
56.334259947462982
 30
0.0
 11
17.326693534541558
 21
56.334259947462982
 31
0.0
  0
LINE
  5
E9FA
  8
3
 10
17.361759713226721
 20
56.33776656533152
 30
0.0
 11
17.361759713226721
 21
56.33776656533152
 31
0.0
  0
LINE
  5
E9FB
  8
3
 10
17.61774281762834
 20
55.724108438341382
 30
0.0
 11
17.558130313863561
 21
55.727615056209849
 31
0.0
  0
LINE
  5
E9FC
  8
3
 10
17.656315614181999
 20
55.177076050853032
 30
0.0
 11
17.60371634615424
 21
55.177076050853032
 31
0.0
  0
LINE
  5
E9FD
  8
3
 10
17.16538911258985
 20
55.597870195074847
 30
0.0
 11
17.933338425794691
 21
55.594363577206281
 31
0.0
  0
LINE
  5
E9FE
  8
3
 10
17.361759713226721
 20
56.33776656533152
 30
0.0
 11
18.010484018902019
 21
56.34127318320003
 31
0.0
  0
LINE
  5
E9FF
  8
3
 10
22.579607101577299
 20
56.232568029276109
 30
0.0
 11
22.642726223210559
 21
56.211528322064957
 31
0.0
  0
LINE
  5
EA00
  8
3
 10
19.42715763778213
 20
56.215034939933503
 30
0.0
 11
19.476250287941351
 21
56.232568029276109
 31
0.0
  0
LINE
  5
EA01
  8
3
 10
20.899937142558521
 20
56.201008468459428
 30
0.0
 11
20.93500332124367
 21
56.218541557802013
 31
0.0
  0
LINE
  5
EA02
  8
3
 10
20.416023876703409
 20
56.218541557802013
 30
0.0
 11
20.416023876703409
 21
56.18347537911685
 31
0.0
  0
LINE
  5
EA03
  8
3
 10
21.646846748552228
 20
56.141395964694681
 30
0.0
 11
21.780098227555811
 21
56.260620972224238
 31
0.0
  0
LINE
  5
EA04
  8
3
 10
21.510088651680149
 20
56.285167297303779
 30
0.0
 11
21.510088651680149
 21
55.675015788182151
 31
0.0
  0
LINE
  5
EA05
  8
3
 10
19.577942206128281
 20
55.55228416278414
 30
0.0
 11
20.349398137201629
 21
55.55228416278414
 31
0.0
  0
LINE
  5
EA06
  8
3
 10
20.35641137293868
 20
55.127983400693857
 30
0.0
 11
19.55339588104869
 21
55.124476782825298
 31
0.0
  0
LINE
  5
EA07
  8
3
 10
20.3634246086757
 20
55.703068731130287
 30
0.0
 11
20.303812104910939
 21
55.699562113261749
 31
0.0
  0
LINE
  5
EA08
  8
3
 10
22.3306372329127
 20
55.653976080971063
 30
0.0
 11
22.267518111279401
 21
55.660989316708083
 31
0.0
  0
LINE
  5
EA09
  8
3
 10
22.204398989646169
 20
55.664495934576649
 30
0.0
 11
22.137773250144331
 21
55.664495934576649
 31
0.0
  0
LINE
  5
EA0A
  8
3
 10
22.137773250144331
 20
55.664495934576649
 30
0.0
 11
22.071147510642561
 21
55.664495934576649
 31
0.0
  0
LINE
  5
EA0B
  8
3
 10
22.267518111279401
 20
55.660989316708083
 30
0.0
 11
22.204398989646169
 21
55.664495934576649
 31
0.0
  0
LINE
  5
EA0C
  8
3
 10
22.702338726975292
 20
56.186981996985388
 30
0.0
 11
22.76195123074007
 21
56.162435671905769
 31
0.0
  0
LINE
  5
EA0D
  8
3
 10
22.642726223210559
 20
56.211528322064957
 30
0.0
 11
22.702338726975292
 21
56.186981996985388
 31
0.0
  0
LINE
  5
EA0E
  8
3
 10
22.818057116636311
 20
56.130876111089123
 30
0.0
 11
22.87065638466402
 21
56.095809932403959
 31
0.0
  0
LINE
  5
EA0F
  8
3
 10
22.87065638466402
 20
56.095809932403959
 30
0.0
 11
22.923255652691779
 21
56.06074375371881
 31
0.0
  0
LINE
  5
EA10
  8
3
 10
22.923255652691779
 20
56.06074375371881
 30
0.0
 11
22.96884168498244
 21
56.022170957165152
 31
0.0
  0
LINE
  5
EA11
  8
3
 10
22.76195123074007
 20
56.162435671905769
 30
0.0
 11
22.818057116636311
 21
56.130876111089123
 31
0.0
  0
LINE
  5
EA12
  8
3
 10
22.96884168498244
 20
56.022170957165152
 30
0.0
 11
23.014427717273179
 21
55.980091542742997
 31
0.0
  0
LINE
  5
EA13
  8
3
 10
22.449862240442229
 20
55.618909902285942
 30
0.0
 11
22.39024973667745
 21
55.639949609496959
 31
0.0
  0
LINE
  5
EA14
  8
3
 10
22.39024973667745
 20
55.639949609496959
 30
0.0
 11
22.3306372329127
 21
55.653976080971063
 31
0.0
  0
LINE
  5
EA15
  8
3
 10
22.555060776497669
 20
55.534751073441498
 30
0.0
 11
22.555060776497669
 21
55.538257691310093
 31
0.0
  0
LINE
  5
EA16
  8
3
 10
22.555060776497669
 20
55.538257691310093
 30
0.0
 11
22.555060776497669
 21
55.541764309178603
 31
0.0
  0
LINE
  5
EA17
  8
3
 10
22.555060776497669
 20
55.541764309178603
 30
0.0
 11
22.555060776497669
 21
55.545270927047092
 31
0.0
  0
LINE
  5
EA18
  8
3
 10
22.555060776497669
 20
55.545270927047092
 30
0.0
 11
22.555060776497669
 21
55.548777544915623
 31
0.0
  0
LINE
  5
EA19
  8
3
 10
22.555060776497669
 20
55.548777544915623
 30
0.0
 11
22.555060776497669
 21
55.55228416278414
 31
0.0
  0
LINE
  5
EA1A
  8
3
 10
22.555060776497669
 20
55.55228416278414
 30
0.0
 11
22.558567394366179
 21
55.559297398521153
 31
0.0
  0
LINE
  5
EA1B
  8
3
 10
22.558567394366179
 20
55.559297398521153
 30
0.0
 11
22.502461508469938
 21
55.590856959337771
 31
0.0
  0
LINE
  5
EA1C
  8
3
 10
22.502461508469938
 20
55.590856959337771
 30
0.0
 11
22.449862240442229
 21
55.618909902285942
 31
0.0
  0
LINE
  5
EA1D
  8
3
 10
20.770192281423451
 20
55.064864279060508
 30
0.0
 11
20.770192281423451
 21
55.075384132666073
 31
0.0
  0
LINE
  5
EA1E
  8
3
 10
21.359304083333999
 20
55.156036343641887
 30
0.0
 11
21.366317319071008
 21
55.110450311351251
 31
0.0
  0
LINE
  5
EA1F
  8
3
 10
21.468009237257949
 20
55.10343707561421
 30
0.0
 11
21.471515855126491
 21
55.138503254299359
 31
0.0
  0
LINE
  5
EA20
  8
3
 10
20.763179045686432
 20
55.106943693482712
 30
0.0
 11
20.700059924053111
 21
55.163049579378963
 31
0.0
  0
LINE
  5
EA21
  8
3
 10
20.770192281423451
 20
55.075384132666073
 30
0.0
 11
20.766685663554941
 21
55.085903986271632
 31
0.0
  0
LINE
  5
EA22
  8
3
 10
20.766685663554941
 20
55.085903986271632
 30
0.0
 11
20.763179045686432
 21
55.106943693482712
 31
0.0
  0
LINE
  5
EA23
  8
3
 10
21.366317319071008
 20
55.110450311351251
 30
0.0
 11
21.36982393693955
 21
55.068370896929054
 31
0.0
  0
LINE
  5
EA24
  8
3
 10
21.464502619389439
 20
55.068370896929054
 30
0.0
 11
21.468009237257949
 21
55.10343707561421
 31
0.0
  0
LINE
  5
EA25
  8
3
 10
20.672006981105032
 20
55.994118014217008
 30
0.0
 11
20.696553306184629
 21
56.022170957165152
 31
0.0
  0
LINE
  5
EA26
  8
3
 10
20.601874623734709
 20
55.860866535213518
 30
0.0
 11
20.605381241603229
 21
55.867879770950509
 31
0.0
  0
LINE
  5
EA27
  8
3
 10
20.598368005866231
 20
55.853853299476469
 30
0.0
 11
20.601874623734709
 21
55.860866535213518
 31
0.0
  0
LINE
  5
EA28
  8
3
 10
20.605381241603229
 20
55.867879770950509
 30
0.0
 11
20.61590109520878
 21
55.88541286029308
 31
0.0
  0
LINE
  5
EA29
  8
3
 10
20.61590109520878
 20
55.88541286029308
 30
0.0
 11
20.61590109520878
 21
55.888919478161569
 31
0.0
  0
LINE
  5
EA2A
  8
3
 10
20.61590109520878
 20
55.888919478161569
 30
0.0
 11
20.61590109520878
 21
55.892426096030107
 31
0.0
  0
LINE
  5
EA2B
  8
3
 10
20.61590109520878
 20
55.892426096030107
 30
0.0
 11
20.61590109520878
 21
55.895932713898617
 31
0.0
  0
LINE
  5
EA2C
  8
3
 10
20.61590109520878
 20
55.895932713898617
 30
0.0
 11
20.61590109520878
 21
55.899439331767162
 31
0.0
  0
LINE
  5
EA2D
  8
3
 10
20.61590109520878
 20
55.899439331767162
 30
0.0
 11
20.61590109520878
 21
55.902945949635608
 31
0.0
  0
LINE
  5
EA2E
  8
3
 10
20.61590109520878
 20
55.902945949635608
 30
0.0
 11
20.619407713077301
 21
55.906452567504147
 31
0.0
  0
LINE
  5
EA2F
  8
3
 10
20.619407713077301
 20
55.906452567504147
 30
0.0
 11
20.619407713077301
 21
55.909959185372678
 31
0.0
  0
LINE
  5
EA30
  8
3
 10
20.619407713077301
 20
55.909959185372678
 30
0.0
 11
20.619407713077301
 21
55.913465803241252
 31
0.0
  0
LINE
  5
EA31
  8
3
 10
20.619407713077301
 20
55.913465803241252
 30
0.0
 11
20.619407713077301
 21
55.916972421109712
 31
0.0
  0
LINE
  5
EA32
  8
3
 10
20.619407713077301
 20
55.916972421109712
 30
0.0
 11
20.619407713077301
 21
55.92047903897825
 31
0.0
  0
LINE
  5
EA33
  8
3
 10
20.619407713077301
 20
55.92047903897825
 30
0.0
 11
20.6229143309458
 21
55.923985656846718
 31
0.0
  0
LINE
  5
EA34
  8
3
 10
20.6229143309458
 20
55.923985656846718
 30
0.0
 11
20.6229143309458
 21
55.927492274715291
 31
0.0
  0
LINE
  5
EA35
  8
3
 10
20.6229143309458
 20
55.927492274715291
 30
0.0
 11
20.626420948814339
 21
55.927492274715291
 31
0.0
  0
LINE
  5
EA36
  8
3
 10
20.626420948814339
 20
55.927492274715291
 30
0.0
 11
20.629927566682831
 21
55.934505510452261
 31
0.0
  0
LINE
  5
EA37
  8
3
 10
20.629927566682831
 20
55.934505510452261
 30
0.0
 11
20.65096727389394
 21
55.962558453400391
 31
0.0
  0
LINE
  5
EA38
  8
3
 10
20.65096727389394
 20
55.962558453400391
 30
0.0
 11
20.672006981105032
 21
55.994118014217008
 31
0.0
  0
LINE
  5
EA39
  8
3
 10
20.749152574212332
 20
56.081783460929927
 30
0.0
 11
20.777205517160439
 21
56.106329786009532
 31
0.0
  0
LINE
  5
EA3A
  8
3
 10
20.696553306184629
 20
56.022170957165152
 30
0.0
 11
20.72109963126422
 21
56.053730517981791
 31
0.0
  0
LINE
  5
EA3B
  8
3
 10
20.72109963126422
 20
56.053730517981791
 30
0.0
 11
20.749152574212332
 21
56.081783460929927
 31
0.0
  0
LINE
  5
EA3C
  8
3
 10
20.777205517160439
 20
56.106329786009532
 30
0.0
 11
20.805258460108611
 21
56.130876111089123
 31
0.0
  0
LINE
  5
EA3D
  8
3
 10
20.805258460108611
 20
56.130876111089123
 30
0.0
 11
20.836818020925222
 21
56.155422436168749
 31
0.0
  0
LINE
  5
EA3E
  8
3
 10
20.836818020925222
 20
56.155422436168749
 30
0.0
 11
20.868377581741871
 21
56.17996876124834
 31
0.0
  0
LINE
  5
EA3F
  8
3
 10
20.416023876703409
 20
55.892426096030107
 30
0.0
 11
20.4125172588349
 21
55.853853299476469
 31
0.0
  0
LINE
  5
EA40
  8
3
 10
20.416023876703409
 20
56.18347537911685
 30
0.0
 11
20.419530494571951
 21
56.144902582563191
 31
0.0
  0
LINE
  5
EA41
  8
3
 10
20.419530494571951
 20
56.144902582563191
 30
0.0
 11
20.419530494571951
 21
56.109836403878042
 31
0.0
  0
LINE
  5
EA42
  8
3
 10
20.419530494571951
 20
56.109836403878042
 30
0.0
 11
20.419530494571951
 21
56.074770225192879
 31
0.0
  0
LINE
  5
EA43
  8
3
 10
20.419530494571951
 20
56.074770225192879
 30
0.0
 11
20.419530494571951
 21
56.036197428639241
 31
0.0
  0
LINE
  5
EA44
  8
3
 10
20.419530494571951
 20
56.036197428639241
 30
0.0
 11
20.416023876703409
 21
56.001131249954057
 31
0.0
  0
LINE
  5
EA45
  8
3
 10
20.416023876703409
 20
56.001131249954057
 30
0.0
 11
20.416023876703409
 21
55.966065071268922
 31
0.0
  0
LINE
  5
EA46
  8
3
 10
20.416023876703409
 20
55.966065071268922
 30
0.0
 11
20.416023876703409
 21
55.927492274715291
 31
0.0
  0
LINE
  5
EA47
  8
3
 10
20.416023876703409
 20
55.927492274715291
 30
0.0
 11
20.416023876703409
 21
55.892426096030107
 31
0.0
  0
LINE
  5
EA48
  8
3
 10
20.59135477012919
 20
55.825800356528312
 30
0.0
 11
20.59135477012919
 21
55.836320210133827
 31
0.0
  0
LINE
  5
EA49
  8
3
 10
20.59135477012919
 20
55.836320210133827
 30
0.0
 11
20.5948613879977
 21
55.843333445870883
 31
0.0
  0
LINE
  5
EA4A
  8
3
 10
20.5948613879977
 20
55.843333445870883
 30
0.0
 11
20.598368005866231
 21
55.853853299476469
 31
0.0
  0
LINE
  5
EA4B
  8
3
 10
20.700059924053111
 20
55.163049579378963
 30
0.0
 11
20.67902021684208
 21
55.191102522327071
 31
0.0
  0
LINE
  5
EA4C
  8
3
 10
20.67902021684208
 20
55.191102522327071
 30
0.0
 11
20.65798050963096
 21
55.219155465275229
 31
0.0
  0
LINE
  5
EA4D
  8
3
 10
20.65798050963096
 20
55.219155465275229
 30
0.0
 11
20.640447420288378
 21
55.250715026091832
 31
0.0
  0
LINE
  5
EA4E
  8
3
 10
20.640447420288378
 20
55.250715026091832
 30
0.0
 11
20.6229143309458
 21
55.28578120477701
 31
0.0
  0
LINE
  5
EA4F
  8
3
 10
20.6229143309458
 20
55.28578120477701
 30
0.0
 11
20.608887859471739
 21
55.317340765593627
 31
0.0
  0
LINE
  5
EA50
  8
3
 10
20.608887859471739
 20
55.317340765593627
 30
0.0
 11
20.5948613879977
 21
55.355913562147272
 31
0.0
  0
LINE
  5
EA51
  8
3
 10
20.5948613879977
 20
55.355913562147272
 30
0.0
 11
20.584341534392141
 21
55.390979740832471
 31
0.0
  0
LINE
  5
EA52
  8
3
 10
20.584341534392141
 20
55.390979740832471
 30
0.0
 11
20.573821680786612
 21
55.42604591951757
 31
0.0
  0
LINE
  5
EA53
  8
3
 10
20.573821680786612
 20
55.42604591951757
 30
0.0
 11
20.56680844504956
 21
55.46461871607125
 31
0.0
  0
LINE
  5
EA54
  8
3
 10
20.56680844504956
 20
55.46461871607125
 30
0.0
 11
20.559795209312568
 21
55.503191512624909
 31
0.0
  0
LINE
  5
EA55
  8
3
 10
20.559795209312568
 20
55.503191512624909
 30
0.0
 11
20.55628859144403
 21
55.541764309178603
 31
0.0
  0
LINE
  5
EA56
  8
3
 10
20.55628859144403
 20
55.541764309178603
 30
0.0
 11
20.55278197357552
 21
55.580337105732298
 31
0.0
  0
LINE
  5
EA57
  8
3
 10
20.55278197357552
 20
55.580337105732298
 30
0.0
 11
20.55278197357552
 21
55.618909902285942
 31
0.0
  0
LINE
  5
EA58
  8
3
 10
20.55278197357552
 20
55.618909902285942
 30
0.0
 11
20.55278197357552
 21
55.657482698839601
 31
0.0
  0
LINE
  5
EA59
  8
3
 10
20.55278197357552
 20
55.657482698839601
 30
0.0
 11
20.56680844504956
 21
55.734628291946933
 31
0.0
  0
LINE
  5
EA5A
  8
3
 10
20.56680844504956
 20
55.734628291946933
 30
0.0
 11
20.57031506291807
 21
55.745148145552491
 31
0.0
  0
LINE
  5
EA5B
  8
3
 10
20.57031506291807
 20
55.745148145552491
 30
0.0
 11
20.573821680786612
 21
55.755667999158042
 31
0.0
  0
LINE
  5
EA5C
  8
3
 10
20.573821680786612
 20
55.755667999158042
 30
0.0
 11
20.577328298655122
 21
55.766187852763487
 31
0.0
  0
LINE
  5
EA5D
  8
3
 10
20.577328298655122
 20
55.766187852763487
 30
0.0
 11
20.580834916523632
 21
55.77670770636913
 31
0.0
  0
LINE
  5
EA5E
  8
3
 10
20.580834916523632
 20
55.77670770636913
 30
0.0
 11
20.580834916523632
 21
55.787227559974639
 31
0.0
  0
LINE
  5
EA5F
  8
3
 10
20.580834916523632
 20
55.787227559974639
 30
0.0
 11
20.584341534392141
 21
55.797747413580218
 31
0.0
  0
LINE
  5
EA60
  8
3
 10
20.584341534392141
 20
55.797747413580218
 30
0.0
 11
20.58784815226068
 21
55.804760649317238
 31
0.0
  0
LINE
  5
EA61
  8
3
 10
20.58784815226068
 20
55.804760649317238
 30
0.0
 11
20.58784815226068
 21
55.815280502922768
 31
0.0
  0
LINE
  5
EA62
  8
3
 10
20.416023876703409
 20
55.818787120791256
 30
0.0
 11
20.416023876703409
 21
55.780214324237619
 31
0.0
  0
LINE
  5
EA63
  8
3
 10
20.416023876703409
 20
55.780214324237619
 30
0.0
 11
20.423037112440451
 21
55.7100819668673
 31
0.0
  0
LINE
  5
EA64
  8
3
 10
20.423037112440451
 20
55.7100819668673
 30
0.0
 11
20.3634246086757
 21
55.703068731130287
 31
0.0
  0
LINE
  5
EA65
  8
3
 10
20.349398137201629
 20
55.55228416278414
 30
0.0
 11
20.349398137201629
 21
55.517217984098998
 31
0.0
  0
LINE
  5
EA66
  8
3
 10
20.349398137201629
 20
55.517217984098998
 30
0.0
 11
20.349398137201629
 21
55.485658423282359
 31
0.0
  0
LINE
  5
EA67
  8
3
 10
20.349398137201629
 20
55.485658423282359
 30
0.0
 11
20.352904755070139
 21
55.457605480334223
 31
0.0
  0
LINE
  5
EA68
  8
3
 10
20.352904755070139
 20
55.457605480334223
 30
0.0
 11
20.352904755070139
 21
55.429552537386108
 31
0.0
  0
LINE
  5
EA69
  8
3
 10
20.352904755070139
 20
55.429552537386108
 30
0.0
 11
20.352904755070139
 21
55.405006212306553
 31
0.0
  0
LINE
  5
EA6A
  8
3
 10
20.352904755070139
 20
55.405006212306553
 30
0.0
 11
20.35641137293868
 21
55.380459887226863
 31
0.0
  0
LINE
  5
EA6B
  8
3
 10
20.35641137293868
 20
55.380459887226863
 30
0.0
 11
20.35641137293868
 21
55.355913562147272
 31
0.0
  0
LINE
  5
EA6C
  8
3
 10
20.35641137293868
 20
55.355913562147272
 30
0.0
 11
20.35641137293868
 21
55.334873854936227
 31
0.0
  0
LINE
  5
EA6D
  8
3
 10
20.35641137293868
 20
55.334873854936227
 30
0.0
 11
20.35641137293868
 21
55.313834147725117
 31
0.0
  0
LINE
  5
EA6E
  8
3
 10
20.35641137293868
 20
55.313834147725117
 30
0.0
 11
20.35641137293868
 21
55.292794440514058
 31
0.0
  0
LINE
  5
EA6F
  8
3
 10
20.35641137293868
 20
55.292794440514058
 30
0.0
 11
20.35641137293868
 21
55.27175473330292
 31
0.0
  0
LINE
  5
EA70
  8
3
 10
20.35641137293868
 20
55.27175473330292
 30
0.0
 11
20.35641137293868
 21
55.250715026091832
 31
0.0
  0
LINE
  5
EA71
  8
3
 10
20.35641137293868
 20
55.250715026091832
 30
0.0
 11
20.35991799080719
 21
55.229675318880737
 31
0.0
  0
LINE
  5
EA72
  8
3
 10
20.35991799080719
 20
55.229675318880737
 30
0.0
 11
20.35991799080719
 21
55.208635611669678
 31
0.0
  0
LINE
  5
EA73
  8
3
 10
20.35991799080719
 20
55.208635611669678
 30
0.0
 11
20.3634246086757
 21
55.166556197247502
 31
0.0
  0
LINE
  5
EA74
  8
3
 10
20.3634246086757
 20
55.166556197247502
 30
0.0
 11
20.35991799080719
 21
55.163049579378963
 31
0.0
  0
LINE
  5
EA75
  8
3
 10
20.35991799080719
 20
55.163049579378963
 30
0.0
 11
20.35991799080719
 21
55.159542961510454
 31
0.0
  0
LINE
  5
EA76
  8
3
 10
20.35991799080719
 20
55.159542961510454
 30
0.0
 11
20.35991799080719
 21
55.156036343641887
 31
0.0
  0
LINE
  5
EA77
  8
3
 10
20.35991799080719
 20
55.156036343641887
 30
0.0
 11
20.35991799080719
 21
55.152529725773398
 31
0.0
  0
LINE
  5
EA78
  8
3
 10
20.35991799080719
 20
55.152529725773398
 30
0.0
 11
20.35991799080719
 21
55.14902310790486
 31
0.0
  0
LINE
  5
EA79
  8
3
 10
20.35991799080719
 20
55.14902310790486
 30
0.0
 11
20.35991799080719
 21
55.14551649003635
 31
0.0
  0
LINE
  5
EA7A
  8
3
 10
20.35991799080719
 20
55.14551649003635
 30
0.0
 11
20.35991799080719
 21
55.142009872167812
 31
0.0
  0
LINE
  5
EA7B
  8
3
 10
20.35991799080719
 20
55.142009872167812
 30
0.0
 11
20.35641137293868
 21
55.142009872167812
 31
0.0
  0
LINE
  5
EA7C
  8
3
 10
20.35641137293868
 20
55.142009872167812
 30
0.0
 11
20.35641137293868
 21
55.138503254299359
 31
0.0
  0
LINE
  5
EA7D
  8
3
 10
20.35641137293868
 20
55.138503254299359
 30
0.0
 11
20.35641137293868
 21
55.134996636430799
 31
0.0
  0
LINE
  5
EA7E
  8
3
 10
20.35641137293868
 20
55.134996636430799
 30
0.0
 11
20.35641137293868
 21
55.131490018562261
 31
0.0
  0
LINE
  5
EA7F
  8
3
 10
20.35641137293868
 20
55.131490018562261
 30
0.0
 11
20.35641137293868
 21
55.127983400693857
 31
0.0
  0
LINE
  5
EA80
  8
3
 10
20.58784815226068
 20
55.815280502922768
 30
0.0
 11
20.59135477012919
 21
55.825800356528312
 31
0.0
  0
LINE
  5
EA81
  8
3
 10
20.4125172588349
 20
55.853853299476469
 30
0.0
 11
20.416023876703409
 21
55.818787120791256
 31
0.0
  0
LINE
  5
EA82
  8
3
 10
20.868377581741871
 20
56.17996876124834
 30
0.0
 11
20.899937142558521
 21
56.201008468459428
 31
0.0
  0
LINE
  5
EA83
  8
3
 10
21.58372762691894
 20
55.8748930066875
 30
0.0
 11
21.587234244787481
 21
55.906452567504147
 31
0.0
  0
LINE
  5
EA84
  8
3
 10
21.587234244787481
 20
55.906452567504147
 30
0.0
 11
21.590740862655991
 21
55.938012128320793
 31
0.0
  0
LINE
  5
EA85
  8
3
 10
21.590740862655991
 20
55.938012128320793
 30
0.0
 11
21.597754098393011
 21
55.966065071268922
 31
0.0
  0
LINE
  5
EA86
  8
3
 10
21.597754098393011
 20
55.966065071268922
 30
0.0
 11
21.60126071626155
 21
55.997624632085568
 31
0.0
  0
LINE
  5
EA87
  8
3
 10
21.60126071626155
 20
55.997624632085568
 30
0.0
 11
21.604767334130059
 21
56.02567757503374
 31
0.0
  0
LINE
  5
EA88
  8
3
 10
21.604767334130059
 20
56.02567757503374
 30
0.0
 11
21.611780569867079
 21
56.057237135850329
 31
0.0
  0
LINE
  5
EA89
  8
3
 10
21.611780569867079
 20
56.057237135850329
 30
0.0
 11
21.622300423472609
 21
56.085290078798408
 31
0.0
  0
LINE
  5
EA8A
  8
3
 10
21.622300423472609
 20
56.085290078798408
 30
0.0
 11
21.646846748552228
 21
56.141395964694681
 31
0.0
  0
LINE
  5
EA8B
  8
3
 10
21.58022100905043
 20
55.846840063739393
 30
0.0
 11
21.58372762691894
 21
55.8748930066875
 31
0.0
  0
LINE
  5
EA8C
  8
3
 10
21.233065840067439
 20
55.660989316708083
 30
0.0
 11
21.19449304351377
 21
55.657482698839601
 31
0.0
  0
LINE
  5
EA8D
  8
3
 10
21.19449304351377
 20
55.517217984098998
 30
0.0
 11
21.201506279250822
 21
55.506698130493447
 31
0.0
  0
LINE
  5
EA8E
  8
3
 10
21.19449304351377
 20
55.657482698839601
 30
0.0
 11
21.187479807776729
 21
55.650469463102517
 31
0.0
  0
LINE
  5
EA8F
  8
3
 10
21.187479807776729
 20
55.650469463102517
 30
0.0
 11
21.183973189908219
 21
55.646962845234007
 31
0.0
  0
LINE
  5
EA90
  8
3
 10
21.183973189908219
 20
55.646962845234007
 30
0.0
 11
21.176959954171199
 21
55.643456227365498
 31
0.0
  0
LINE
  5
EA91
  8
3
 10
21.176959954171199
 20
55.643456227365498
 30
0.0
 11
21.173453336302678
 21
55.636442991628513
 31
0.0
  0
LINE
  5
EA92
  8
3
 10
21.173453336302678
 20
55.636442991628513
 30
0.0
 11
21.169946718434179
 21
55.629429755891493
 31
0.0
  0
LINE
  5
EA93
  8
3
 10
21.169946718434179
 20
55.629429755891493
 30
0.0
 11
21.166440100565669
 21
55.622416520154438
 31
0.0
  0
LINE
  5
EA94
  8
3
 10
21.166440100565669
 20
55.622416520154438
 30
0.0
 11
21.166440100565669
 21
55.615403284417432
 31
0.0
  0
LINE
  5
EA95
  8
3
 10
21.166440100565669
 20
55.615403284417432
 30
0.0
 11
21.162933482697149
 21
55.608390048680377
 31
0.0
  0
LINE
  5
EA96
  8
3
 10
21.162933482697149
 20
55.608390048680377
 30
0.0
 11
21.162933482697149
 21
55.60137681294335
 31
0.0
  0
LINE
  5
EA97
  8
3
 10
21.162933482697149
 20
55.60137681294335
 30
0.0
 11
21.159426864828621
 21
55.594363577206281
 31
0.0
  0
LINE
  5
EA98
  8
3
 10
21.159426864828621
 20
55.594363577206281
 30
0.0
 11
21.159426864828621
 21
55.587350341469289
 31
0.0
  0
LINE
  5
EA99
  8
3
 10
21.159426864828621
 20
55.587350341469289
 30
0.0
 11
21.159426864828621
 21
55.576830487863759
 31
0.0
  0
LINE
  5
EA9A
  8
3
 10
21.159426864828621
 20
55.576830487863759
 30
0.0
 11
21.162933482697149
 21
55.56981725212674
 31
0.0
  0
LINE
  5
EA9B
  8
3
 10
21.162933482697149
 20
55.56981725212674
 30
0.0
 11
21.162933482697149
 21
55.562804016389663
 31
0.0
  0
LINE
  5
EA9C
  8
3
 10
21.162933482697149
 20
55.562804016389663
 30
0.0
 11
21.169946718434179
 21
55.548777544915623
 31
0.0
  0
LINE
  5
EA9D
  8
3
 10
21.169946718434179
 20
55.548777544915623
 30
0.0
 11
21.176959954171199
 21
55.538257691310093
 31
0.0
  0
LINE
  5
EA9E
  8
3
 10
21.176959954171199
 20
55.538257691310093
 30
0.0
 11
21.183973189908219
 21
55.53124445557301
 31
0.0
  0
LINE
  5
EA9F
  8
3
 10
21.183973189908219
 20
55.53124445557301
 30
0.0
 11
21.190986425645271
 21
55.524231219836018
 31
0.0
  0
LINE
  5
EAA0
  8
3
 10
21.190986425645271
 20
55.524231219836018
 30
0.0
 11
21.19449304351377
 21
55.517217984098998
 31
0.0
  0
LINE
  5
EAA1
  8
3
 10
21.804644552635409
 20
55.650469463102517
 30
0.0
 11
21.738018813133611
 21
55.650469463102517
 31
0.0
  0
LINE
  5
EAA2
  8
3
 10
21.738018813133611
 20
55.650469463102517
 30
0.0
 11
21.67139307363183
 21
55.650469463102517
 31
0.0
  0
LINE
  5
EAA3
  8
3
 10
21.401383497756171
 20
55.660989316708083
 30
0.0
 11
21.380343790545059
 21
55.660989316708083
 31
0.0
  0
LINE
  5
EAA4
  8
3
 10
21.380343790545059
 20
55.660989316708083
 30
0.0
 11
21.359304083333999
 21
55.664495934576649
 31
0.0
  0
LINE
  5
EAA5
  8
3
 10
21.359304083333999
 20
55.664495934576649
 30
0.0
 11
21.341770993991421
 21
55.664495934576649
 31
0.0
  0
LINE
  5
EAA6
  8
3
 10
21.341770993991421
 20
55.664495934576649
 30
0.0
 11
21.32073128678033
 21
55.664495934576649
 31
0.0
  0
LINE
  5
EAA7
  8
3
 10
21.32073128678033
 20
55.664495934576649
 30
0.0
 11
21.30319819743772
 21
55.664495934576649
 31
0.0
  0
LINE
  5
EAA8
  8
3
 10
21.30319819743772
 20
55.664495934576649
 30
0.0
 11
21.28566510809517
 21
55.664495934576649
 31
0.0
  0
LINE
  5
EAA9
  8
3
 10
21.28566510809517
 20
55.664495934576649
 30
0.0
 11
21.268132018752588
 21
55.664495934576649
 31
0.0
  0
LINE
  5
EAAA
  8
3
 10
21.268132018752588
 20
55.664495934576649
 30
0.0
 11
21.250598929410021
 21
55.664495934576649
 31
0.0
  0
LINE
  5
EAAB
  8
3
 10
21.250598929410021
 20
55.664495934576649
 30
0.0
 11
21.233065840067439
 21
55.660989316708083
 31
0.0
  0
LINE
  5
EAAC
  8
3
 10
21.201506279250822
 20
55.506698130493447
 30
0.0
 11
21.208519514987842
 21
55.49968489475642
 31
0.0
  0
LINE
  5
EAAD
  8
3
 10
21.208519514987842
 20
55.49968489475642
 30
0.0
 11
21.21553275072489
 21
55.489165041150869
 31
0.0
  0
LINE
  5
EAAE
  8
3
 10
21.21553275072489
 20
55.489165041150869
 30
0.0
 11
21.22254598646191
 21
55.482151805413849
 31
0.0
  0
LINE
  5
EAAF
  8
3
 10
21.22254598646191
 20
55.482151805413849
 30
0.0
 11
21.22955922219893
 21
55.47163195180832
 31
0.0
  0
LINE
  5
EAB0
  8
3
 10
21.22955922219893
 20
55.47163195180832
 30
0.0
 11
21.236572457935949
 21
55.461112098202761
 31
0.0
  0
LINE
  5
EAB1
  8
3
 10
21.236572457935949
 20
55.461112098202761
 30
0.0
 11
21.243585693673001
 21
55.454098862465742
 31
0.0
  0
LINE
  5
EAB2
  8
3
 10
21.243585693673001
 20
55.454098862465742
 30
0.0
 11
21.250598929410021
 21
55.443579008860162
 31
0.0
  0
LINE
  5
EAB3
  8
3
 10
21.250598929410021
 20
55.443579008860162
 30
0.0
 11
21.254105547278531
 21
55.433059155254618
 31
0.0
  0
LINE
  5
EAB4
  8
3
 10
21.254105547278531
 20
55.433059155254618
 30
0.0
 11
21.261118783015551
 21
55.42604591951757
 31
0.0
  0
LINE
  5
EAB5
  8
3
 10
21.261118783015551
 20
55.42604591951757
 30
0.0
 11
21.278651872358161
 21
55.40851283017502
 31
0.0
  0
LINE
  5
EAB6
  8
3
 10
21.278651872358161
 20
55.40851283017502
 30
0.0
 11
21.296184961700732
 21
55.366433415752788
 31
0.0
  0
LINE
  5
EAB7
  8
3
 10
21.296184961700732
 20
55.366433415752788
 30
0.0
 11
21.313718051043281
 21
55.32435400133064
 31
0.0
  0
LINE
  5
EAB8
  8
3
 10
21.313718051043281
 20
55.32435400133064
 30
0.0
 11
21.331251140385891
 21
55.282274586908471
 31
0.0
  0
LINE
  5
EAB9
  8
3
 10
21.331251140385891
 20
55.282274586908471
 30
0.0
 11
21.341770993991421
 21
55.240195172486239
 31
0.0
  0
LINE
  5
EABA
  8
3
 10
21.341770993991421
 20
55.240195172486239
 30
0.0
 11
21.352290847596951
 21
55.198115758064091
 31
0.0
  0
LINE
  5
EABB
  8
3
 10
21.352290847596951
 20
55.198115758064091
 30
0.0
 11
21.359304083333999
 21
55.156036343641887
 31
0.0
  0
LINE
  5
EABC
  8
3
 10
21.510088651680149
 20
55.675015788182151
 30
0.0
 11
21.510088651680149
 21
55.671509170313641
 31
0.0
  0
LINE
  5
EABD
  8
3
 10
21.510088651680149
 20
55.671509170313641
 30
0.0
 11
21.513595269548659
 21
55.671509170313641
 31
0.0
  0
LINE
  5
EABE
  8
3
 10
21.513595269548659
 20
55.671509170313641
 30
0.0
 11
21.520608505285679
 21
55.675015788182151
 31
0.0
  0
LINE
  5
EABF
  8
3
 10
21.520608505285679
 20
55.675015788182151
 30
0.0
 11
21.534634976759751
 21
55.699562113261749
 31
0.0
  0
LINE
  5
EAC0
  8
3
 10
21.534634976759751
 20
55.699562113261749
 30
0.0
 11
21.548661448233808
 21
55.727615056209849
 31
0.0
  0
LINE
  5
EAC1
  8
3
 10
21.548661448233808
 20
55.727615056209849
 30
0.0
 11
21.559181301839342
 21
55.755667999158042
 31
0.0
  0
LINE
  5
EAC2
  8
3
 10
21.559181301839342
 20
55.755667999158042
 30
0.0
 11
21.56619453757639
 21
55.787227559974639
 31
0.0
  0
LINE
  5
EAC3
  8
3
 10
21.56619453757639
 20
55.787227559974639
 30
0.0
 11
21.573207773313388
 21
55.815280502922768
 31
0.0
  0
LINE
  5
EAC4
  8
3
 10
21.471515855126491
 20
55.138503254299359
 30
0.0
 11
21.4785290908635
 21
55.173569432984493
 31
0.0
  0
LINE
  5
EAC5
  8
3
 10
21.4785290908635
 20
55.173569432984493
 30
0.0
 11
21.485542326600552
 21
55.208635611669678
 31
0.0
  0
LINE
  5
EAC6
  8
3
 10
21.485542326600552
 20
55.208635611669678
 30
0.0
 11
21.492555562337571
 21
55.243701790354777
 31
0.0
  0
LINE
  5
EAC7
  8
3
 10
21.492555562337571
 20
55.243701790354777
 30
0.0
 11
21.503075415943101
 21
55.27876796903999
 31
0.0
  0
LINE
  5
EAC8
  8
3
 10
21.503075415943101
 20
55.27876796903999
 30
0.0
 11
21.513595269548659
 21
55.310327529856579
 31
0.0
  0
LINE
  5
EAC9
  8
3
 10
21.513595269548659
 20
55.310327529856579
 30
0.0
 11
21.527621741022731
 21
55.341887090673218
 31
0.0
  0
LINE
  5
EACA
  8
3
 10
21.527621741022731
 20
55.341887090673218
 30
0.0
 11
21.538141594628289
 21
55.373446651489871
 31
0.0
  0
LINE
  5
EACB
  8
3
 10
21.538141594628289
 20
55.373446651489871
 30
0.0
 11
21.555674683970839
 21
55.405006212306553
 31
0.0
  0
LINE
  5
EACC
  8
3
 10
21.555674683970839
 20
55.405006212306553
 30
0.0
 11
21.5697011554449
 21
55.433059155254618
 31
0.0
  0
LINE
  5
EACD
  8
3
 10
21.5697011554449
 20
55.433059155254618
 30
0.0
 11
21.587234244787481
 21
55.461112098202761
 31
0.0
  0
LINE
  5
EACE
  8
3
 10
21.587234244787481
 20
55.461112098202761
 30
0.0
 11
21.629313659209661
 21
55.513711366230503
 31
0.0
  0
LINE
  5
EACF
  8
3
 10
21.629313659209661
 20
55.513711366230503
 30
0.0
 11
21.632820277078171
 21
55.513711366230503
 31
0.0
  0
LINE
  5
EAD0
  8
3
 10
21.632820277078171
 20
55.513711366230503
 30
0.0
 11
21.632820277078171
 21
55.517217984098998
 31
0.0
  0
LINE
  5
EAD1
  8
3
 10
21.632820277078171
 20
55.517217984098998
 30
0.0
 11
21.636326894946681
 21
55.517217984098998
 31
0.0
  0
LINE
  5
EAD2
  8
3
 10
21.636326894946681
 20
55.517217984098998
 30
0.0
 11
21.639833512815219
 21
55.517217984098998
 31
0.0
  0
LINE
  5
EAD3
  8
3
 10
21.639833512815219
 20
55.517217984098998
 30
0.0
 11
21.643340130683729
 21
55.520724601967508
 31
0.0
  0
LINE
  5
EAD4
  8
3
 10
21.643340130683729
 20
55.520724601967508
 30
0.0
 11
21.646846748552228
 21
55.520724601967508
 31
0.0
  0
LINE
  5
EAD5
  8
3
 10
21.646846748552228
 20
55.520724601967508
 30
0.0
 11
21.650353366420749
 21
55.520724601967508
 31
0.0
  0
LINE
  5
EAD6
  8
3
 10
21.650353366420749
 20
55.520724601967508
 30
0.0
 11
21.65385998428928
 21
55.524231219836018
 31
0.0
  0
LINE
  5
EAD7
  8
3
 10
21.545154830365309
 20
55.668002552445131
 30
0.0
 11
21.510088651680149
 21
55.664495934576649
 31
0.0
  0
LINE
  5
EAD8
  8
3
 10
21.510088651680149
 20
55.664495934576649
 30
0.0
 11
21.4785290908635
 21
55.660989316708083
 31
0.0
  0
LINE
  5
EAD9
  8
3
 10
21.450476147915399
 20
55.660989316708083
 30
0.0
 11
21.425929822835769
 21
55.660989316708083
 31
0.0
  0
LINE
  5
EADA
  8
3
 10
21.425929822835769
 20
55.660989316708083
 30
0.0
 11
21.401383497756171
 21
55.660989316708083
 31
0.0
  0
LINE
  5
EADB
  8
3
 10
21.4785290908635
 20
55.660989316708083
 30
0.0
 11
21.450476147915399
 21
55.660989316708083
 31
0.0
  0
LINE
  5
EADC
  8
3
 10
21.67139307363183
 20
55.650469463102517
 30
0.0
 11
21.545154830365309
 21
55.668002552445131
 31
0.0
  0
LINE
  5
EADD
  8
3
 10
21.871270292137211
 20
55.653976080971063
 30
0.0
 11
21.804644552635409
 21
55.650469463102517
 31
0.0
  0
LINE
  5
EADE
  8
3
 10
21.93789603163901
 20
55.657482698839601
 30
0.0
 11
21.871270292137211
 21
55.653976080971063
 31
0.0
  0
LINE
  5
EADF
  8
3
 10
21.573207773313388
 20
55.815280502922768
 30
0.0
 11
21.58022100905043
 21
55.846840063739393
 31
0.0
  0
LINE
  5
EAE0
  8
3
 10
22.004521771140791
 20
55.660989316708083
 30
0.0
 11
21.93789603163901
 21
55.657482698839601
 31
0.0
  0
LINE
  5
EAE1
  8
3
 10
21.65385998428928
 20
55.524231219836018
 30
0.0
 11
22.555060776497669
 21
55.534751073441498
 31
0.0
  0
LINE
  5
EAE2
  8
3
 10
22.071147510642561
 20
55.664495934576649
 30
0.0
 11
22.004521771140791
 21
55.660989316708083
 31
0.0
  0
LINE
  5
EAE3
  8
3
 10
19.293906158778551
 20
56.151915818300211
 30
0.0
 11
19.33598557320073
 21
56.176462143379872
 31
0.0
  0
LINE
  5
EAE4
  8
3
 10
19.251826744356379
 20
56.127369493220641
 30
0.0
 11
19.293906158778551
 21
56.151915818300211
 31
0.0
  0
LINE
  5
EAE5
  8
3
 10
19.058962761588049
 20
55.966065071268922
 30
0.0
 11
19.094028940273169
 21
56.001131249954057
 31
0.0
  0
LINE
  5
EAE6
  8
3
 10
19.094028940273169
 20
56.001131249954057
 30
0.0
 11
19.132601736826839
 21
56.036197428639241
 31
0.0
  0
LINE
  5
EAE7
  8
3
 10
19.132601736826839
 20
56.036197428639241
 30
0.0
 11
19.171174533380508
 21
56.067756989455859
 31
0.0
  0
LINE
  5
EAE8
  8
3
 10
19.171174533380508
 20
56.067756989455859
 30
0.0
 11
19.209747329934171
 21
56.099316550272448
 31
0.0
  0
LINE
  5
EAE9
  8
3
 10
19.209747329934171
 20
56.099316550272448
 30
0.0
 11
19.251826744356379
 21
56.127369493220641
 31
0.0
  0
LINE
  5
EAEA
  8
3
 10
19.55339588104869
 20
55.113956929219761
 30
0.0
 11
19.556902498917221
 21
55.099930457745728
 31
0.0
  0
LINE
  5
EAEB
  8
3
 10
19.556902498917221
 20
55.099930457745728
 30
0.0
 11
19.563915734654241
 21
55.089410604140141
 31
0.0
  0
LINE
  5
EAEC
  8
3
 10
19.563915734654241
 20
55.089410604140141
 30
0.0
 11
19.574435588259771
 21
55.075384132666073
 31
0.0
  0
LINE
  5
EAED
  8
3
 10
19.73924662808
 20
55.675015788182151
 30
0.0
 11
19.690153977920801
 21
55.657482698839601
 31
0.0
  0
LINE
  5
EAEE
  8
3
 10
19.381571605491441
 20
56.197501850590889
 30
0.0
 11
19.42715763778213
 21
56.215034939933503
 31
0.0
  0
LINE
  5
EAEF
  8
3
 10
19.33598557320073
 20
56.176462143379872
 30
0.0
 11
19.381571605491441
 21
56.197501850590889
 31
0.0
  0
LINE
  5
EAF0
  8
3
 10
19.690153977920801
 20
55.657482698839601
 30
0.0
 11
19.64106132776158
 21
55.636442991628513
 31
0.0
  0
LINE
  5
EAF1
  8
3
 10
19.64106132776158
 20
55.636442991628513
 30
0.0
 11
19.560409116785731
 21
55.573323869995221
 31
0.0
  0
LINE
  5
EAF2
  8
3
 10
19.560409116785731
 20
55.573323869995221
 30
0.0
 11
19.560409116785731
 21
55.56981725212674
 31
0.0
  0
LINE
  5
EAF3
  8
3
 10
19.560409116785731
 20
55.56981725212674
 30
0.0
 11
19.560409116785731
 21
55.56631063425823
 31
0.0
  0
LINE
  5
EAF4
  8
3
 10
19.560409116785731
 20
55.56631063425823
 30
0.0
 11
19.560409116785731
 21
55.562804016389663
 31
0.0
  0
LINE
  5
EAF5
  8
3
 10
19.560409116785731
 20
55.562804016389663
 30
0.0
 11
19.560409116785731
 21
55.559297398521153
 31
0.0
  0
LINE
  5
EAF6
  8
3
 10
19.560409116785731
 20
55.559297398521153
 30
0.0
 11
19.563915734654241
 21
55.559297398521153
 31
0.0
  0
LINE
  5
EAF7
  8
3
 10
19.563915734654241
 20
55.559297398521153
 30
0.0
 11
19.563915734654241
 21
55.555790780652643
 31
0.0
  0
LINE
  5
EAF8
  8
3
 10
19.563915734654241
 20
55.555790780652643
 30
0.0
 11
19.567422352522751
 21
55.555790780652643
 31
0.0
  0
LINE
  5
EAF9
  8
3
 10
19.567422352522751
 20
55.555790780652643
 30
0.0
 11
19.567422352522751
 21
55.55228416278414
 31
0.0
  0
LINE
  5
EAFA
  8
3
 10
19.567422352522751
 20
55.55228416278414
 30
0.0
 11
19.570928970391261
 21
55.55228416278414
 31
0.0
  0
LINE
  5
EAFB
  8
3
 10
19.570928970391261
 20
55.55228416278414
 30
0.0
 11
19.577942206128281
 21
55.55228416278414
 31
0.0
  0
LINE
  5
EAFC
  8
3
 10
19.55339588104869
 20
55.124476782825298
 30
0.0
 11
19.55339588104869
 21
55.113956929219761
 31
0.0
  0
LINE
  5
EAFD
  8
3
 10
20.009256203955658
 20
55.703068731130287
 30
0.0
 11
19.953150318059411
 21
55.703068731130287
 31
0.0
  0
LINE
  5
EAFE
  8
3
 10
19.953150318059411
 20
55.703068731130287
 30
0.0
 11
19.89704443216317
 21
55.703068731130287
 31
0.0
  0
LINE
  5
EAFF
  8
3
 10
19.89704443216317
 20
55.703068731130287
 30
0.0
 11
19.840938546266951
 21
55.696055495393267
 31
0.0
  0
LINE
  5
EB00
  8
3
 10
19.840938546266951
 20
55.696055495393267
 30
0.0
 11
19.788339278239221
 21
55.689042259656219
 31
0.0
  0
LINE
  5
EB01
  8
3
 10
19.788339278239221
 20
55.689042259656219
 30
0.0
 11
19.73924662808
 21
55.675015788182151
 31
0.0
  0
LINE
  5
EB02
  8
3
 10
20.068868707720409
 20
55.703068731130287
 30
0.0
 11
20.009256203955658
 21
55.703068731130287
 31
0.0
  0
LINE
  5
EB03
  8
3
 10
20.303812104910939
 20
55.699562113261749
 30
0.0
 11
20.24770621901467
 21
55.699562113261749
 31
0.0
  0
LINE
  5
EB04
  8
3
 10
20.24770621901467
 20
55.699562113261749
 30
0.0
 11
20.188093715249948
 21
55.699562113261749
 31
0.0
  0
LINE
  5
EB05
  8
3
 10
20.188093715249948
 20
55.699562113261749
 30
0.0
 11
20.128481211485159
 21
55.703068731130287
 31
0.0
  0
LINE
  5
EB06
  8
3
 10
20.128481211485159
 20
55.703068731130287
 30
0.0
 11
20.068868707720409
 21
55.703068731130287
 31
0.0
  0
LINE
  5
EB07
  8
3
 10
19.735740010211462
 20
56.292180533040828
 30
0.0
 11
20.409010640966422
 21
56.292180533040828
 31
0.0
  0
LINE
  5
EB08
  8
3
 10
22.246478404068341
 20
56.285167297303779
 30
0.0
 11
22.313104143570111
 21
56.281660679435277
 31
0.0
  0
LINE
  5
EB09
  8
3
 10
22.12725339653883
 20
56.274647443698278
 30
0.0
 11
22.158812957355451
 21
56.274647443698278
 31
0.0
  0
LINE
  5
EB0A
  8
3
 10
22.099200453590669
 20
56.274647443698278
 30
0.0
 11
22.12725339653883
 21
56.274647443698278
 31
0.0
  0
LINE
  5
EB0B
  8
3
 10
22.067640892774051
 20
56.274647443698278
 30
0.0
 11
22.099200453590669
 21
56.274647443698278
 31
0.0
  0
LINE
  5
EB0C
  8
3
 10
22.158812957355451
 20
56.274647443698278
 30
0.0
 11
22.186865900303559
 21
56.278154061566738
 31
0.0
  0
LINE
  5
EB0D
  8
3
 10
22.186865900303559
 20
56.278154061566738
 30
0.0
 11
22.246478404068341
 21
56.285167297303779
 31
0.0
  0
LINE
  5
EB0E
  8
3
 10
22.383236500940399
 20
56.274647443698278
 30
0.0
 11
22.449862240442229
 21
56.264127590092727
 31
0.0
  0
LINE
  5
EB0F
  8
3
 10
22.313104143570111
 20
56.281660679435277
 30
0.0
 11
22.383236500940399
 21
56.274647443698278
 31
0.0
  0
LINE
  5
EB10
  8
3
 10
22.449862240442229
 20
56.264127590092727
 30
0.0
 11
22.516487979943999
 21
56.25010111861863
 31
0.0
  0
LINE
  5
EB11
  8
3
 10
22.516487979943999
 20
56.25010111861863
 30
0.0
 11
22.579607101577299
 21
56.232568029276109
 31
0.0
  0
LINE
  5
EB12
  8
3
 10
22.011535006877839
 20
56.274647443698278
 30
0.0
 11
22.03958794982594
 21
56.274647443698278
 31
0.0
  0
LINE
  5
EB13
  8
3
 10
20.4125172588349
 20
56.253607736487169
 30
0.0
 11
20.416023876703409
 21
56.218541557802013
 31
0.0
  0
LINE
  5
EB14
  8
3
 10
20.409010640966422
 20
56.292180533040828
 30
0.0
 11
20.4125172588349
 21
56.253607736487169
 31
0.0
  0
LINE
  5
EB15
  8
3
 10
21.892309999348299
 20
56.27114082582974
 30
0.0
 11
21.923869560164949
 21
56.27114082582974
 31
0.0
  0
LINE
  5
EB16
  8
3
 10
21.923869560164949
 20
56.27114082582974
 30
0.0
 11
21.95192250311305
 21
56.274647443698278
 31
0.0
  0
LINE
  5
EB17
  8
3
 10
21.95192250311305
 20
56.274647443698278
 30
0.0
 11
21.979975446061161
 21
56.274647443698278
 31
0.0
  0
LINE
  5
EB18
  8
3
 10
21.173453336302678
 20
56.285167297303779
 30
0.0
 11
21.19799966138228
 21
56.285167297303779
 31
0.0
  0
LINE
  5
EB19
  8
3
 10
21.127867304012
 20
56.285167297303779
 30
0.0
 11
21.148907011223059
 21
56.285167297303779
 31
0.0
  0
LINE
  5
EB1A
  8
3
 10
21.148907011223059
 20
56.285167297303779
 30
0.0
 11
21.173453336302678
 21
56.285167297303779
 31
0.0
  0
LINE
  5
EB1B
  8
3
 10
20.93500332124367
 20
56.218541557802013
 30
0.0
 11
20.970069499928819
 21
56.236074647144562
 31
0.0
  0
LINE
  5
EB1C
  8
3
 10
20.970069499928819
 20
56.236074647144562
 30
0.0
 11
21.00864229648246
 21
56.253607736487169
 31
0.0
  0
LINE
  5
EB1D
  8
3
 10
21.00864229648246
 20
56.253607736487169
 30
0.0
 11
21.047215093036161
 21
56.264127590092727
 31
0.0
  0
LINE
  5
EB1E
  8
3
 10
21.047215093036161
 20
56.264127590092727
 30
0.0
 11
21.127867304012
 21
56.285167297303779
 31
0.0
  0
LINE
  5
EB1F
  8
3
 10
21.366317319071008
 20
56.285167297303779
 30
0.0
 11
21.39086364415061
 21
56.285167297303779
 31
0.0
  0
LINE
  5
EB20
  8
3
 10
21.19799966138228
 20
56.285167297303779
 30
0.0
 11
21.22254598646191
 21
56.285167297303779
 31
0.0
  0
LINE
  5
EB21
  8
3
 10
21.22254598646191
 20
56.285167297303779
 30
0.0
 11
21.247092311541511
 21
56.285167297303779
 31
0.0
  0
LINE
  5
EB22
  8
3
 10
21.247092311541511
 20
56.285167297303779
 30
0.0
 11
21.271638636621109
 21
56.285167297303779
 31
0.0
  0
LINE
  5
EB23
  8
3
 10
21.271638636621109
 20
56.285167297303779
 30
0.0
 11
21.296184961700732
 21
56.285167297303779
 31
0.0
  0
LINE
  5
EB24
  8
3
 10
21.296184961700732
 20
56.285167297303779
 30
0.0
 11
21.31722466891182
 21
56.285167297303779
 31
0.0
  0
LINE
  5
EB25
  8
3
 10
21.31722466891182
 20
56.285167297303779
 30
0.0
 11
21.341770993991421
 21
56.285167297303779
 31
0.0
  0
LINE
  5
EB26
  8
3
 10
21.341770993991421
 20
56.285167297303779
 30
0.0
 11
21.366317319071008
 21
56.285167297303779
 31
0.0
  0
LINE
  5
EB27
  8
3
 10
21.460996001520918
 20
56.285167297303779
 30
0.0
 11
21.510088651680149
 21
56.285167297303779
 31
0.0
  0
LINE
  5
EB28
  8
3
 10
21.39086364415061
 20
56.285167297303779
 30
0.0
 11
21.41190335136173
 21
56.285167297303779
 31
0.0
  0
LINE
  5
EB29
  8
3
 10
21.41190335136173
 20
56.285167297303779
 30
0.0
 11
21.436449676441331
 21
56.285167297303779
 31
0.0
  0
LINE
  5
EB2A
  8
3
 10
21.436449676441331
 20
56.285167297303779
 30
0.0
 11
21.460996001520918
 21
56.285167297303779
 31
0.0
  0
LINE
  5
EB2B
  8
3
 10
21.780098227555811
 20
56.260620972224238
 30
0.0
 11
21.808151170503951
 21
56.264127590092727
 31
0.0
  0
LINE
  5
EB2C
  8
3
 10
21.808151170503951
 20
56.264127590092727
 30
0.0
 11
21.836204113452059
 21
56.26763420796123
 31
0.0
  0
LINE
  5
EB2D
  8
3
 10
21.836204113452059
 20
56.26763420796123
 30
0.0
 11
21.864257056400159
 21
56.27114082582974
 31
0.0
  0
LINE
  5
EB2E
  8
3
 10
21.864257056400159
 20
56.27114082582974
 30
0.0
 11
21.892309999348299
 21
56.27114082582974
 31
0.0
  0
LINE
  5
EB2F
  8
3
 10
21.979975446061161
 20
56.274647443698278
 30
0.0
 11
22.011535006877839
 21
56.274647443698278
 31
0.0
  0
LINE
  5
EB30
  8
3
 10
22.03958794982594
 20
56.274647443698278
 30
0.0
 11
22.067640892774051
 21
56.274647443698278
 31
0.0
  0
LINE
  5
EB31
  8
3
 10
19.71820692086888
 20
56.288673915172289
 30
0.0
 11
19.72171353873739
 21
56.288673915172289
 31
0.0
  0
LINE
  5
EB32
  8
3
 10
19.711193685131889
 20
56.285167297303779
 30
0.0
 11
19.714700303000399
 21
56.285167297303779
 31
0.0
  0
LINE
  5
EB33
  8
3
 10
19.714700303000399
 20
56.285167297303779
 30
0.0
 11
19.71820692086888
 21
56.285167297303779
 31
0.0
  0
LINE
  5
EB34
  8
3
 10
19.71820692086888
 20
56.285167297303779
 30
0.0
 11
19.71820692086888
 21
56.288673915172289
 31
0.0
  0
LINE
  5
EB35
  8
3
 10
19.70418044939484
 20
56.281660679435277
 30
0.0
 11
19.70768706726335
 21
56.281660679435277
 31
0.0
  0
LINE
  5
EB36
  8
3
 10
19.70768706726335
 20
56.281660679435277
 30
0.0
 11
19.711193685131889
 21
56.285167297303779
 31
0.0
  0
LINE
  5
EB37
  8
3
 10
19.476250287941351
 20
56.232568029276109
 30
0.0
 11
19.52534293810055
 21
56.246594500750142
 31
0.0
  0
LINE
  5
EB38
  8
3
 10
19.52534293810055
 20
56.246594500750142
 30
0.0
 11
19.574435588259771
 21
56.260620972224238
 31
0.0
  0
LINE
  5
EB39
  8
3
 10
19.683140742183749
 20
56.281660679435277
 30
0.0
 11
19.686647360052291
 21
56.281660679435277
 31
0.0
  0
LINE
  5
EB3A
  8
3
 10
19.686647360052291
 20
56.281660679435277
 30
0.0
 11
19.690153977920801
 21
56.281660679435277
 31
0.0
  0
LINE
  5
EB3B
  8
3
 10
19.690153977920801
 20
56.281660679435277
 30
0.0
 11
19.693660595789279
 21
56.281660679435277
 31
0.0
  0
LINE
  5
EB3C
  8
3
 10
19.693660595789279
 20
56.281660679435277
 30
0.0
 11
19.700673831526331
 21
56.281660679435277
 31
0.0
  0
LINE
  5
EB3D
  8
3
 10
19.574435588259771
 20
56.260620972224238
 30
0.0
 11
19.679634124315239
 21
56.285167297303779
 31
0.0
  0
LINE
  5
EB3E
  8
3
 10
19.679634124315239
 20
56.285167297303779
 30
0.0
 11
19.683140742183749
 21
56.281660679435277
 31
0.0
  0
LINE
  5
EB3F
  8
3
 10
19.700673831526331
 20
56.281660679435277
 30
0.0
 11
19.70418044939484
 21
56.281660679435277
 31
0.0
  0
LINE
  5
EB40
  8
3
 10
19.72171353873739
 20
56.288673915172289
 30
0.0
 11
19.725220156605928
 21
56.288673915172289
 31
0.0
  0
LINE
  5
EB41
  8
3
 10
19.725220156605928
 20
56.288673915172289
 30
0.0
 11
19.728726774474438
 21
56.288673915172289
 31
0.0
  0
LINE
  5
EB42
  8
3
 10
19.728726774474438
 20
56.288673915172289
 30
0.0
 11
19.735740010211462
 21
56.292180533040828
 31
0.0
  0
LINE
  5
EB43
  8
3
 10
19.735740010211462
 20
56.292180533040828
 30
0.0
 11
19.735740010211462
 21
56.292180533040828
 31
0.0
  0
LINE
  5
EB44
  8
1
 10
19.865827743208548
 20
63.344603837967952
 30
0.0
 11
19.865827743208541
 21
56.292180533040799
 31
0.0
  0
LINE
  5
EB45
  8
3
 10
23.30197038249139
 20
55.096423839877161
 30
0.0
 11
23.30197038249139
 21
54.99823853955877
 31
0.0
  0
LINE
  5
EB46
  8
2
 10
24.190827743208558
 20
51.921271728817629
 30
0.0
 11
30.540827743208521
 21
51.921271728817601
 31
0.0
1001
GENIUS_GENOREF_13
1005
0
  0
LINE
  5
EB47
  8
2
 10
24.190827743208558
 20
51.921271728817601
 30
0.0
 11
24.190827743208558
 21
49.921271728817601
 31
0.0
  0
LINE
  5
EB48
  8
2
 10
24.190827743208558
 20
49.921271728817601
 30
0.0
 11
25.165827743208549
 21
49.921271728817601
 31
0.0
  0
LINE
  5
EB49
  8
2
 10
25.865827743208541
 20
47.921271728817601
 30
0.0
 11
25.865827743208541
 21
51.921271728817601
 31
0.0
  0
LINE
  5
EB4A
  8
2
 10
26.115827743208541
 20
47.921271728817601
 30
0.0
 11
26.115827743208541
 21
51.921271728817601
 31
0.0
  0
LINE
  5
EB4B
  8
2
 10
25.165827743208521
 20
49.921271728817601
 30
0.0
 11
25.165827743208521
 21
47.921271728817601
 31
0.0
  0
LINE
  5
EB4C
  8
3
 10
23.34404979691357
 20
54.51783189157215
 30
0.0
 11
23.421195390020898
 21
54.346007616014901
 31
0.0
  0
LINE
  5
EB4D
  8
3
 10
23.312490236096949
 20
54.703682638603482
 30
0.0
 11
23.323010089702478
 21
54.609003956153572
 31
0.0
  0
LINE
  5
EB4E
  8
3
 10
23.323010089702478
 20
54.609003956153572
 30
0.0
 11
23.34404979691357
 21
54.51783189157215
 31
0.0
  0
LINE
  5
EB4F
  8
3
 10
23.30197038249139
 20
54.99823853955877
 30
0.0
 11
23.30197038249139
 21
54.90005323924035
 31
0.0
  0
LINE
  5
EB50
  8
3
 10
23.30197038249139
 20
54.90005323924035
 30
0.0
 11
23.3054770003599
 21
54.801867938921873
 31
0.0
  0
LINE
  5
EB51
  8
3
 10
23.3054770003599
 20
54.801867938921873
 30
0.0
 11
23.312490236096949
 21
54.703682638603482
 31
0.0
  0
LINE
  5
EB52
  8
2
 10
30.540827743208521
 20
51.921271728817601
 30
0.0
 11
30.540827743208521
 21
49.921271728817601
 31
0.0
  0
LINE
  5
EB53
  8
2
 10
30.540827743208521
 20
49.921271728817601
 30
0.0
 11
29.56582774320853
 21
49.921271728817601
 31
0.0
  0
LINE
  5
EB54
  8
2
 10
28.865827743208541
 20
47.921271728817601
 30
0.0
 11
28.865827743208541
 21
51.921271728817601
 31
0.0
  0
LINE
  5
EB55
  8
2
 10
28.615827743208541
 20
47.921271728817601
 30
0.0
 11
28.615827743208541
 21
51.921271728817601
 31
0.0
  0
LINE
  5
EB56
  8
2
 10
29.565827743208558
 20
49.921271728817601
 30
0.0
 11
29.565827743208558
 21
47.921271728817601
 31
0.0
  0
LINE
  5
EB57
  8
1
 10
27.365827743208559
 20
46.421271728817587
 30
0.0
 11
27.365827743208541
 21
53.421271728817629
 31
0.0
  0
LINE
  5
EB58
  8
3
 10
23.30197038249139
 20
55.198115758064091
 30
0.0
 11
23.30197038249139
 21
55.096423839877161
 31
0.0
  0
LINE
  5
EB59
  8
3
 10
23.294957146754339
 20
55.390979740832471
 30
0.0
 11
23.30197038249139
 21
55.296301058382539
 31
0.0
  0
LINE
  5
EB5A
  8
3
 10
23.280930675280281
 20
55.489165041150869
 30
0.0
 11
23.294957146754339
 21
55.390979740832471
 31
0.0
  0
LINE
  5
EB5B
  8
3
 10
23.228331407252568
 20
55.671509170313641
 30
0.0
 11
23.259890968069211
 21
55.580337105732298
 31
0.0
  0
LINE
  5
EB5C
  8
3
 10
23.186251992830371
 20
55.755667999158042
 30
0.0
 11
23.228331407252568
 21
55.671509170313641
 31
0.0
  0
LINE
  5
EB5D
  8
3
 10
23.13014610693418
 20
55.839826828002373
 30
0.0
 11
23.186251992830371
 21
55.755667999158042
 31
0.0
  0
LINE
  5
EB5E
  8
3
 10
23.259890968069211
 20
55.580337105732298
 30
0.0
 11
23.280930675280281
 21
55.489165041150869
 31
0.0
  0
LINE
  5
EB5F
  8
3
 10
23.30197038249139
 20
55.296301058382539
 30
0.0
 11
23.30197038249139
 21
55.198115758064091
 31
0.0
  0
LINE
  5
EB60
  8
3
 10
23.05650713169533
 20
55.934505510452261
 30
0.0
 11
23.13014610693418
 21
55.839826828002373
 31
0.0
  0
CIRCLE
  5
EB61
  8
3
 10
23.293108378840511
 20
56.147767915347707
 30
0.0
 40
0.1406088258533523
  0
LINE
  5
EB62
  8
0
 10
34.865826743208522
 20
47.921271728817601
 30
0.0
 11
34.496554575185883
 21
59.86006167148431
 31
0.0
  0
ARC
  5
EB63
  8
0
 10
33.996793576924723
 20
59.844603837967917
 30
0.0
 40
0.5
 50
1.7716195309069469
 51
89.999999999999943
1001
GENIUS_GENODEF_13
1002
{
1000
HIER
1070
     0
1002
}
1002
{
1000
MANEDIT
1070
     0
1002
}
1002
{
1000
NOSEL
1070
     0
1002
}
1002
{
1000
BEHIND
1070
     0
1002
}
1002
{
1000
REACTOR
1002
}
1001
GENIUS_GENOBJ-N-FIL_13
1002
{
1000
OWNER
1000
GEN
1002
}
  0
LINE
  5
EB76
  8
1
 10
82.011543743208478
 20
57.421270728817611
 30
0.0
 11
73.511543743208478
 21
57.421270728817611
 31
0.0
  0
LINE
  5
EB77
  8
1
 10
77.761543743208478
 20
63.421270728817603
 30
0.0
 11
77.761543743208449
 21
44.921271728817601
 31
0.0
  0
LINE
  5
EB7F
  8
1
 10
159.21154174320839
 20
57.421270728817611
 30
0.0
 11
150.71154174320839
 21
57.421270728817611
 31
0.0
  0
LINE
  5
EB80
  8
1
 10
154.96154174320839
 20
63.421270728817603
 30
0.0
 11
154.96154174320839
 21
44.921271728817601
 31
0.0
  0
TEXT
  5
ED4A
  8
0
 62
     3
 10
0.0
 20
0.0
 30
0.0
 40
10.0
  1
EMH3030SS
  7
STANDARD1
  0
ENDSEC
  0
EOF
