  0
SECTION
  2
HEADER
  9
$ACADVER
  1
AC1009
  9
$INSBASE
 10
0.0
 20
0.0
 30
0.0
  9
$EXTMIN
 10
0.0
 20
-2.960436562073669
 30
0.0
  9
$EXTMAX
 10
139.99999999999989
 20
237.5
 30
0.0
  9
$LIMMIN
 10
0.0
 20
0.0
  9
$LIMMAX
 10
375.0
 20
270.0
  9
$ORTHOMODE
 70
     1
  9
$REGENMODE
 70
     1
  9
$FILLMODE
 70
     1
  9
$QTEXTMODE
 70
     0
  9
$MIRRTEXT
 70
     0
  9
$DRAGMODE
 70
     2
  9
$LTSCALE
 40
5.0
  9
$OSMODE
 70
    37
  9
$ATTMODE
 70
     1
  9
$TEXTSIZE
 40
0.2
  9
$TRACEWID
 40
0.05
  9
$TEXTSTYLE
  7
STANDARD
  9
$CLAYER
  8
0
  9
$CELTYPE
  6
BYLAYER
  9
$CECOLOR
 62
   256
  9
$DIMSCALE
 40
1.0
  9
$DIMASZ
 40
3.0
  9
$DIMEXO
 40
1.0
  9
$DIMDLI
 40
6.0
  9
$DIMRND
 40
0.0
  9
$DIMDLE
 40
0.0
  9
$DIMEXE
 40
1.0
  9
$DIMTP
 40
495.0
  9
$DIMTM
 40
0.0
  9
$DIMTXT
 40
3.0
  9
$DIMCEN
 40
0.0
  9
$DIMTSZ
 40
0.0
  9
$DIMTOL
 70
     0
  9
$DIMLIM
 70
     0
  9
$DIMTIH
 70
     0
  9
$DIMTOH
 70
     0
  9
$DIMSE1
 70
     0
  9
$DIMSE2
 70
     0
  9
$DIMTAD
 70
     1
  9
$DIMZIN
 70
     0
  9
$DIMBLK
  1

  9
$DIMASO
 70
     0
  9
$DIMSHO
 70
     0
  9
$DIMPOST
  1

  9
$DIMAPOST
  1

  9
$DIMALT
 70
     0
  9
$DIMALTD
 70
     2
  9
$DIMALTF
 40
25.399999999999999
  9
$DIMLFAC
 40
1.0
  9
$DIMTOFL
 70
     1
  9
$DIMTVP
 40
0.0
  9
$DIMTIX
 70
     1
  9
$DIMSOXD
 70
     0
  9
$DIMSAH
 70
     0
  9
$DIMBLK1
  1

  9
$DIMBLK2
  1

  9
$DIMSTYLE
  2
STANDARD
  9
$DIMCLRD
 70
     0
  9
$DIMCLRE
 70
     0
  9
$DIMCLRT
 70
     4
  9
$DIMTFAC
 40
1.0
  9
$DIMGAP
 40
1.0
  9
$LUNITS
 70
     2
  9
$LUPREC
 70
     1
  9
$SKETCHINC
 40
0.1
  9
$FILLETRAD
 40
2.0
  9
$AUNITS
 70
     0
  9
$AUPREC
 70
     1
  9
$MENU
  1
C:\R13\WIN\SUPPORT\ACAD-I
  9
$ELEVATION
 40
0.0
  9
$PELEVATION
 40
0.0
  9
$THICKNESS
 40
0.0
  9
$LIMCHECK
 70
     0
  9
$BLIPMODE
 70
     0
  9
$CHAMFERA
 40
0.0
  9
$CHAMFERB
 40
0.0
  9
$SKPOLY
 70
     0
  9
$TDCREATE
 40
2450834.7095229169
  9
$TDUPDATE
 40
2457164.3871436459
  9
$TDINDWG
 40
0.1718177546
  9
$TDUSRTIMER
 40
2456694.3086723848
  9
$USRTIMER
 70
     1
  9
$ANGBASE
 50
0.0
  9
$ANGDIR
 70
     0
  9
$PDMODE
 70
     0
  9
$PDSIZE
 40
0.0
  9
$PLINEWID
 40
0.0
  9
$COORDS
 70
     1
  9
$SPLFRAME
 70
     0
  9
$SPLINETYPE
 70
     6
  9
$SPLINESEGS
 70
     8
  9
$ATTDIA
 70
     0
  9
$ATTREQ
 70
     1
  9
$HANDLING
 70
     1
  9
$HANDSEED
  5
1CCF
  9
$SURFTAB1
 70
     6
  9
$SURFTAB2
 70
     6
  9
$SURFTYPE
 70
     6
  9
$SURFU
 70
     6
  9
$SURFV
 70
     6
  9
$UCSNAME
  2

  9
$UCSORG
 10
0.0
 20
0.0
 30
0.0
  9
$UCSXDIR
 10
1.0
 20
0.0
 30
0.0
  9
$UCSYDIR
 10
0.0
 20
1.0
 30
0.0
  9
$PUCSNAME
  2

  9
$PUCSORG
 10
0.0
 20
0.0
 30
0.0
  9
$PUCSXDIR
 10
1.0
 20
0.0
 30
0.0
  9
$PUCSYDIR
 10
0.0
 20
1.0
 30
0.0
  9
$USERI1
 70
     4
  9
$USERI2
 70
     1
  9
$USERI3
 70
     0
  9
$USERI4
 70
     0
  9
$USERI5
 70
     0
  9
$USERR1
 40
1.0
  9
$USERR2
 40
3.0
  9
$USERR3
 40
3.0
  9
$USERR4
 40
3.0
  9
$USERR5
 40
10.0
  9
$WORLDVIEW
 70
     1
  9
$SHADEDGE
 70
     3
  9
$SHADEDIF
 70
    70
  9
$TILEMODE
 70
     1
  9
$MAXACTVP
 70
    16
  9
$PLIMCHECK
 70
     0
  9
$PEXTMIN
 10
1.0000000000000000E+020
 20
1.0000000000000000E+020
 30
1.0000000000000000E+020
  9
$PEXTMAX
 10
-1.0000000000000000E+020
 20
-1.0000000000000000E+020
 30
-1.0000000000000000E+020
  9
$PLIMMIN
 10
0.0
 20
0.0
  9
$PLIMMAX
 10
0.0
 20
0.0
  9
$UNITMODE
 70
     0
  9
$VISRETAIN
 70
     0
  9
$PLINEGEN
 70
     0
  9
$PSLTSCALE
 70
     0
  0
ENDSEC
  0
SECTION
  2
TABLES
  0
TABLE
  2
VPORT
 70
     1
  0
VPORT
  2
*ACTIVE
 70
     0
 10
0.0
 20
0.0
 11
1.0
 21
1.0
 12
272.4358974358974
 22
150.0
 13
0.0
 23
0.0
 14
10.0
 24
10.0
 15
10.0
 25
10.0
 16
0.0
 26
0.0
 36
1.0
 17
0.0
 27
0.0
 37
0.0
 40
300.0
 41
1.816239316239316
 42
50.0
 43
0.0
 44
0.0
 50
0.0
 51
0.0
 71
    16
 72
   100
 73
     1
 74
     0
 75
     0
 76
     0
 77
     0
 78
     0
  0
ENDTAB
  0
TABLE
  2
LTYPE
 70
     4
  0
LTYPE
  2
CONTINUOUS
 70
     0
  3
Solid Line
 72
    65
 73
     0
 40
0.0
  0
LTYPE
  2
PHANTOM2
 70
     0
  3
___ _ _ ___ _ _ ___ _ _ ___ _ _
 72
    65
 73
     6
 40
1.25
 49
0.625
 49
-0.125
 49
0.125
 49
-0.125
 49
0.125
 49
-0.125
  0
LTYPE
  2
CENTER
 70
     0
  3
____ _ ____ _ ____ _ ____ _ ____ _ ____ _ ____
 72
    65
 73
     4
 40
2.0
 49
1.25
 49
-0.25
 49
0.25
 49
-0.25
  0
LTYPE
  2
HIDDEN
 70
     0
  3
_ _ _ _ _ _ _ _ _ _ _ _ _ _ _ _ _ _ _ _ _ _ _
 72
    65
 73
     2
 40
0.375
 49
0.25
 49
-0.125
  0
ENDTAB
  0
TABLE
  2
LAYER
 70
     4
  0
LAYER
  2
0
 70
     0
 62
     7
  6
CONTINUOUS
  0
LAYER
  2
1
 70
     0
 62
     1
  6
CENTER
  0
LAYER
  2
3
 70
     0
 62
     3
  6
CONTINUOUS
  0
LAYER
  2
2
 70
     0
 62
     2
  6
HIDDEN
  0
ENDTAB
  0
TABLE
  2
STYLE
 70
     2
  0
STYLE
  2
STANDARD
 70
     0
 40
0.0
 41
1.0
 50
0.0
 71
     0
 42
0.2
  3
SIMPLEX
  4
BIGFONT
  0
STYLE
  2
STANDARD1
 70
     0
 40
0.0
 41
1.0
 50
0.0
 71
     0
 42
3.0
  3
txt
  4

  0
ENDTAB
  0
TABLE
  2
VIEW
 70
     0
  0
ENDTAB
  0
TABLE
  2
UCS
 70
     0
  0
ENDTAB
  0
TABLE
  2
APPID
 70
    32
  0
APPID
  2
ACAD
 70
     0
  0
APPID
  2
ACADANNOTATIVE
 70
     0
  0
APPID
  2
GENIUS_GENOREF_13
 70
     0
  0
APPID
  2
GENIUS_GENOENT_13
 70
     0
  0
APPID
  2
GENIUS_GENBH_13
 70
     0
  0
APPID
  2
GENIUS_GENOBJ_13
 70
     0
  0
APPID
  2
GENIUS_GENODEF_13
 70
     0
  0
APPID
  2
GENIUS_GENOLIS_13
 70
     0
  0
APPID
  2
GENIUS_GENOBJ-NBEHI-BHF_13
 70
     0
  0
APPID
  2
GENIUS_GENOBJ-NBEHI-BHB_13
 70
     0
  0
APPID
  2
GENIUS_GENOBJ-F-PART_13
 70
     0
  0
APPID
  2
GENIUS_GEFSTDP_13
 70
     0
  0
APPID
  2
GENIUS_GENOBJ-N-RSSYM_13
 70
     0
  0
APPID
  2
GENIUS_GENSYMENT_13
 70
     0
  0
APPID
  2
GENIUS_GENOBJ-N-TIT_13
 70
     0
  0
APPID
  2
GENIUS_GENTITLE_13
 70
     0
  0
APPID
  2
GENIUS_GENZVEED_13
 70
     0
  0
APPID
  2
GENIUS_GENOBJ-N-LEADER_13
 70
     0
  0
APPID
  2
GENIUS_GENOBJ-N-FIL_13
 70
     0
  0
APPID
  2
GENIUS_GENOBJ-N-SEC_13
 70
     0
  0
APPID
  2
GENIUS_GENOBJ-N-CRS_13
 70
     0
  0
APPID
  2
GENIUS_GENOBJ-N-ZOO_13
 70
     0
  0
APPID
  2
GENIUS_GENZOO_13
 70
     0
  0
APPID
  2
GENIUS_GENOBJ-F-TOL_13
 70
     0
  0
APPID
  2
GENIUS_GENFIL_13
 70
     0
  0
APPID
  2
GENIUS_GENOBJ-N-CHA_13
 70
     0
  0
APPID
  2
ACAD_MLEADERVER
 70
     0
  0
APPID
  2
ACAD_EXEMPT_FROM_CAD_STAND
 70
     0
  0
APPID
  2
ACAD_NAV_VCDISPLAY
 70
     0
  0
APPID
  2
ACAD_EXEMPT_FROM_CAD_STANDARDS
 70
     0
  0
APPID
  2
ACAD_DSTYLE_DIMJAG
 70
     0
  0
APPID
  2
ACAD_DSTYLE_DIMTALN
 70
     0
  0
ENDTAB
  0
TABLE
  2
DIMSTYLE
 70
     1
  0
DIMSTYLE
  2
STANDARD
 70
     0
  3

  4

  5

  6

  7

 40
1.0
 41
0.18
 42
0.0625
 43
0.38
 44
0.18
 45
0.0
 46
0.0
 47
0.0
 48
0.0
140
0.18
141
0.09
142
0.0
143
25.399999999999999
144
1.0
145
0.0
146
1.0
147
0.09
 71
     0
 72
     0
 73
     1
 74
     1
 75
     0
 76
     0
 77
     0
 78
     0
170
     0
171
     2
172
     0
173
     0
174
     0
175
     0
176
     0
177
     0
178
     0
  0
ENDTAB
  0
ENDSEC
  0
SECTION
  2
BLOCKS
  0
BLOCK
  8
0
  2
$MODEL_SPACE
 70
     0
 10
0.0
 20
0.0
 30
0.0
  3
$MODEL_SPACE
  1

  0
ENDBLK
  5
E10
  8
0
  0
BLOCK
 67
     1
  8
0
  2
$PAPER_SPACE
 70
     0
 10
0.0
 20
0.0
 30
0.0
  3
$PAPER_SPACE
  1

  0
ENDBLK
  5
E0C
 67
     1
  8
0
  0
ENDSEC
  0
SECTION
  2
ENTITIES
  0
TEXT
  5
E90
  8
0
 62
     3
 10
0.0
 20
0.0
 30
0.0
 40
10.0
  1
ELPS40-M12X52
  7
STANDARD1
  0
LINE
  5
1937
  8
1
 10
49.999999999999943
 20
191.5
 30
0.0
 11
49.999999999999943
 21
237.5
 31
0.0
  0
LINE
  5
1938
  8
1
 10
73.0
 20
214.5
 30
0.0
 11
26.99999999999994
 21
214.5
 31
0.0
  0
LINE
  5
193A
  8
0
 10
45.09252271188813
 20
206.0
 30
0.0
 11
54.90747728811175
 21
206.0
 31
0.0
  0
LINE
  5
193B
  8
0
 10
54.90747728811175
 20
206.0
 30
0.0
 11
59.814954576223549
 21
214.5
 31
0.0
  0
LINE
  5
193C
  8
0
 10
45.09252271188813
 20
223.0
 30
0.0
 11
40.18504542377633
 21
214.5
 31
0.0
  0
LINE
  5
193D
  8
0
 10
40.18504542377633
 20
214.5
 30
0.0
 11
45.09252271188813
 21
206.0
 31
0.0
  0
LINE
  5
193E
  8
0
 10
54.90747728811175
 20
223.0
 30
0.0
 11
45.09252271188813
 21
223.0
 31
0.0
  0
LINE
  5
193F
  8
0
 10
59.814954576223549
 20
214.5
 30
0.0
 11
54.90747728811175
 21
223.0
 31
0.0
  0
CIRCLE
  5
1941
  8
0
 10
49.999999999999943
 20
214.5
 30
0.0
 40
6.0
  0
CIRCLE
  5
1944
  8
0
 10
49.999999999999943
 20
214.5
 30
0.0
 40
20.000000000000021
  0
CIRCLE
  5
1945
  8
0
 10
49.999999999999943
 20
214.5
 30
0.0
 40
8.4999999999999751
  0
LINE
  5
1946
  8
2
 10
113.3333333333332
 20
101.0
 30
0.0
 11
113.3333333333332
 21
100.0
 31
0.0
  0
LINE
  5
1947
  8
2
 10
126.6666666666665
 20
101.0
 30
0.0
 11
126.6666666666665
 21
100.0
 31
0.0
  0
LINE
  5
1948
  8
2
 10
113.3333333333332
 20
101.0
 30
0.0
 11
126.6666666666665
 21
101.0
 31
0.0
  0
LINE
  5
194B
  8
2
 10
118.9999999999999
 20
101.0
 30
0.0
 11
118.9999999999999
 21
100.0
 31
0.0
  0
LINE
  5
194C
  8
2
 10
120.9999999999999
 20
101.0
 30
0.0
 11
120.9999999999999
 21
100.0
 31
0.0
  0
LINE
  5
1953
  8
1
 10
119.9999999999999
 20
167.5
 30
0.0
 11
119.9999999999999
 21
97.0
 31
0.0
  0
LINE
  5
1954
  8
0
 10
115.0734999999998
 20
164.5
 30
0.0
 11
113.9999999999999
 21
163.4265
 31
0.0
  0
LINE
  5
1955
  8
0
 10
125.9999999999999
 20
163.4265
 30
0.0
 11
124.9264999999999
 21
164.5
 31
0.0
  0
LINE
  5
1956
  8
0
 10
124.9264999999999
 20
164.5
 30
0.0
 11
115.0734999999998
 21
164.5
 31
0.0
  0
LINE
  5
1957
  8
0
 10
113.9999999999999
 20
163.4265
 30
0.0
 11
113.9999999999999
 21
113.0
 31
0.0
  0
LINE
  5
1958
  8
0
 10
125.9999999999999
 20
113.0
 30
0.0
 11
125.9999999999999
 21
163.4265
 31
0.0
  0
LINE
  5
1959
  8
0
 10
125.9999999999999
 20
163.4265
 30
0.0
 11
113.9999999999999
 21
163.4265
 31
0.0
  0
LINE
  5
195A
  8
0
 10
128.49999999999989
 20
107.8303387171258
 30
0.0
 11
128.49999999999989
 21
113.0
 31
0.0
  0
LINE
  5
195B
  8
0
 10
128.49999999999989
 20
113.0
 30
0.0
 11
111.4999999999999
 21
113.0
 31
0.0
  0
LINE
  5
195C
  8
0
 10
111.4999999999999
 20
113.0
 30
0.0
 11
111.4999999999999
 21
107.8303387171258
 31
0.0
  0
POLYLINE
  5
195D
  8
0
 66
     1
 10
0.0
 20
0.0
 30
0.0
 70
     8
  0
VERTEX
  5
195E
  8
0
 10
115.7499999999999
 20
113.0
 30
0.0
 70
    32
  0
VERTEX
  5
195F
  8
0
 10
116.81323100079931
 20
112.9762475912878
 30
0.0
 70
    32
  0
VERTEX
  5
1960
  8
0
 10
117.8749999999999
 20
112.9070000609243
 30
0.0
 70
    32
  0
VERTEX
  5
1961
  8
0
 10
118.939130815073
 20
112.7954269598748
 30
0.0
 70
    32
  0
VERTEX
  5
1962
  8
0
 10
119.9999999999999
 20
112.6476589832172
 30
0.0
 70
    32
  0
SEQEND
  5
1963
  8
0
  0
POLYLINE
  5
1964
  8
0
 66
     1
 10
0.0
 20
0.0
 30
0.0
 70
     8
  0
VERTEX
  5
1965
  8
0
 10
111.4999999999999
 20
112.6476589832172
 30
0.0
 70
    32
  0
VERTEX
  5
1966
  8
0
 10
112.5561052616208
 20
112.79484118034421
 30
0.0
 70
    32
  0
VERTEX
  5
1967
  8
0
 10
113.61544542779539
 20
112.9061784591005
 30
0.0
 70
    32
  0
VERTEX
  5
1968
  8
0
 10
114.6819823424439
 20
112.9760334749231
 30
0.0
 70
    32
  0
VERTEX
  5
1969
  8
0
 10
115.7499999999999
 20
113.0
 30
0.0
 70
    32
  0
SEQEND
  5
196A
  8
0
  0
POLYLINE
  5
196B
  8
0
 66
     1
 10
0.0
 20
0.0
 30
0.0
 70
     8
  0
VERTEX
  5
196C
  8
0
 10
124.2499999999999
 20
113.0
 30
0.0
 70
    32
  0
VERTEX
  5
196D
  8
0
 10
125.31323100079931
 20
112.9762475912878
 30
0.0
 70
    32
  0
VERTEX
  5
196E
  8
0
 10
126.3749999999999
 20
112.9070000609243
 30
0.0
 70
    32
  0
VERTEX
  5
196F
  8
0
 10
127.439130815073
 20
112.7954269598748
 30
0.0
 70
    32
  0
VERTEX
  5
1970
  8
0
 10
128.49999999999989
 20
112.6476589832172
 30
0.0
 70
    32
  0
SEQEND
  5
1971
  8
0
  0
POLYLINE
  5
1972
  8
0
 66
     1
 10
0.0
 20
0.0
 30
0.0
 70
     8
  0
VERTEX
  5
1973
  8
0
 10
119.9999999999999
 20
112.6476589832172
 30
0.0
 70
    32
  0
VERTEX
  5
1974
  8
0
 10
121.0561052616208
 20
112.79484118034421
 30
0.0
 70
    32
  0
VERTEX
  5
1975
  8
0
 10
122.11544542779539
 20
112.9061784591005
 30
0.0
 70
    32
  0
VERTEX
  5
1976
  8
0
 10
123.1819823424439
 20
112.9760334749231
 30
0.0
 70
    32
  0
VERTEX
  5
1977
  8
0
 10
124.2499999999999
 20
113.0
 30
0.0
 70
    32
  0
SEQEND
  5
1978
  8
0
  0
LINE
  5
1979
  8
0
 10
119.9999999999999
 20
112.6476589832172
 30
0.0
 11
119.9999999999999
 21
107.8303387171258
 31
0.0
  0
POLYLINE
  5
197A
  8
0
 66
     1
 10
0.0
 20
0.0
 30
0.0
 70
     8
  0
VERTEX
  5
197B
  8
0
 10
128.49999999999989
 20
107.8303387171258
 30
0.0
 70
    32
  0
VERTEX
  5
197C
  8
0
 10
127.3947987084491
 20
108.1604060995999
 30
0.0
 70
    32
  0
VERTEX
  5
197D
  8
0
 10
126.2737852803935
 20
108.4074427804012
 30
0.0
 70
    32
  0
VERTEX
  5
197E
  8
0
 10
125.1140560726534
 20
108.5552879741717
 30
0.0
 70
    32
  0
VERTEX
  5
197F
  8
0
 10
123.9477823368744
 20
108.5853939480254
 30
0.0
 70
    32
  0
VERTEX
  5
1980
  8
0
 10
122.9558061210883
 20
108.5140130786573
 30
0.0
 70
    32
  0
VERTEX
  5
1981
  8
0
 10
121.97077749749739
 20
108.359675544884
 30
0.0
 70
    32
  0
VERTEX
  5
1982
  8
0
 10
120.9790752236504
 20
108.1268472435746
 30
0.0
 70
    32
  0
VERTEX
  5
1983
  8
0
 10
119.9999999999999
 20
107.8303387171258
 30
0.0
 70
    32
  0
SEQEND
  5
1984
  8
0
  0
POLYLINE
  5
1985
  8
0
 66
     1
 10
0.0
 20
0.0
 30
0.0
 70
     8
  0
VERTEX
  5
1986
  8
0
 10
119.9999999999999
 20
107.8303387171258
 30
0.0
 70
    32
  0
VERTEX
  5
1987
  8
0
 10
118.8947987084491
 20
108.1604060995999
 30
0.0
 70
    32
  0
VERTEX
  5
1988
  8
0
 10
117.7737852803935
 20
108.4074427804012
 30
0.0
 70
    32
  0
VERTEX
  5
1989
  8
0
 10
116.6140560726534
 20
108.5552879741717
 30
0.0
 70
    32
  0
VERTEX
  5
198A
  8
0
 10
115.4477823368744
 20
108.5853939480254
 30
0.0
 70
    32
  0
VERTEX
  5
198B
  8
0
 10
114.4558061210883
 20
108.5140130786573
 30
0.0
 70
    32
  0
VERTEX
  5
198C
  8
0
 10
113.47077749749739
 20
108.359675544884
 30
0.0
 70
    32
  0
VERTEX
  5
198D
  8
0
 10
112.4790752236504
 20
108.1268472435746
 30
0.0
 70
    32
  0
VERTEX
  5
198E
  8
0
 10
111.4999999999999
 20
107.8303387171258
 30
0.0
 70
    32
  0
SEQEND
  5
198F
  8
0
  0
LINE
  5
1990
  8
0
 10
111.4999999999999
 20
108.58952809568071
 30
0.0
 11
100.2499999999999
 21
102.0943375672974
 31
0.0
  0
LINE
  5
1991
  8
0
 10
139.74999999999989
 20
102.0943375672974
 30
0.0
 11
128.49999999999989
 21
108.58952809568071
 31
0.0
  0
LINE
  5
1992
  8
0
 10
99.999999999999886
 20
101.66132486540521
 30
0.0
 11
99.999999999999886
 21
100.0
 31
0.0
  0
LINE
  5
1993
  8
0
 10
139.99999999999989
 20
100.0
 30
0.0
 11
139.99999999999989
 21
101.66132486540521
 31
0.0
  0
LINE
  5
1994
  8
0
 10
139.99999999999989
 20
100.0
 30
0.0
 11
99.999999999999886
 21
100.0
 31
0.0
  0
ARC
  5
1995
  8
0
 10
100.4999999999999
 20
101.66132486540521
 30
0.0
 40
0.5000000000000029
 50
120.0
 51
180.0
  0
ARC
  5
1996
  8
0
 10
139.49999999999989
 20
101.66132486540521
 30
0.0
 40
0.5000000000000036
 50
0.0
 51
59.999999999999858
  0
LINE
  5
1997
  8
0
 10
139.74999999999989
 20
102.0943375672974
 30
0.0
 11
100.2499999999999
 21
102.0943375672974
 31
0.0
  0
LINE
  5
1998
  8
0
 10
139.99999999999989
 20
101.66132486540521
 30
0.0
 11
99.999999999999886
 21
101.66132486540521
 31
0.0
  0
LINE
  5
1999
  8
3
 10
124.9264999999999
 20
164.5
 30
0.0
 11
124.9264999999999
 21
113.0
 31
0.0
  0
LINE
  5
199C
  8
3
 10
115.0734999999998
 20
164.5
 30
0.0
 11
115.0734999999998
 21
113.0
 31
0.0
  0
LINE
  5
199E
  8
2
 10
56.666666666666572
 20
101.0
 30
0.0
 11
56.666666666666572
 21
100.0
 31
0.0
  0
LINE
  5
199F
  8
2
 10
43.333333333333201
 20
101.0
 30
0.0
 11
43.333333333333201
 21
100.0
 31
0.0
  0
LINE
  5
19A0
  8
2
 10
43.333333333333201
 20
101.0
 30
0.0
 11
56.666666666666572
 21
101.0
 31
0.0
  0
LINE
  5
19A3
  8
2
 10
48.999999999999879
 20
101.0
 30
0.0
 11
48.999999999999879
 21
100.0
 31
0.0
  0
LINE
  5
19A4
  8
2
 10
50.999999999999879
 20
101.0
 30
0.0
 11
50.999999999999879
 21
100.0
 31
0.0
  0
LINE
  5
19AB
  8
1
 10
49.999999999999893
 20
167.5
 30
0.0
 11
49.999999999999943
 21
97.0
 31
0.0
  0
LINE
  5
19AC
  8
0
 10
59.814954576223499
 20
112.6476589832172
 30
0.0
 11
58.499999999999879
 21
113.0
 31
0.0
  0
LINE
  5
19AD
  8
0
 10
58.499999999999879
 20
113.0
 30
0.0
 11
41.499999999999879
 21
113.0
 31
0.0
  0
LINE
  5
19AE
  8
0
 10
41.499999999999879
 20
113.0
 30
0.0
 11
40.185045423776273
 21
112.6476589832172
 31
0.0
  0
LINE
  5
19AF
  8
0
 10
54.926499999999919
 20
164.5
 30
0.0
 11
45.073499999999846
 21
164.5
 31
0.0
  0
LINE
  5
19B0
  8
0
 10
45.073499999999846
 20
164.5
 30
0.0
 11
43.999999999999879
 21
163.4265
 31
0.0
  0
LINE
  5
19B1
  8
0
 10
55.999999999999879
 20
163.4265
 30
0.0
 11
54.926499999999919
 21
164.5
 31
0.0
  0
LINE
  5
19B2
  8
0
 10
55.999999999999879
 20
163.4265
 30
0.0
 11
43.999999999999879
 21
163.4265
 31
0.0
  0
LINE
  5
19B3
  8
0
 10
43.999999999999879
 20
163.4265
 30
0.0
 11
43.999999999999879
 21
113.0
 31
0.0
  0
LINE
  5
19B4
  8
0
 10
55.999999999999879
 20
113.0
 30
0.0
 11
55.999999999999879
 21
163.4265
 31
0.0
  0
POLYLINE
  5
19B5
  8
0
 66
     1
 10
0.0
 20
0.0
 30
0.0
 70
     8
  0
VERTEX
  5
19B6
  8
0
 10
40.185045423776273
 20
112.6476589832172
 30
0.0
 70
    32
  0
VERTEX
  5
19B7
  8
0
 10
40.794523924911232
 20
112.7948025960975
 30
0.0
 70
    32
  0
VERTEX
  5
19B8
  8
0
 10
41.406398410969928
 20
112.9061784591005
 30
0.0
 70
    32
  0
VERTEX
  5
19B9
  8
0
 10
42.02173191945905
 20
112.97611988379001
 30
0.0
 70
    32
  0
VERTEX
  5
19BA
  8
0
 10
42.638784067832148
 20
113.0
 30
0.0
 70
    32
  0
SEQEND
  5
19BB
  8
0
  0
LINE
  5
19BC
  8
0
 10
40.185045423776273
 20
112.6476589832172
 30
0.0
 11
40.185045423776273
 21
107.8303387171258
 31
0.0
  0
LINE
  5
19BD
  8
0
 10
59.814954576223499
 20
112.6476589832172
 30
0.0
 11
59.814954576223499
 21
107.8303387171258
 31
0.0
  0
POLYLINE
  5
19BE
  8
0
 66
     1
 10
0.0
 20
0.0
 30
0.0
 70
     8
  0
VERTEX
  5
19BF
  8
0
 10
57.361215932167617
 20
113.0
 30
0.0
 70
    32
  0
VERTEX
  5
19C0
  8
0
 10
57.9746505931816
 20
112.9763976272732
 30
0.0
 70
    32
  0
VERTEX
  5
19C1
  8
0
 10
58.588085254195562
 20
112.9070000609243
 30
0.0
 70
    32
  0
VERTEX
  5
19C2
  8
0
 10
59.202195165274702
 20
112.7955019876165
 30
0.0
 70
    32
  0
VERTEX
  5
19C3
  8
0
 10
59.814954576223499
 20
112.6476589832172
 30
0.0
 70
    32
  0
SEQEND
  5
19C4
  8
0
  0
LINE
  5
19C5
  8
0
 10
54.907477288111693
 20
112.6476589832172
 30
0.0
 11
54.907477288111693
 21
107.8303387171258
 31
0.0
  0
LINE
  5
19C6
  8
0
 10
45.09252271188808
 20
112.6476589832172
 30
0.0
 11
45.09252271188808
 21
107.8303387171258
 31
0.0
  0
POLYLINE
  5
19C7
  8
0
 66
     1
 10
0.0
 20
0.0
 30
0.0
 70
     8
  0
VERTEX
  5
19C8
  8
0
 10
42.638784067832148
 20
113.0
 30
0.0
 70
    32
  0
VERTEX
  5
19C9
  8
0
 10
43.25221872884611
 20
112.9763976272732
 30
0.0
 70
    32
  0
VERTEX
  5
19CA
  8
0
 10
43.865653389860093
 20
112.9070000609243
 30
0.0
 70
    32
  0
VERTEX
  5
19CB
  8
0
 10
44.479763300939219
 20
112.7955019876165
 30
0.0
 70
    32
  0
VERTEX
  5
19CC
  8
0
 10
45.09252271188808
 20
112.6476589832172
 30
0.0
 70
    32
  0
SEQEND
  5
19CD
  8
0
  0
POLYLINE
  5
19CE
  8
0
 66
     1
 10
0.0
 20
0.0
 30
0.0
 70
     8
  0
VERTEX
  5
19CF
  8
0
 10
45.09252271188808
 20
112.6476589832172
 30
0.0
 70
    32
  0
VERTEX
  5
19D0
  8
0
 10
46.311479714158111
 20
112.7948025960975
 30
0.0
 70
    32
  0
VERTEX
  5
19D1
  8
0
 10
47.535228686275502
 20
112.9061784591005
 30
0.0
 70
    32
  0
VERTEX
  5
19D2
  8
0
 10
48.765895703253697
 20
112.97611988379001
 30
0.0
 70
    32
  0
VERTEX
  5
19D3
  8
0
 10
49.999999999999893
 20
113.0
 30
0.0
 70
    32
  0
SEQEND
  5
19D4
  8
0
  0
POLYLINE
  5
19D5
  8
0
 66
     1
 10
0.0
 20
0.0
 30
0.0
 70
     8
  0
VERTEX
  5
19D6
  8
0
 10
49.999999999999893
 20
113.0
 30
0.0
 70
    32
  0
VERTEX
  5
19D7
  8
0
 10
51.841535878002503
 20
112.9471609345281
 30
0.0
 70
    32
  0
VERTEX
  5
19D8
  8
0
 10
53.68307175600512
 20
112.7953834014737
 30
0.0
 70
    32
  0
VERTEX
  5
19D9
  8
0
 10
54.907477288111693
 20
112.6476589832172
 30
0.0
 70
    32
  0
SEQEND
  5
19DA
  8
0
  0
POLYLINE
  5
19DB
  8
0
 66
     1
 10
0.0
 20
0.0
 30
0.0
 70
     8
  0
VERTEX
  5
19DC
  8
0
 10
54.907477288111693
 20
112.6476589832172
 30
0.0
 70
    32
  0
VERTEX
  5
19DD
  8
0
 10
55.516955789246708
 20
112.7948025960975
 30
0.0
 70
    32
  0
VERTEX
  5
19DE
  8
0
 10
56.128830275305397
 20
112.9061784591005
 30
0.0
 70
    32
  0
VERTEX
  5
19DF
  8
0
 10
56.744163783794527
 20
112.97611988379001
 30
0.0
 70
    32
  0
VERTEX
  5
19E0
  8
0
 10
57.361215932167617
 20
113.0
 30
0.0
 70
    32
  0
SEQEND
  5
19E1
  8
0
  0
POLYLINE
  5
19E2
  8
0
 66
     1
 10
0.0
 20
0.0
 30
0.0
 70
     8
  0
VERTEX
  5
19E3
  8
0
 10
59.814954576223499
 20
107.8303387171258
 30
0.0
 70
    32
  0
VERTEX
  5
19E4
  8
0
 10
59.178212682476392
 20
108.1598429428654
 30
0.0
 70
    32
  0
VERTEX
  5
19E5
  8
0
 10
58.529648908584932
 20
108.4074427804012
 30
0.0
 70
    32
  0
VERTEX
  5
19E6
  8
0
 10
57.862709468148459
 20
108.5554812239635
 30
0.0
 70
    32
  0
VERTEX
  5
19E7
  8
0
 10
57.186730483008319
 20
108.5853939480254
 30
0.0
 70
    32
  0
VERTEX
  5
19E8
  8
0
 10
56.615520678582577
 20
108.5145613501588
 30
0.0
 70
    32
  0
VERTEX
  5
19E9
  8
0
 10
56.045306206804753
 20
108.359675544884
 30
0.0
 70
    32
  0
VERTEX
  5
19EA
  8
0
 10
55.473636158975857
 20
108.12728069809241
 30
0.0
 70
    32
  0
VERTEX
  5
19EB
  8
0
 10
54.907477288111693
 20
107.8303387171258
 30
0.0
 70
    32
  0
SEQEND
  5
19EC
  8
0
  0
POLYLINE
  5
19ED
  8
0
 66
     1
 10
0.0
 20
0.0
 30
0.0
 70
     8
  0
VERTEX
  5
19EE
  8
0
 10
54.907477288111693
 20
107.8303387171258
 30
0.0
 70
    32
  0
VERTEX
  5
19EF
  8
0
 10
53.514547010648243
 20
108.1865741178764
 30
0.0
 70
    32
  0
VERTEX
  5
19F0
  8
0
 10
52.299243708175773
 20
108.4129431326826
 30
0.0
 70
    32
  0
VERTEX
  5
19F1
  8
0
 10
51.071041190334881
 20
108.5507229672904
 30
0.0
 70
    32
  0
VERTEX
  5
19F2
  8
0
 10
49.804793935683158
 20
108.5877479821855
 30
0.0
 70
    32
  0
VERTEX
  5
19F3
  8
0
 10
48.539906141820609
 20
108.51765221044781
 30
0.0
 70
    32
  0
VERTEX
  5
19F4
  8
0
 10
47.670767281452072
 20
108.4085563480396
 30
0.0
 70
    32
  0
VERTEX
  5
19F5
  8
0
 10
46.808300160233102
 20
108.2549654543004
 30
0.0
 70
    32
  0
VERTEX
  5
19F6
  8
0
 10
45.946158109885168
 20
108.0599850023147
 30
0.0
 70
    32
  0
VERTEX
  5
19F7
  8
0
 10
45.09252271188808
 20
107.8303387171258
 30
0.0
 70
    32
  0
SEQEND
  5
19F8
  8
0
  0
POLYLINE
  5
19F9
  8
0
 66
     1
 10
0.0
 20
0.0
 30
0.0
 70
     8
  0
VERTEX
  5
19FA
  8
0
 10
45.09252271188808
 20
107.8303387171258
 30
0.0
 70
    32
  0
VERTEX
  5
19FB
  8
0
 10
44.455780818140902
 20
108.1598429428654
 30
0.0
 70
    32
  0
VERTEX
  5
19FC
  8
0
 10
43.807217044249448
 20
108.4074427804012
 30
0.0
 70
    32
  0
VERTEX
  5
19FD
  8
0
 10
43.14027760381299
 20
108.5554812239635
 30
0.0
 70
    32
  0
VERTEX
  5
19FE
  8
0
 10
42.464298618672842
 20
108.5853939480254
 30
0.0
 70
    32
  0
VERTEX
  5
19FF
  8
0
 10
41.893088814247101
 20
108.5145613501588
 30
0.0
 70
    32
  0
VERTEX
  5
1A00
  8
0
 10
41.322874342469277
 20
108.359675544884
 30
0.0
 70
    32
  0
VERTEX
  5
1A01
  8
0
 10
40.751204294640381
 20
108.12728069809241
 30
0.0
 70
    32
  0
VERTEX
  5
1A02
  8
0
 10
40.185045423776273
 20
107.8303387171258
 30
0.0
 70
    32
  0
SEQEND
  5
1A03
  8
0
  0
LINE
  5
1A04
  8
0
 10
40.185045423776273
 20
107.8303387171258
 30
0.0
 11
30.24999999999989
 21
102.0943375672974
 31
0.0
  0
LINE
  5
1A05
  8
0
 10
69.749999999999886
 20
102.0943375672974
 30
0.0
 11
59.814954576223499
 21
107.8303387171258
 31
0.0
  0
LINE
  5
1A06
  8
0
 10
69.999999999999886
 20
100.0
 30
0.0
 11
29.99999999999989
 21
100.0
 31
0.0
  0
LINE
  5
1A07
  8
0
 10
29.99999999999989
 20
101.66132486540521
 30
0.0
 11
29.99999999999989
 21
100.0
 31
0.0
  0
LINE
  5
1A08
  8
0
 10
69.999999999999886
 20
100.0
 30
0.0
 11
69.999999999999886
 21
101.66132486540521
 31
0.0
  0
LINE
  5
1A09
  8
0
 10
69.749999999999886
 20
102.0943375672974
 30
0.0
 11
30.24999999999989
 21
102.0943375672974
 31
0.0
  0
LINE
  5
1A0A
  8
0
 10
69.999999999999886
 20
101.66132486540521
 30
0.0
 11
29.99999999999989
 21
101.66132486540521
 31
0.0
  0
ARC
  5
1A0B
  8
0
 10
30.49999999999989
 20
101.66132486540521
 30
0.0
 40
0.5000000000000029
 50
120.0
 51
180.0
  0
ARC
  5
1A0C
  8
0
 10
69.499999999999886
 20
101.66132486540521
 30
0.0
 40
0.5000000000000036
 50
0.0
 51
59.999999999999858
  0
LINE
  5
1A0D
  8
3
 10
54.926499999999919
 20
164.5
 30
0.0
 11
54.926499999999919
 21
113.0
 31
0.0
  0
LINE
  5
1A10
  8
3
 10
45.073499999999846
 20
164.5
 30
0.0
 11
45.073499999999846
 21
113.0
 31
0.0
  0
LINE
  5
1BD9
  8
0
 10
43.33333333333325
 20
51.0
 30
0.0
 11
43.33333333333325
 21
49.0
 31
0.0
  0
LINE
  5
1BDA
  8
0
 10
43.33333333333325
 20
49.0
 30
0.0
 11
48.99999999999995
 21
49.0
 31
0.0
  0
LINE
  5
1BDB
  8
0
 10
48.99999999999995
 20
51.0
 30
0.0
 11
43.33333333333325
 21
51.0
 31
0.0
  0
LINE
  5
1BDC
  8
0
 10
48.99999999999995
 20
56.666666666666679
 30
0.0
 11
48.99999999999995
 21
51.0
 31
0.0
  0
LINE
  5
1BDD
  8
0
 10
50.999999999999943
 20
56.666666666666679
 30
0.0
 11
48.99999999999995
 21
56.666666666666679
 31
0.0
  0
LINE
  5
1BDE
  8
0
 10
50.999999999999943
 20
51.0
 30
0.0
 11
50.999999999999943
 21
56.666666666666679
 31
0.0
  0
LINE
  5
1BDF
  8
0
 10
48.99999999999995
 20
43.333333333333307
 30
0.0
 11
50.999999999999943
 21
43.333333333333307
 31
0.0
  0
LINE
  5
1BE0
  8
0
 10
48.99999999999995
 20
49.0
 30
0.0
 11
48.99999999999995
 21
43.333333333333307
 31
0.0
  0
LINE
  5
1BE1
  8
0
 10
50.999999999999943
 20
43.333333333333307
 30
0.0
 11
50.999999999999943
 21
49.0
 31
0.0
  0
LINE
  5
1BE2
  8
0
 10
50.999999999999943
 20
49.0
 30
0.0
 11
56.666666666666629
 21
49.0
 31
0.0
  0
LINE
  5
1BE3
  8
0
 10
56.666666666666629
 20
51.0
 30
0.0
 11
50.999999999999943
 21
51.0
 31
0.0
  0
LINE
  5
1BE4
  8
0
 10
56.666666666666629
 20
49.0
 30
0.0
 11
56.666666666666629
 21
51.0
 31
0.0
  0
LINE
  5
1BE5
  8
1
 10
49.999999999999943
 20
27.0
 30
0.0
 11
49.999999999999943
 21
73.0
 31
0.0
  0
LINE
  5
1BE6
  8
1
 10
73.0
 20
50.0
 30
0.0
 11
26.99999999999994
 21
50.0
 31
0.0
  0
CIRCLE
  5
1BEF
  8
0
 10
49.999999999999943
 20
50.0
 30
0.0
 40
20.000000000000021
  0
CIRCLE
  5
1C02
  8
3
 10
49.999999999999943
 20
214.5
 30
0.0
 40
4.9265000000000319
  0
ENDSEC
  0
EOF
