  0
SECTION
  2
HEADER
  9
$ACADVER
  1
AC1009
  9
$INSBASE
 10
0.0
 20
0.0
 30
0.0
  9
$EXTMIN
 10
0.0
 20
-2.960436562073669
 30
0.0
  9
$EXTMAX
 10
140.0
 20
237.5
 30
0.0
  9
$LIMMIN
 10
0.0
 20
0.0
  9
$LIMMAX
 10
375.0
 20
270.0
  9
$ORTHOMODE
 70
     1
  9
$REGENMODE
 70
     1
  9
$FILLMODE
 70
     1
  9
$QTEXTMODE
 70
     0
  9
$MIRRTEXT
 70
     0
  9
$DRAGMODE
 70
     2
  9
$LTSCALE
 40
5.0
  9
$OSMODE
 70
    37
  9
$ATTMODE
 70
     1
  9
$TEXTSIZE
 40
0.2
  9
$TRACEWID
 40
0.05
  9
$TEXTSTYLE
  7
STANDARD
  9
$CLAYER
  8
0
  9
$CELTYPE
  6
BYLAYER
  9
$CECOLOR
 62
   256
  9
$DIMSCALE
 40
1.0
  9
$DIMASZ
 40
3.0
  9
$DIMEXO
 40
1.0
  9
$DIMDLI
 40
6.0
  9
$DIMRND
 40
0.0
  9
$DIMDLE
 40
0.0
  9
$DIMEXE
 40
1.0
  9
$DIMTP
 40
495.0
  9
$DIMTM
 40
0.0
  9
$DIMTXT
 40
3.0
  9
$DIMCEN
 40
0.0
  9
$DIMTSZ
 40
0.0
  9
$DIMTOL
 70
     0
  9
$DIMLIM
 70
     0
  9
$DIMTIH
 70
     0
  9
$DIMTOH
 70
     0
  9
$DIMSE1
 70
     0
  9
$DIMSE2
 70
     0
  9
$DIMTAD
 70
     1
  9
$DIMZIN
 70
     0
  9
$DIMBLK
  1

  9
$DIMASO
 70
     0
  9
$DIMSHO
 70
     0
  9
$DIMPOST
  1

  9
$DIMAPOST
  1

  9
$DIMALT
 70
     0
  9
$DIMALTD
 70
     2
  9
$DIMALTF
 40
25.399999999999999
  9
$DIMLFAC
 40
1.0
  9
$DIMTOFL
 70
     1
  9
$DIMTVP
 40
0.0
  9
$DIMTIX
 70
     1
  9
$DIMSOXD
 70
     0
  9
$DIMSAH
 70
     0
  9
$DIMBLK1
  1

  9
$DIMBLK2
  1

  9
$DIMSTYLE
  2
STANDARD
  9
$DIMCLRD
 70
     0
  9
$DIMCLRE
 70
     0
  9
$DIMCLRT
 70
     4
  9
$DIMTFAC
 40
1.0
  9
$DIMGAP
 40
1.0
  9
$LUNITS
 70
     2
  9
$LUPREC
 70
     1
  9
$SKETCHINC
 40
0.1
  9
$FILLETRAD
 40
2.0
  9
$AUNITS
 70
     0
  9
$AUPREC
 70
     1
  9
$MENU
  1
C:\R13\WIN\SUPPORT\ACAD-I
  9
$ELEVATION
 40
0.0
  9
$PELEVATION
 40
0.0
  9
$THICKNESS
 40
0.0
  9
$LIMCHECK
 70
     0
  9
$BLIPMODE
 70
     0
  9
$CHAMFERA
 40
0.0
  9
$CHAMFERB
 40
0.0
  9
$SKPOLY
 70
     0
  9
$TDCREATE
 40
2450834.7095229169
  9
$TDUPDATE
 40
2457164.3871275689
  9
$TDINDWG
 40
0.1144014005
  9
$TDUSRTIMER
 40
2456694.2512560301
  9
$USRTIMER
 70
     1
  9
$ANGBASE
 50
0.0
  9
$ANGDIR
 70
     0
  9
$PDMODE
 70
     0
  9
$PDSIZE
 40
0.0
  9
$PLINEWID
 40
0.0
  9
$COORDS
 70
     1
  9
$SPLFRAME
 70
     0
  9
$SPLINETYPE
 70
     6
  9
$SPLINESEGS
 70
     8
  9
$ATTDIA
 70
     0
  9
$ATTREQ
 70
     1
  9
$HANDLING
 70
     1
  9
$HANDSEED
  5
1A9A
  9
$SURFTAB1
 70
     6
  9
$SURFTAB2
 70
     6
  9
$SURFTYPE
 70
     6
  9
$SURFU
 70
     6
  9
$SURFV
 70
     6
  9
$UCSNAME
  2

  9
$UCSORG
 10
0.0
 20
0.0
 30
0.0
  9
$UCSXDIR
 10
1.0
 20
0.0
 30
0.0
  9
$UCSYDIR
 10
0.0
 20
1.0
 30
0.0
  9
$PUCSNAME
  2

  9
$PUCSORG
 10
0.0
 20
0.0
 30
0.0
  9
$PUCSXDIR
 10
1.0
 20
0.0
 30
0.0
  9
$PUCSYDIR
 10
0.0
 20
1.0
 30
0.0
  9
$USERI1
 70
     4
  9
$USERI2
 70
     1
  9
$USERI3
 70
     0
  9
$USERI4
 70
     0
  9
$USERI5
 70
     0
  9
$USERR1
 40
1.0
  9
$USERR2
 40
3.0
  9
$USERR3
 40
3.0
  9
$USERR4
 40
3.0
  9
$USERR5
 40
10.0
  9
$WORLDVIEW
 70
     1
  9
$SHADEDGE
 70
     3
  9
$SHADEDIF
 70
    70
  9
$TILEMODE
 70
     1
  9
$MAXACTVP
 70
    16
  9
$PLIMCHECK
 70
     0
  9
$PEXTMIN
 10
1.0000000000000000E+020
 20
1.0000000000000000E+020
 30
1.0000000000000000E+020
  9
$PEXTMAX
 10
-1.0000000000000000E+020
 20
-1.0000000000000000E+020
 30
-1.0000000000000000E+020
  9
$PLIMMIN
 10
0.0
 20
0.0
  9
$PLIMMAX
 10
0.0
 20
0.0
  9
$UNITMODE
 70
     0
  9
$VISRETAIN
 70
     0
  9
$PLINEGEN
 70
     0
  9
$PSLTSCALE
 70
     0
  0
ENDSEC
  0
SECTION
  2
TABLES
  0
TABLE
  2
VPORT
 70
     1
  0
VPORT
  2
*ACTIVE
 70
     0
 10
0.0
 20
0.0
 11
1.0
 21
1.0
 12
272.4358974358974
 22
150.0
 13
0.0
 23
0.0
 14
10.0
 24
10.0
 15
10.0
 25
10.0
 16
0.0
 26
0.0
 36
1.0
 17
0.0
 27
0.0
 37
0.0
 40
300.0
 41
1.816239316239316
 42
50.0
 43
0.0
 44
0.0
 50
0.0
 51
0.0
 71
    16
 72
   100
 73
     1
 74
     0
 75
     0
 76
     0
 77
     0
 78
     0
  0
ENDTAB
  0
TABLE
  2
LTYPE
 70
     4
  0
LTYPE
  2
CONTINUOUS
 70
     0
  3
Solid Line
 72
    65
 73
     0
 40
0.0
  0
LTYPE
  2
PHANTOM2
 70
     0
  3
___ _ _ ___ _ _ ___ _ _ ___ _ _
 72
    65
 73
     6
 40
1.25
 49
0.625
 49
-0.125
 49
0.125
 49
-0.125
 49
0.125
 49
-0.125
  0
LTYPE
  2
CENTER
 70
     0
  3
____ _ ____ _ ____ _ ____ _ ____ _ ____ _ ____
 72
    65
 73
     4
 40
2.0
 49
1.25
 49
-0.25
 49
0.25
 49
-0.25
  0
LTYPE
  2
HIDDEN
 70
     0
  3
_ _ _ _ _ _ _ _ _ _ _ _ _ _ _ _ _ _ _ _ _ _ _
 72
    65
 73
     2
 40
0.375
 49
0.25
 49
-0.125
  0
ENDTAB
  0
TABLE
  2
LAYER
 70
     4
  0
LAYER
  2
0
 70
     0
 62
     7
  6
CONTINUOUS
  0
LAYER
  2
1
 70
     0
 62
     1
  6
CENTER
  0
LAYER
  2
3
 70
     0
 62
     3
  6
CONTINUOUS
  0
LAYER
  2
2
 70
     0
 62
     2
  6
HIDDEN
  0
ENDTAB
  0
TABLE
  2
STYLE
 70
     2
  0
STYLE
  2
STANDARD
 70
     0
 40
0.0
 41
1.0
 50
0.0
 71
     0
 42
0.2
  3
SIMPLEX
  4
BIGFONT
  0
STYLE
  2
STANDARD1
 70
     0
 40
0.0
 41
1.0
 50
0.0
 71
     0
 42
3.0
  3
txt
  4

  0
ENDTAB
  0
TABLE
  2
VIEW
 70
     0
  0
ENDTAB
  0
TABLE
  2
UCS
 70
     0
  0
ENDTAB
  0
TABLE
  2
APPID
 70
    32
  0
APPID
  2
ACAD
 70
     0
  0
APPID
  2
ACADANNOTATIVE
 70
     0
  0
APPID
  2
GENIUS_GENOREF_13
 70
     0
  0
APPID
  2
GENIUS_GENOENT_13
 70
     0
  0
APPID
  2
GENIUS_GENBH_13
 70
     0
  0
APPID
  2
GENIUS_GENOBJ_13
 70
     0
  0
APPID
  2
GENIUS_GENODEF_13
 70
     0
  0
APPID
  2
GENIUS_GENOLIS_13
 70
     0
  0
APPID
  2
GENIUS_GENOBJ-NBEHI-BHF_13
 70
     0
  0
APPID
  2
GENIUS_GENOBJ-NBEHI-BHB_13
 70
     0
  0
APPID
  2
GENIUS_GENOBJ-F-PART_13
 70
     0
  0
APPID
  2
GENIUS_GEFSTDP_13
 70
     0
  0
APPID
  2
GENIUS_GENOBJ-N-RSSYM_13
 70
     0
  0
APPID
  2
GENIUS_GENSYMENT_13
 70
     0
  0
APPID
  2
GENIUS_GENOBJ-N-TIT_13
 70
     0
  0
APPID
  2
GENIUS_GENTITLE_13
 70
     0
  0
APPID
  2
GENIUS_GENZVEED_13
 70
     0
  0
APPID
  2
GENIUS_GENOBJ-N-LEADER_13
 70
     0
  0
APPID
  2
GENIUS_GENOBJ-N-FIL_13
 70
     0
  0
APPID
  2
GENIUS_GENOBJ-N-SEC_13
 70
     0
  0
APPID
  2
GENIUS_GENOBJ-N-CRS_13
 70
     0
  0
APPID
  2
GENIUS_GENOBJ-N-ZOO_13
 70
     0
  0
APPID
  2
GENIUS_GENZOO_13
 70
     0
  0
APPID
  2
GENIUS_GENOBJ-F-TOL_13
 70
     0
  0
APPID
  2
GENIUS_GENFIL_13
 70
     0
  0
APPID
  2
GENIUS_GENOBJ-N-CHA_13
 70
     0
  0
APPID
  2
ACAD_MLEADERVER
 70
     0
  0
APPID
  2
ACAD_EXEMPT_FROM_CAD_STAND
 70
     0
  0
APPID
  2
ACAD_NAV_VCDISPLAY
 70
     0
  0
APPID
  2
ACAD_EXEMPT_FROM_CAD_STANDARDS
 70
     0
  0
APPID
  2
ACAD_DSTYLE_DIMJAG
 70
     0
  0
APPID
  2
ACAD_DSTYLE_DIMTALN
 70
     0
  0
ENDTAB
  0
TABLE
  2
DIMSTYLE
 70
     1
  0
DIMSTYLE
  2
STANDARD
 70
     0
  3

  4

  5

  6

  7

 40
1.0
 41
0.18
 42
0.0625
 43
0.38
 44
0.18
 45
0.0
 46
0.0
 47
0.0
 48
0.0
140
0.18
141
0.09
142
0.0
143
25.399999999999999
144
1.0
145
0.0
146
1.0
147
0.09
 71
     0
 72
     0
 73
     1
 74
     1
 75
     0
 76
     0
 77
     0
 78
     0
170
     0
171
     2
172
     0
173
     0
174
     0
175
     0
176
     0
177
     0
178
     0
  0
ENDTAB
  0
ENDSEC
  0
SECTION
  2
BLOCKS
  0
BLOCK
  8
0
  2
$MODEL_SPACE
 70
     0
 10
0.0
 20
0.0
 30
0.0
  3
$MODEL_SPACE
  1

  0
ENDBLK
  5
E10
  8
0
  0
BLOCK
 67
     1
  8
0
  2
$PAPER_SPACE
 70
     0
 10
0.0
 20
0.0
 30
0.0
  3
$PAPER_SPACE
  1

  0
ENDBLK
  5
E0C
 67
     1
  8
0
  0
ENDSEC
  0
SECTION
  2
ENTITIES
  0
TEXT
  5
E90
  8
0
 62
     3
 10
0.0
 20
0.0
 30
0.0
 40
10.0
  1
ELPS40-M10X52
  7
STANDARD1
  0
LINE
  5
170F
  8
1
 10
50.0
 20
191.5
 30
0.0
 11
50.0
 21
237.5
 31
0.0
  0
LINE
  5
1710
  8
1
 10
73.0
 20
214.5
 30
0.0
 11
27.0
 21
214.5
 31
0.0
  0
LINE
  5
1712
  8
0
 10
45.092522711888193
 20
206.0
 30
0.0
 11
54.907477288111807
 21
206.0
 31
0.0
  0
LINE
  5
1713
  8
0
 10
54.907477288111807
 20
206.0
 30
0.0
 11
59.81495457622362
 21
214.5
 31
0.0
  0
LINE
  5
1714
  8
0
 10
59.81495457622362
 20
214.5
 30
0.0
 11
54.907477288111807
 21
223.0
 31
0.0
  0
LINE
  5
1715
  8
0
 10
45.092522711888193
 20
223.0
 30
0.0
 11
40.18504542377638
 21
214.5
 31
0.0
  0
LINE
  5
1716
  8
0
 10
40.18504542377638
 20
214.5
 30
0.0
 11
45.092522711888193
 21
206.0
 31
0.0
  0
LINE
  5
1717
  8
0
 10
54.907477288111807
 20
223.0
 30
0.0
 11
45.092522711888193
 21
223.0
 31
0.0
  0
CIRCLE
  5
1719
  8
0
 10
50.0
 20
214.5
 30
0.0
 40
5.0
  0
CIRCLE
  5
171A
  8
0
 10
50.0
 20
214.5
 30
0.0
 40
20.000000000000021
  0
CIRCLE
  5
171B
  8
0
 10
50.0
 20
214.5
 30
0.0
 40
8.4999999999999751
  0
CIRCLE
  5
171C
  8
3
 10
50.0
 20
214.5
 30
0.0
 40
4.0800000000000001
  0
LINE
  5
171D
  8
2
 10
113.3333333333333
 20
101.0
 30
0.0
 11
113.3333333333333
 21
100.0
 31
0.0
  0
LINE
  5
171E
  8
2
 10
113.3333333333333
 20
101.0
 30
0.0
 11
126.6666666666667
 21
101.0
 31
0.0
  0
LINE
  5
171F
  8
2
 10
126.6666666666667
 20
101.0
 30
0.0
 11
126.6666666666667
 21
100.0
 31
0.0
  0
LINE
  5
1725
  8
2
 10
119.0
 20
101.0
 30
0.0
 11
119.0
 21
100.0
 31
0.0
  0
LINE
  5
1726
  8
2
 10
121.0
 20
101.0
 30
0.0
 11
121.0
 21
100.0
 31
0.0
  0
LINE
  5
1727
  8
1
 10
120.0
 20
167.5
 30
0.0
 11
120.0
 21
97.0
 31
0.0
  0
LINE
  5
1728
  8
0
 10
115.0
 20
163.58000000000001
 30
0.0
 11
115.0
 21
113.0
 31
0.0
  0
LINE
  5
1729
  8
0
 10
125.0
 20
113.0
 30
0.0
 11
125.0
 21
163.58000000000001
 31
0.0
  0
LINE
  5
172A
  8
0
 10
115.92
 20
164.5
 30
0.0
 11
115.0
 21
163.58000000000001
 31
0.0
  0
LINE
  5
172B
  8
0
 10
125.0
 20
163.58000000000001
 30
0.0
 11
124.08
 21
164.5
 31
0.0
  0
LINE
  5
172C
  8
0
 10
125.0
 20
163.58000000000001
 30
0.0
 11
115.0
 21
163.58000000000001
 31
0.0
  0
LINE
  5
172D
  8
0
 10
124.08
 20
164.5
 30
0.0
 11
115.92
 21
164.5
 31
0.0
  0
LINE
  5
172E
  8
0
 10
111.5
 20
113.0
 30
0.0
 11
111.5
 21
107.8303387171258
 31
0.0
  0
LINE
  5
172F
  8
0
 10
128.5
 20
113.0
 30
0.0
 11
111.5
 21
113.0
 31
0.0
  0
LINE
  5
1730
  8
0
 10
128.5
 20
107.8303387171258
 30
0.0
 11
128.5
 21
113.0
 31
0.0
  0
POLYLINE
  5
1731
  8
0
 66
     1
 10
0.0
 20
0.0
 30
0.0
 70
     8
  0
VERTEX
  5
1732
  8
0
 10
124.25
 20
113.0
 30
0.0
 70
    32
  0
VERTEX
  5
1733
  8
0
 10
125.31323100079941
 20
112.9762475912878
 30
0.0
 70
    32
  0
VERTEX
  5
1734
  8
0
 10
126.375
 20
112.9070000609243
 30
0.0
 70
    32
  0
VERTEX
  5
1735
  8
0
 10
127.4391308150731
 20
112.7954269598748
 30
0.0
 70
    32
  0
VERTEX
  5
1736
  8
0
 10
128.5
 20
112.6476589832172
 30
0.0
 70
    32
  0
SEQEND
  5
1737
  8
0
  0
POLYLINE
  5
1738
  8
0
 66
     1
 10
0.0
 20
0.0
 30
0.0
 70
     8
  0
VERTEX
  5
1739
  8
0
 10
120.0
 20
112.6476589832172
 30
0.0
 70
    32
  0
VERTEX
  5
173A
  8
0
 10
121.0561052616209
 20
112.79484118034421
 30
0.0
 70
    32
  0
VERTEX
  5
173B
  8
0
 10
122.11544542779551
 20
112.9061784591005
 30
0.0
 70
    32
  0
VERTEX
  5
173C
  8
0
 10
123.1819823424441
 20
112.9760334749231
 30
0.0
 70
    32
  0
VERTEX
  5
173D
  8
0
 10
124.25
 20
113.0
 30
0.0
 70
    32
  0
SEQEND
  5
173E
  8
0
  0
LINE
  5
173F
  8
0
 10
120.0
 20
112.6476589832172
 30
0.0
 11
120.0
 21
107.8303387171258
 31
0.0
  0
POLYLINE
  5
1740
  8
0
 66
     1
 10
0.0
 20
0.0
 30
0.0
 70
     8
  0
VERTEX
  5
1741
  8
0
 10
115.75
 20
113.0
 30
0.0
 70
    32
  0
VERTEX
  5
1742
  8
0
 10
116.8132310007995
 20
112.9762475912878
 30
0.0
 70
    32
  0
VERTEX
  5
1743
  8
0
 10
117.875
 20
112.9070000609243
 30
0.0
 70
    32
  0
VERTEX
  5
1744
  8
0
 10
118.9391308150731
 20
112.7954269598748
 30
0.0
 70
    32
  0
VERTEX
  5
1745
  8
0
 10
120.0
 20
112.6476589832172
 30
0.0
 70
    32
  0
SEQEND
  5
1746
  8
0
  0
POLYLINE
  5
1747
  8
0
 66
     1
 10
0.0
 20
0.0
 30
0.0
 70
     8
  0
VERTEX
  5
1748
  8
0
 10
111.5
 20
112.6476589832172
 30
0.0
 70
    32
  0
VERTEX
  5
1749
  8
0
 10
112.5561052616209
 20
112.79484118034421
 30
0.0
 70
    32
  0
VERTEX
  5
174A
  8
0
 10
113.61544542779551
 20
112.9061784591005
 30
0.0
 70
    32
  0
VERTEX
  5
174B
  8
0
 10
114.6819823424441
 20
112.9760334749231
 30
0.0
 70
    32
  0
VERTEX
  5
174C
  8
0
 10
115.75
 20
113.0
 30
0.0
 70
    32
  0
SEQEND
  5
174D
  8
0
  0
POLYLINE
  5
174E
  8
0
 66
     1
 10
0.0
 20
0.0
 30
0.0
 70
     8
  0
VERTEX
  5
174F
  8
0
 10
128.5
 20
107.8303387171258
 30
0.0
 70
    32
  0
VERTEX
  5
1750
  8
0
 10
127.3947987084492
 20
108.1604060995999
 30
0.0
 70
    32
  0
VERTEX
  5
1751
  8
0
 10
126.2737852803937
 20
108.4074427804012
 30
0.0
 70
    32
  0
VERTEX
  5
1752
  8
0
 10
125.5019998536407
 20
108.518628818857
 30
0.0
 70
    32
  0
VERTEX
  5
1753
  8
0
 10
124.7253851218843
 20
108.5788649939401
 30
0.0
 70
    32
  0
VERTEX
  5
1754
  8
0
 10
123.9477823368746
 20
108.5853939480254
 30
0.0
 70
    32
  0
VERTEX
  5
1755
  8
0
 10
122.9558061210884
 20
108.5140130786573
 30
0.0
 70
    32
  0
VERTEX
  5
1756
  8
0
 10
121.97077749749749
 20
108.359675544884
 30
0.0
 70
    32
  0
VERTEX
  5
1757
  8
0
 10
120.9790752236505
 20
108.1268472435746
 30
0.0
 70
    32
  0
VERTEX
  5
1758
  8
0
 10
120.0
 20
107.8303387171258
 30
0.0
 70
    32
  0
SEQEND
  5
1759
  8
0
  0
POLYLINE
  5
175A
  8
0
 66
     1
 10
0.0
 20
0.0
 30
0.0
 70
     8
  0
VERTEX
  5
175B
  8
0
 10
120.0
 20
107.8303387171258
 30
0.0
 70
    32
  0
VERTEX
  5
175C
  8
0
 10
118.8947987084492
 20
108.1604060995999
 30
0.0
 70
    32
  0
VERTEX
  5
175D
  8
0
 10
117.7737852803937
 20
108.4074427804012
 30
0.0
 70
    32
  0
VERTEX
  5
175E
  8
0
 10
117.0019998536407
 20
108.518628818857
 30
0.0
 70
    32
  0
VERTEX
  5
175F
  8
0
 10
116.2253851218843
 20
108.5788649939401
 30
0.0
 70
    32
  0
VERTEX
  5
1760
  8
0
 10
115.4477823368746
 20
108.5853939480254
 30
0.0
 70
    32
  0
VERTEX
  5
1761
  8
0
 10
114.4558061210884
 20
108.5140130786573
 30
0.0
 70
    32
  0
VERTEX
  5
1762
  8
0
 10
113.47077749749749
 20
108.359675544884
 30
0.0
 70
    32
  0
VERTEX
  5
1763
  8
0
 10
112.4790752236505
 20
108.1268472435746
 30
0.0
 70
    32
  0
VERTEX
  5
1764
  8
0
 10
111.5
 20
107.8303387171258
 30
0.0
 70
    32
  0
SEQEND
  5
1765
  8
0
  0
LINE
  5
1766
  8
0
 10
111.5
 20
108.58952809568071
 30
0.0
 11
100.25
 21
102.0943375672974
 31
0.0
  0
LINE
  5
1767
  8
0
 10
139.75
 20
102.0943375672974
 30
0.0
 11
128.5
 21
108.58952809568071
 31
0.0
  0
LINE
  5
1768
  8
0
 10
100.0
 20
101.66132486540521
 30
0.0
 11
100.0
 21
100.0
 31
0.0
  0
LINE
  5
1769
  8
0
 10
140.0
 20
100.0
 30
0.0
 11
140.0
 21
101.66132486540521
 31
0.0
  0
LINE
  5
176A
  8
0
 10
140.0
 20
100.0
 30
0.0
 11
100.0
 21
100.0
 31
0.0
  0
ARC
  5
176B
  8
0
 10
100.5
 20
101.66132486540521
 30
0.0
 40
0.5000000000000029
 50
120.0000000000019
 51
180.0
  0
ARC
  5
176C
  8
0
 10
139.5
 20
101.66132486540521
 30
0.0
 40
0.5000000000000036
 50
0.0
 51
59.999999999998039
  0
LINE
  5
176D
  8
0
 10
139.75
 20
102.0943375672974
 30
0.0
 11
100.25
 21
102.0943375672974
 31
0.0
  0
LINE
  5
176E
  8
0
 10
140.0
 20
101.66132486540521
 30
0.0
 11
100.0
 21
101.66132486540521
 31
0.0
  0
LINE
  5
176F
  8
3
 10
124.08
 20
164.5
 30
0.0
 11
124.08
 21
113.0
 31
0.0
  0
LINE
  5
1772
  8
3
 10
115.92
 20
164.5
 30
0.0
 11
115.92
 21
113.0
 31
0.0
  0
LINE
  5
1774
  8
2
 10
56.666666666666679
 20
101.0
 30
0.0
 11
56.666666666666679
 21
100.0
 31
0.0
  0
LINE
  5
1775
  8
2
 10
43.333333333333307
 20
101.0
 30
0.0
 11
43.333333333333307
 21
100.0
 31
0.0
  0
LINE
  5
1776
  8
2
 10
43.333333333333307
 20
101.0
 30
0.0
 11
56.666666666666679
 21
101.0
 31
0.0
  0
LINE
  5
177C
  8
2
 10
51.0
 20
101.0
 30
0.0
 11
51.0
 21
100.0
 31
0.0
  0
LINE
  5
177D
  8
2
 10
49.0
 20
101.0
 30
0.0
 11
49.0
 21
100.0
 31
0.0
  0
LINE
  5
177E
  8
1
 10
50.0
 20
167.5
 30
0.0
 11
50.0
 21
97.0
 31
0.0
  0
LINE
  5
177F
  8
0
 10
59.814954576223641
 20
112.6476589832172
 30
0.0
 11
58.5
 21
113.0
 31
0.0
  0
LINE
  5
1780
  8
0
 10
58.5
 20
113.0
 30
0.0
 11
41.5
 21
113.0
 31
0.0
  0
LINE
  5
1781
  8
0
 10
41.5
 20
113.0
 30
0.0
 11
40.185045423776359
 21
112.6476589832172
 31
0.0
  0
LINE
  5
1782
  8
0
 10
45.0
 20
163.58000000000001
 30
0.0
 11
45.0
 21
113.0
 31
0.0
  0
LINE
  5
1783
  8
0
 10
55.0
 20
113.0
 30
0.0
 11
55.0
 21
163.58000000000001
 31
0.0
  0
LINE
  5
1784
  8
0
 10
55.0
 20
163.58000000000001
 30
0.0
 11
45.0
 21
163.58000000000001
 31
0.0
  0
LINE
  5
1785
  8
0
 10
54.079999999999977
 20
164.5
 30
0.0
 11
45.920000000000009
 21
164.5
 31
0.0
  0
LINE
  5
1786
  8
0
 10
45.920000000000009
 20
164.5
 30
0.0
 11
45.0
 21
163.58000000000001
 31
0.0
  0
LINE
  5
1787
  8
0
 10
55.0
 20
163.58000000000001
 30
0.0
 11
54.079999999999977
 21
164.5
 31
0.0
  0
POLYLINE
  5
1788
  8
0
 66
     1
 10
0.0
 20
0.0
 30
0.0
 70
     8
  0
VERTEX
  5
1789
  8
0
 10
40.185045423776359
 20
112.6476589832172
 30
0.0
 70
    32
  0
VERTEX
  5
178A
  8
0
 10
40.794523924911367
 20
112.7948025960975
 30
0.0
 70
    32
  0
VERTEX
  5
178B
  8
0
 10
41.40639841097007
 20
112.9061784591005
 30
0.0
 70
    32
  0
VERTEX
  5
178C
  8
0
 10
42.021731919459192
 20
112.97611988379001
 30
0.0
 70
    32
  0
VERTEX
  5
178D
  8
0
 10
42.638784067832262
 20
113.0
 30
0.0
 70
    32
  0
SEQEND
  5
178E
  8
0
  0
LINE
  5
178F
  8
0
 10
40.185045423776359
 20
112.6476589832172
 30
0.0
 11
40.185045423776359
 21
107.8303387171258
 31
0.0
  0
LINE
  5
1790
  8
0
 10
45.092522711888193
 20
112.6476589832172
 30
0.0
 11
45.092522711888193
 21
107.8303387171258
 31
0.0
  0
LINE
  5
1791
  8
0
 10
59.814954576223641
 20
112.6476589832172
 30
0.0
 11
59.814954576223641
 21
107.8303387171258
 31
0.0
  0
POLYLINE
  5
1792
  8
0
 66
     1
 10
0.0
 20
0.0
 30
0.0
 70
     8
  0
VERTEX
  5
1793
  8
0
 10
57.361215932167738
 20
113.0
 30
0.0
 70
    32
  0
VERTEX
  5
1794
  8
0
 10
57.9746505931817
 20
112.9763976272732
 30
0.0
 70
    32
  0
VERTEX
  5
1795
  8
0
 10
58.588085254195683
 20
112.9070000609243
 30
0.0
 70
    32
  0
VERTEX
  5
1796
  8
0
 10
59.202195165274809
 20
112.7955019876165
 30
0.0
 70
    32
  0
VERTEX
  5
1797
  8
0
 10
59.814954576223641
 20
112.6476589832172
 30
0.0
 70
    32
  0
SEQEND
  5
1798
  8
0
  0
LINE
  5
1799
  8
0
 10
54.907477288111807
 20
112.6476589832172
 30
0.0
 11
54.907477288111807
 21
107.8303387171258
 31
0.0
  0
POLYLINE
  5
179A
  8
0
 66
     1
 10
0.0
 20
0.0
 30
0.0
 70
     8
  0
VERTEX
  5
179B
  8
0
 10
42.638784067832262
 20
113.0
 30
0.0
 70
    32
  0
VERTEX
  5
179C
  8
0
 10
43.252218728846252
 20
112.9763976272732
 30
0.0
 70
    32
  0
VERTEX
  5
179D
  8
0
 10
43.865653389860228
 20
112.9070000609243
 30
0.0
 70
    32
  0
VERTEX
  5
179E
  8
0
 10
44.479763300939361
 20
112.7955019876165
 30
0.0
 70
    32
  0
VERTEX
  5
179F
  8
0
 10
45.092522711888193
 20
112.6476589832172
 30
0.0
 70
    32
  0
SEQEND
  5
17A0
  8
0
  0
POLYLINE
  5
17A1
  8
0
 66
     1
 10
0.0
 20
0.0
 30
0.0
 70
     8
  0
VERTEX
  5
17A2
  8
0
 10
45.092522711888193
 20
112.6476589832172
 30
0.0
 70
    32
  0
VERTEX
  5
17A3
  8
0
 10
46.311479714158217
 20
112.7948025960975
 30
0.0
 70
    32
  0
VERTEX
  5
17A4
  8
0
 10
47.535228686275623
 20
112.9061784591005
 30
0.0
 70
    32
  0
VERTEX
  5
17A5
  8
0
 10
48.765895703253847
 20
112.97611988379001
 30
0.0
 70
    32
  0
VERTEX
  5
17A6
  8
0
 10
50.0
 20
113.0
 30
0.0
 70
    32
  0
SEQEND
  5
17A7
  8
0
  0
POLYLINE
  5
17A8
  8
0
 66
     1
 10
0.0
 20
0.0
 30
0.0
 70
     8
  0
VERTEX
  5
17A9
  8
0
 10
50.0
 20
113.0
 30
0.0
 70
    32
  0
VERTEX
  5
17AA
  8
0
 10
51.841535878002617
 20
112.9471609345281
 30
0.0
 70
    32
  0
VERTEX
  5
17AB
  8
0
 10
53.683071756005241
 20
112.7953834014737
 30
0.0
 70
    32
  0
VERTEX
  5
17AC
  8
0
 10
54.907477288111807
 20
112.6476589832172
 30
0.0
 70
    32
  0
SEQEND
  5
17AD
  8
0
  0
POLYLINE
  5
17AE
  8
0
 66
     1
 10
0.0
 20
0.0
 30
0.0
 70
     8
  0
VERTEX
  5
17AF
  8
0
 10
54.907477288111807
 20
112.6476589832172
 30
0.0
 70
    32
  0
VERTEX
  5
17B0
  8
0
 10
55.516955789246822
 20
112.7948025960975
 30
0.0
 70
    32
  0
VERTEX
  5
17B1
  8
0
 10
56.128830275305518
 20
112.9061784591005
 30
0.0
 70
    32
  0
VERTEX
  5
17B2
  8
0
 10
56.744163783794647
 20
112.97611988379001
 30
0.0
 70
    32
  0
VERTEX
  5
17B3
  8
0
 10
57.361215932167738
 20
113.0
 30
0.0
 70
    32
  0
SEQEND
  5
17B4
  8
0
  0
POLYLINE
  5
17B5
  8
0
 66
     1
 10
0.0
 20
0.0
 30
0.0
 70
     8
  0
VERTEX
  5
17B6
  8
0
 10
59.814954576223641
 20
107.8303387171258
 30
0.0
 70
    32
  0
VERTEX
  5
17B7
  8
0
 10
59.17821268247647
 20
108.1598429428654
 30
0.0
 70
    32
  0
VERTEX
  5
17B8
  8
0
 10
58.52964890858501
 20
108.4074427804012
 30
0.0
 70
    32
  0
VERTEX
  5
17B9
  8
0
 10
58.19695333959185
 20
108.4955176840671
 30
0.0
 70
    32
  0
VERTEX
  5
17BA
  8
0
 10
57.86270946814858
 20
108.5554812239635
 30
0.0
 70
    32
  0
VERTEX
  5
17BB
  8
0
 10
57.524889060531621
 20
108.585850213827
 30
0.0
 70
    32
  0
VERTEX
  5
17BC
  8
0
 10
57.186730483008397
 20
108.5853939480254
 30
0.0
 70
    32
  0
VERTEX
  5
17BD
  8
0
 10
56.615520678582662
 20
108.5145613501588
 30
0.0
 70
    32
  0
VERTEX
  5
17BE
  8
0
 10
56.045306206804867
 20
108.359675544884
 30
0.0
 70
    32
  0
VERTEX
  5
17BF
  8
0
 10
55.473636158975978
 20
108.12728069809241
 30
0.0
 70
    32
  0
VERTEX
  5
17C0
  8
0
 10
54.907477288111807
 20
107.8303387171258
 30
0.0
 70
    32
  0
SEQEND
  5
17C1
  8
0
  0
POLYLINE
  5
17C2
  8
0
 66
     1
 10
0.0
 20
0.0
 30
0.0
 70
     8
  0
VERTEX
  5
17C3
  8
0
 10
54.907477288111807
 20
107.8303387171258
 30
0.0
 70
    32
  0
VERTEX
  5
17C4
  8
0
 10
53.514547010648329
 20
108.1865741178764
 30
0.0
 70
    32
  0
VERTEX
  5
17C5
  8
0
 10
52.299243708175879
 20
108.4129431326826
 30
0.0
 70
    32
  0
VERTEX
  5
17C6
  8
0
 10
51.071041190335023
 20
108.5507229672904
 30
0.0
 70
    32
  0
VERTEX
  5
17C7
  8
0
 10
49.804793935683279
 20
108.5877479821855
 30
0.0
 70
    32
  0
VERTEX
  5
17C8
  8
0
 10
48.539906141820722
 20
108.51765221044781
 30
0.0
 70
    32
  0
VERTEX
  5
17C9
  8
0
 10
47.670767281452207
 20
108.4085563480396
 30
0.0
 70
    32
  0
VERTEX
  5
17CA
  8
0
 10
46.808300160233209
 20
108.2549654543004
 30
0.0
 70
    32
  0
VERTEX
  5
17CB
  8
0
 10
45.946158109885282
 20
108.0599850023147
 30
0.0
 70
    32
  0
VERTEX
  5
17CC
  8
0
 10
45.092522711888193
 20
107.8303387171258
 30
0.0
 70
    32
  0
SEQEND
  5
17CD
  8
0
  0
POLYLINE
  5
17CE
  8
0
 66
     1
 10
0.0
 20
0.0
 30
0.0
 70
     8
  0
VERTEX
  5
17CF
  8
0
 10
45.092522711888193
 20
107.8303387171258
 30
0.0
 70
    32
  0
VERTEX
  5
17D0
  8
0
 10
44.455780818141022
 20
108.1598429428654
 30
0.0
 70
    32
  0
VERTEX
  5
17D1
  8
0
 10
43.807217044249562
 20
108.4074427804012
 30
0.0
 70
    32
  0
VERTEX
  5
17D2
  8
0
 10
43.474521475256381
 20
108.4955176840671
 30
0.0
 70
    32
  0
VERTEX
  5
17D3
  8
0
 10
43.140277603813097
 20
108.5554812239635
 30
0.0
 70
    32
  0
VERTEX
  5
17D4
  8
0
 10
42.802457196196173
 20
108.585850213827
 30
0.0
 70
    32
  0
VERTEX
  5
17D5
  8
0
 10
42.464298618672949
 20
108.5853939480254
 30
0.0
 70
    32
  0
VERTEX
  5
17D6
  8
0
 10
41.893088814247221
 20
108.5145613501588
 30
0.0
 70
    32
  0
VERTEX
  5
17D7
  8
0
 10
41.322874342469419
 20
108.359675544884
 30
0.0
 70
    32
  0
VERTEX
  5
17D8
  8
0
 10
40.751204294640523
 20
108.12728069809241
 30
0.0
 70
    32
  0
VERTEX
  5
17D9
  8
0
 10
40.185045423776359
 20
107.8303387171258
 30
0.0
 70
    32
  0
SEQEND
  5
17DA
  8
0
  0
LINE
  5
17DB
  8
0
 10
40.185045423776359
 20
107.8303387171258
 30
0.0
 11
30.25
 21
102.0943375672974
 31
0.0
  0
LINE
  5
17DC
  8
0
 10
69.75
 20
102.0943375672974
 30
0.0
 11
59.814954576223641
 21
107.8303387171258
 31
0.0
  0
LINE
  5
17DD
  8
0
 10
70.0
 20
100.0
 30
0.0
 11
30.0
 21
100.0
 31
0.0
  0
LINE
  5
17DE
  8
0
 10
30.0
 20
101.66132486540521
 30
0.0
 11
30.0
 21
100.0
 31
0.0
  0
LINE
  5
17DF
  8
0
 10
70.0
 20
100.0
 30
0.0
 11
70.0
 21
101.66132486540521
 31
0.0
  0
LINE
  5
17E0
  8
0
 10
69.75
 20
102.0943375672974
 30
0.0
 11
30.25
 21
102.0943375672974
 31
0.0
  0
LINE
  5
17E1
  8
0
 10
70.0
 20
101.66132486540521
 30
0.0
 11
30.0
 21
101.66132486540521
 31
0.0
  0
ARC
  5
17E2
  8
0
 10
30.5
 20
101.66132486540521
 30
0.0
 40
0.5000000000000029
 50
120.000000000002
 51
180.0
  0
ARC
  5
17E3
  8
0
 10
69.5
 20
101.66132486540521
 30
0.0
 40
0.5000000000000036
 50
0.0
 51
59.999999999997961
  0
LINE
  5
17E4
  8
3
 10
54.079999999999977
 20
164.5
 30
0.0
 11
54.079999999999977
 21
113.0
 31
0.0
  0
LINE
  5
17E7
  8
3
 10
45.920000000000009
 20
164.5
 30
0.0
 11
45.920000000000009
 21
113.0
 31
0.0
  0
LINE
  5
1840
  8
0
 10
51.000000000000028
 20
56.666666666666629
 30
0.0
 11
49.000000000000028
 21
56.666666666666629
 31
0.0
  0
LINE
  5
1841
  8
0
 10
49.000000000000028
 20
56.666666666666629
 30
0.0
 11
49.000000000000028
 21
51.0
 31
0.0
  0
LINE
  5
1842
  8
0
 10
51.000000000000028
 20
51.0
 30
0.0
 11
51.000000000000028
 21
56.666666666666629
 31
0.0
  0
LINE
  5
1843
  8
0
 10
56.6666666666667
 20
51.0
 30
0.0
 11
51.000000000000028
 21
51.0
 31
0.0
  0
LINE
  5
1844
  8
0
 10
56.6666666666667
 20
49.0
 30
0.0
 11
56.6666666666667
 21
51.0
 31
0.0
  0
LINE
  5
1845
  8
0
 10
51.000000000000028
 20
49.0
 30
0.0
 11
56.6666666666667
 21
49.0
 31
0.0
  0
LINE
  5
1846
  8
0
 10
43.33333333333335
 20
51.0
 30
0.0
 11
43.33333333333335
 21
49.0
 31
0.0
  0
LINE
  5
1847
  8
0
 10
49.000000000000028
 20
51.0
 30
0.0
 11
43.33333333333335
 21
51.0
 31
0.0
  0
LINE
  5
1848
  8
0
 10
43.33333333333335
 20
49.0
 30
0.0
 11
49.000000000000028
 21
49.0
 31
0.0
  0
LINE
  5
1849
  8
0
 10
49.000000000000028
 20
49.0
 30
0.0
 11
49.000000000000028
 21
43.333333333333307
 31
0.0
  0
LINE
  5
184A
  8
0
 10
51.000000000000028
 20
43.333333333333307
 30
0.0
 11
51.000000000000028
 21
49.0
 31
0.0
  0
LINE
  5
184B
  8
0
 10
49.000000000000028
 20
43.333333333333307
 30
0.0
 11
51.000000000000028
 21
43.333333333333307
 31
0.0
  0
LINE
  5
184C
  8
1
 10
26.999999999999989
 20
50.0
 30
0.0
 11
73.000000000000014
 21
50.0
 31
0.0
  0
LINE
  5
184D
  8
1
 10
50.0
 20
27.0
 30
0.0
 11
50.0
 21
73.0
 31
0.0
  0
CIRCLE
  5
1855
  8
0
 10
50.0
 20
50.0
 30
0.0
 40
20.000000000000021
  0
ENDSEC
  0
EOF
