  0
SECTION
  2
HEADER
  9
$ACADVER
  1
AC1009
  9
$INSBASE
 10
0.0
 20
0.0
 30
0.0
  9
$EXTMIN
 10
0.0
 20
-2.960436562073669
 30
0.0
  9
$EXTMAX
 10
115.0
 20
212.5
 30
0.0
  9
$LIMMIN
 10
0.0
 20
0.0
  9
$LIMMAX
 10
375.0
 20
270.0
  9
$ORTHOMODE
 70
     1
  9
$REGENMODE
 70
     1
  9
$FILLMODE
 70
     1
  9
$QTEXTMODE
 70
     0
  9
$MIRRTEXT
 70
     0
  9
$DRAGMODE
 70
     2
  9
$LTSCALE
 40
5.0
  9
$OSMODE
 70
    37
  9
$ATTMODE
 70
     1
  9
$TEXTSIZE
 40
0.2
  9
$TRACEWID
 40
0.05
  9
$TEXTSTYLE
  7
STANDARD
  9
$CLAYER
  8
0
  9
$CELTYPE
  6
BYLAYER
  9
$CECOLOR
 62
   256
  9
$DIMSCALE
 40
1.0
  9
$DIMASZ
 40
3.0
  9
$DIMEXO
 40
1.0
  9
$DIMDLI
 40
6.0
  9
$DIMRND
 40
0.0
  9
$DIMDLE
 40
0.0
  9
$DIMEXE
 40
1.0
  9
$DIMTP
 40
495.0
  9
$DIMTM
 40
0.0
  9
$DIMTXT
 40
3.0
  9
$DIMCEN
 40
0.0
  9
$DIMTSZ
 40
0.0
  9
$DIMTOL
 70
     0
  9
$DIMLIM
 70
     0
  9
$DIMTIH
 70
     0
  9
$DIMTOH
 70
     0
  9
$DIMSE1
 70
     0
  9
$DIMSE2
 70
     0
  9
$DIMTAD
 70
     1
  9
$DIMZIN
 70
     0
  9
$DIMBLK
  1

  9
$DIMASO
 70
     0
  9
$DIMSHO
 70
     0
  9
$DIMPOST
  1

  9
$DIMAPOST
  1

  9
$DIMALT
 70
     0
  9
$DIMALTD
 70
     2
  9
$DIMALTF
 40
25.399999999999999
  9
$DIMLFAC
 40
1.0
  9
$DIMTOFL
 70
     1
  9
$DIMTVP
 40
0.0
  9
$DIMTIX
 70
     1
  9
$DIMSOXD
 70
     0
  9
$DIMSAH
 70
     0
  9
$DIMBLK1
  1

  9
$DIMBLK2
  1

  9
$DIMSTYLE
  2
STANDARD
  9
$DIMCLRD
 70
     0
  9
$DIMCLRE
 70
     0
  9
$DIMCLRT
 70
     4
  9
$DIMTFAC
 40
1.0
  9
$DIMGAP
 40
1.0
  9
$LUNITS
 70
     2
  9
$LUPREC
 70
     1
  9
$SKETCHINC
 40
0.1
  9
$FILLETRAD
 40
2.0
  9
$AUNITS
 70
     0
  9
$AUPREC
 70
     1
  9
$MENU
  1
C:\R13\WIN\SUPPORT\ACAD-I
  9
$ELEVATION
 40
0.0
  9
$PELEVATION
 40
0.0
  9
$THICKNESS
 40
0.0
  9
$LIMCHECK
 70
     0
  9
$BLIPMODE
 70
     0
  9
$CHAMFERA
 40
0.0
  9
$CHAMFERB
 40
0.0
  9
$SKPOLY
 70
     0
  9
$TDCREATE
 40
2450834.7095229169
  9
$TDUPDATE
 40
2457164.3870531828
  9
$TDINDWG
 40
0.104892963
  9
$TDUSRTIMER
 40
2456694.2569584488
  9
$USRTIMER
 70
     1
  9
$ANGBASE
 50
0.0
  9
$ANGDIR
 70
     0
  9
$PDMODE
 70
     0
  9
$PDSIZE
 40
0.0
  9
$PLINEWID
 40
0.0
  9
$COORDS
 70
     1
  9
$SPLFRAME
 70
     0
  9
$SPLINETYPE
 70
     6
  9
$SPLINESEGS
 70
     8
  9
$ATTDIA
 70
     0
  9
$ATTREQ
 70
     1
  9
$HANDLING
 70
     1
  9
$HANDSEED
  5
153F
  9
$SURFTAB1
 70
     6
  9
$SURFTAB2
 70
     6
  9
$SURFTYPE
 70
     6
  9
$SURFU
 70
     6
  9
$SURFV
 70
     6
  9
$UCSNAME
  2

  9
$UCSORG
 10
0.0
 20
0.0
 30
0.0
  9
$UCSXDIR
 10
1.0
 20
0.0
 30
0.0
  9
$UCSYDIR
 10
0.0
 20
1.0
 30
0.0
  9
$PUCSNAME
  2

  9
$PUCSORG
 10
0.0
 20
0.0
 30
0.0
  9
$PUCSXDIR
 10
1.0
 20
0.0
 30
0.0
  9
$PUCSYDIR
 10
0.0
 20
1.0
 30
0.0
  9
$USERI1
 70
     4
  9
$USERI2
 70
     1
  9
$USERI3
 70
     0
  9
$USERI4
 70
     0
  9
$USERI5
 70
     0
  9
$USERR1
 40
1.0
  9
$USERR2
 40
3.0
  9
$USERR3
 40
3.0
  9
$USERR4
 40
3.0
  9
$USERR5
 40
10.0
  9
$WORLDVIEW
 70
     1
  9
$SHADEDGE
 70
     3
  9
$SHADEDIF
 70
    70
  9
$TILEMODE
 70
     1
  9
$MAXACTVP
 70
    16
  9
$PLIMCHECK
 70
     0
  9
$PEXTMIN
 10
1.0000000000000000E+020
 20
1.0000000000000000E+020
 30
1.0000000000000000E+020
  9
$PEXTMAX
 10
-1.0000000000000000E+020
 20
-1.0000000000000000E+020
 30
-1.0000000000000000E+020
  9
$PLIMMIN
 10
0.0
 20
0.0
  9
$PLIMMAX
 10
0.0
 20
0.0
  9
$UNITMODE
 70
     0
  9
$VISRETAIN
 70
     0
  9
$PLINEGEN
 70
     0
  9
$PSLTSCALE
 70
     0
  0
ENDSEC
  0
SECTION
  2
TABLES
  0
TABLE
  2
VPORT
 70
     1
  0
VPORT
  2
*ACTIVE
 70
     0
 10
0.0
 20
0.0
 11
1.0
 21
1.0
 12
227.02991452991449
 22
125.0
 13
0.0
 23
0.0
 14
10.0
 24
10.0
 15
10.0
 25
10.0
 16
0.0
 26
0.0
 36
1.0
 17
0.0
 27
0.0
 37
0.0
 40
250.0
 41
1.816239316239316
 42
50.0
 43
0.0
 44
0.0
 50
0.0
 51
0.0
 71
    16
 72
   100
 73
     1
 74
     0
 75
     0
 76
     0
 77
     0
 78
     0
  0
ENDTAB
  0
TABLE
  2
LTYPE
 70
     4
  0
LTYPE
  2
CONTINUOUS
 70
     0
  3
Solid Line
 72
    65
 73
     0
 40
0.0
  0
LTYPE
  2
PHANTOM2
 70
     0
  3
___ _ _ ___ _ _ ___ _ _ ___ _ _
 72
    65
 73
     6
 40
1.25
 49
0.625
 49
-0.125
 49
0.125
 49
-0.125
 49
0.125
 49
-0.125
  0
LTYPE
  2
CENTER
 70
     0
  3
____ _ ____ _ ____ _ ____ _ ____ _ ____ _ ____
 72
    65
 73
     4
 40
2.0
 49
1.25
 49
-0.25
 49
0.25
 49
-0.25
  0
LTYPE
  2
HIDDEN
 70
     0
  3
_ _ _ _ _ _ _ _ _ _ _ _ _ _ _ _ _ _ _ _ _ _ _
 72
    65
 73
     2
 40
0.375
 49
0.25
 49
-0.125
  0
ENDTAB
  0
TABLE
  2
LAYER
 70
     4
  0
LAYER
  2
0
 70
     0
 62
     7
  6
CONTINUOUS
  0
LAYER
  2
1
 70
     0
 62
     1
  6
CENTER
  0
LAYER
  2
3
 70
     0
 62
     3
  6
CONTINUOUS
  0
LAYER
  2
2
 70
     0
 62
     2
  6
HIDDEN
  0
ENDTAB
  0
TABLE
  2
STYLE
 70
     2
  0
STYLE
  2
STANDARD
 70
     0
 40
0.0
 41
1.0
 50
0.0
 71
     0
 42
0.2
  3
SIMPLEX
  4
BIGFONT
  0
STYLE
  2
STANDARD1
 70
     0
 40
0.0
 41
1.0
 50
0.0
 71
     0
 42
3.0
  3
txt
  4

  0
ENDTAB
  0
TABLE
  2
VIEW
 70
     0
  0
ENDTAB
  0
TABLE
  2
UCS
 70
     0
  0
ENDTAB
  0
TABLE
  2
APPID
 70
    34
  0
APPID
  2
ACAD
 70
     0
  0
APPID
  2
ACADANNOTATIVE
 70
     0
  0
APPID
  2
GENIUS_GENOREF_13
 70
     0
  0
APPID
  2
GENIUS_GENOENT_13
 70
     0
  0
APPID
  2
GENIUS_GENBH_13
 70
     0
  0
APPID
  2
GENIUS_GENOBJ_13
 70
     0
  0
APPID
  2
GENIUS_GENODEF_13
 70
     0
  0
APPID
  2
GENIUS_GENOLIS_13
 70
     0
  0
APPID
  2
GENIUS_GENOBJ-NBEHI-BHF_13
 70
     0
  0
APPID
  2
GENIUS_GENOBJ-NBEHI-BHB_13
 70
     0
  0
APPID
  2
GENIUS_GENOBJ-F-PART_13
 70
     0
  0
APPID
  2
GENIUS_GEFSTDP_13
 70
     0
  0
APPID
  2
GENIUS_GENOBJ-N-RSSYM_13
 70
     0
  0
APPID
  2
GENIUS_GENSYMENT_13
 70
     0
  0
APPID
  2
GENIUS_GENOBJ-N-TIT_13
 70
     0
  0
APPID
  2
GENIUS_GENTITLE_13
 70
     0
  0
APPID
  2
GENIUS_GENZVEED_13
 70
     0
  0
APPID
  2
GENIUS_GENOBJ-N-LEADER_13
 70
     0
  0
APPID
  2
GENIUS_GENOBJ-N-FIL_13
 70
     0
  0
APPID
  2
GENIUS_GENOBJ-N-SEC_13
 70
     0
  0
APPID
  2
GENIUS_GENOBJ-N-CRS_13
 70
     0
  0
APPID
  2
GENIUS_GENOBJ-N-ZOO_13
 70
     0
  0
APPID
  2
GENIUS_GENZOO_13
 70
     0
  0
APPID
  2
GENIUS_GENOBJ-F-TOL_13
 70
     0
  0
APPID
  2
GENIUS_GENFIL_13
 70
     0
  0
APPID
  2
GENIUS_GENOBJ-N-CHA_13
 70
     0
  0
APPID
  2
ACAD_MLEADERVER
 70
     0
  0
APPID
  2
ACAD_EXEMPT_FROM_CAD_STAND
 70
     0
  0
APPID
  2
ACAD_NAV_VCDISPLAY
 70
     0
  0
APPID
  2
ACAD_EXEMPT_FROM_CAD_STANDARDS
 70
     0
  0
APPID
  2
ACAD_DSTYLE_DIMJAG
 70
     0
  0
APPID
  2
ACAD_DSTYLE_DIMTALN
 70
     0
  0
APPID
  2
ACAECLAYERSTANDARD
 70
     0
  0
APPID
  2
ACCMTRANSPARENCY
 70
     0
  0
ENDTAB
  0
TABLE
  2
DIMSTYLE
 70
     1
  0
DIMSTYLE
  2
STANDARD
 70
     0
  3

  4

  5

  6

  7

 40
1.0
 41
0.18
 42
0.0625
 43
0.38
 44
0.18
 45
0.0
 46
0.0
 47
0.0
 48
0.0
140
0.18
141
0.09
142
0.0
143
25.399999999999999
144
1.0
145
0.0
146
1.0
147
0.09
 71
     0
 72
     0
 73
     1
 74
     1
 75
     0
 76
     0
 77
     0
 78
     0
170
     0
171
     2
172
     0
173
     0
174
     0
175
     0
176
     0
177
     0
178
     0
  0
ENDTAB
  0
ENDSEC
  0
SECTION
  2
BLOCKS
  0
BLOCK
  8
0
  2
$MODEL_SPACE
 70
     0
 10
0.0
 20
0.0
 30
0.0
  3
$MODEL_SPACE
  1

  0
ENDBLK
  5
E10
  8
0
  0
BLOCK
 67
     1
  8
0
  2
$PAPER_SPACE
 70
     0
 10
0.0
 20
0.0
 30
0.0
  3
$PAPER_SPACE
  1

  0
ENDBLK
  5
E0C
 67
     1
  8
0
  0
ENDSEC
  0
SECTION
  2
ENTITIES
  0
TEXT
  5
E90
  8
0
 62
     3
 10
0.0
 20
0.0
 30
0.0
 40
10.0
  1
ELPS25-M6X56
  7
STANDARD1
  0
LINE
  5
EFA
  8
1
 10
102.5
 20
160.0
 30
0.0
 11
102.5
 21
87.0
 31
0.0
  0
LINE
  5
EFB
  8
0
 10
105.5
 20
156.38650000000001
 30
0.0
 11
105.5
 21
101.0
 31
0.0
  0
LINE
  5
EFC
  8
0
 10
99.499999999999986
 20
101.0
 30
0.0
 11
99.499999999999986
 21
156.38650000000001
 31
0.0
  0
LINE
  5
EFD
  8
0
 10
104.8865
 20
157.0
 30
0.0
 11
105.5
 21
156.38650000000001
 31
0.0
  0
LINE
  5
EFE
  8
0
 10
99.499999999999986
 20
156.38650000000001
 30
0.0
 11
100.1134999999999
 21
157.0
 31
0.0
  0
LINE
  5
EFF
  8
0
 10
99.499999999999986
 20
156.38650000000001
 30
0.0
 11
105.5
 21
156.38650000000001
 31
0.0
  0
LINE
  5
F00
  8
0
 10
100.1134999999999
 20
157.0
 30
0.0
 11
104.8865
 21
157.0
 31
0.0
  0
LINE
  5
F01
  8
0
 10
95.999999999999986
 20
94.533545031536988
 30
0.0
 11
95.999999999999986
 21
101.0
 31
0.0
  0
LINE
  5
F02
  8
0
 10
95.999999999999986
 20
101.0
 30
0.0
 11
109.0
 21
101.0
 31
0.0
  0
LINE
  5
F03
  8
0
 10
109.0
 20
101.0
 30
0.0
 11
109.0
 21
94.533545031536988
 31
0.0
  0
POLYLINE
  5
F04
  8
0
 66
     1
 10
0.0
 20
0.0
 30
0.0
  0
VERTEX
  5
1491
  8
0
 10
99.249999999999986
 20
101.0
 30
0.0
  0
VERTEX
  5
1492
  8
0
 10
98.436940999388625
 20
100.9818363933377
 30
0.0
  0
VERTEX
  5
1493
  8
0
 10
97.624999999999986
 20
100.92888239953039
 30
0.0
  0
VERTEX
  5
1494
  8
0
 10
96.811252906120544
 20
100.84356179284541
 30
0.0
  0
VERTEX
  5
1495
  8
0
 10
95.999999999999986
 20
100.730562751872
 30
0.0
  0
SEQEND
  5
1496
  8
0
  0
LINE
  5
F05
  8
0
 10
102.5
 20
100.730562751872
 30
0.0
 11
102.5
 21
94.533545031536988
 31
0.0
  0
POLYLINE
  5
F06
  8
0
 66
     1
 10
0.0
 20
0.0
 30
0.0
  0
VERTEX
  5
1497
  8
0
 10
109.0
 20
100.730562751872
 30
0.0
  0
VERTEX
  5
1498
  8
0
 10
108.1923900940545
 20
100.84311384379259
 30
0.0
  0
VERTEX
  5
1499
  8
0
 10
107.3823064375681
 20
100.92825411578271
 30
0.0
  0
VERTEX
  5
149A
  8
0
 10
106.5667193851898
 20
100.9816726572941
 30
0.0
  0
VERTEX
  5
149B
  8
0
 10
105.75
 20
101.0
 30
0.0
  0
SEQEND
  5
149C
  8
0
  0
POLYLINE
  5
F07
  8
0
 66
     1
 10
0.0
 20
0.0
 30
0.0
  0
VERTEX
  5
149D
  8
0
 10
105.75
 20
101.0
 30
0.0
  0
VERTEX
  5
149E
  8
0
 10
104.9369409993886
 20
100.9818363933377
 30
0.0
  0
VERTEX
  5
149F
  8
0
 10
104.125
 20
100.92888239953039
 30
0.0
  0
VERTEX
  5
14A0
  8
0
 10
103.3112529061205
 20
100.84356179284541
 30
0.0
  0
VERTEX
  5
14A1
  8
0
 10
102.5
 20
100.730562751872
 30
0.0
  0
SEQEND
  5
14A2
  8
0
  0
POLYLINE
  5
F08
  8
0
 66
     1
 10
0.0
 20
0.0
 30
0.0
  0
VERTEX
  5
14A3
  8
0
 10
102.5
 20
100.730562751872
 30
0.0
  0
VERTEX
  5
14A4
  8
0
 10
101.6923900940545
 20
100.84311384379259
 30
0.0
  0
VERTEX
  5
14A5
  8
0
 10
100.8823064375681
 20
100.92825411578271
 30
0.0
  0
VERTEX
  5
14A6
  8
0
 10
100.0667193851898
 20
100.9816726572941
 30
0.0
  0
VERTEX
  5
14A7
  8
0
 10
99.249999999999986
 20
101.0
 30
0.0
  0
SEQEND
  5
14A8
  8
0
  0
POLYLINE
  5
F09
  8
0
 66
     1
 10
0.0
 20
0.0
 30
0.0
  0
VERTEX
  5
14A9
  8
0
 10
95.999999999999986
 20
94.533545031536988
 30
0.0
  0
VERTEX
  5
14AA
  8
0
 10
96.845145327709105
 20
94.785947250746176
 30
0.0
  0
VERTEX
  5
14AB
  8
0
 10
97.702382064003501
 20
94.974856823544854
 30
0.0
  0
VERTEX
  5
14AC
  8
0
 10
98.29256449184399
 20
95.059881871701606
 30
0.0
  0
VERTEX
  5
14AD
  8
0
 10
98.886439901730384
 20
95.105946194158989
 30
0.0
  0
VERTEX
  5
14AE
  8
0
 10
99.481070979350704
 20
95.11094121017787
 30
0.0
  0
VERTEX
  5
14AF
  8
0
 10
100.23965002818829
 20
95.056358016585676
 30
0.0
  0
VERTEX
  5
14B0
  8
0
 10
100.9929162203219
 20
94.938335691841928
 30
0.0
  0
VERTEX
  5
14B1
  8
0
 10
101.7512862115275
 20
94.760289336397875
 30
0.0
  0
VERTEX
  5
14B2
  8
0
 10
102.5
 20
94.533545031536988
 30
0.0
  0
SEQEND
  5
14B3
  8
0
  0
POLYLINE
  5
F0A
  8
0
 66
     1
 10
0.0
 20
0.0
 30
0.0
  0
VERTEX
  5
14B4
  8
0
 10
102.5
 20
94.533545031536988
 30
0.0
  0
VERTEX
  5
14B5
  8
0
 10
103.3451453277091
 20
94.785947250746176
 30
0.0
  0
VERTEX
  5
14B6
  8
0
 10
104.2023820640035
 20
94.974856823544854
 30
0.0
  0
VERTEX
  5
14B7
  8
0
 10
104.7925644918439
 20
95.059881871701606
 30
0.0
  0
VERTEX
  5
14B8
  8
0
 10
105.3864399017303
 20
95.105946194158989
 30
0.0
  0
VERTEX
  5
14B9
  8
0
 10
105.9810709793507
 20
95.110941210177884
 30
0.0
  0
VERTEX
  5
14BA
  8
0
 10
106.73965002818829
 20
95.056358016585676
 30
0.0
  0
VERTEX
  5
14BB
  8
0
 10
107.4929162203219
 20
94.938335691841928
 30
0.0
  0
VERTEX
  5
14BC
  8
0
 10
108.2512862115275
 20
94.760289336397875
 30
0.0
  0
VERTEX
  5
14BD
  8
0
 10
109.0
 20
94.533545031536988
 30
0.0
  0
SEQEND
  5
14BE
  8
0
  0
LINE
  5
F0B
  8
0
 10
109.0
 20
95.114101615137756
 30
0.0
 11
114.84375
 21
91.740210979560871
 31
0.0
  0
LINE
  5
F0C
  8
0
 10
90.156249999999986
 20
91.740210979560871
 30
0.0
 11
95.999999999999986
 21
95.114101615137756
 31
0.0
  0
LINE
  5
F0D
  8
0
 10
115.0
 20
91.469578040878247
 30
0.0
 11
115.0
 21
90.0
 31
0.0
  0
LINE
  5
F0E
  8
0
 10
89.999999999999986
 20
90.0
 30
0.0
 11
89.999999999999986
 21
91.469578040878247
 31
0.0
  0
LINE
  5
F0F
  8
0
 10
89.999999999999986
 20
90.0
 30
0.0
 11
115.0
 21
90.0
 31
0.0
  0
ARC
  5
F10
  8
0
 10
114.6875
 20
91.469578040878247
 30
0.0
 40
0.3125000000000071
 50
0.0
 51
60.000000000000838
  0
ARC
  5
F11
  8
0
 10
90.312499999999986
 20
91.469578040878247
 30
0.0
 40
0.3125000000000071
 50
119.9999999999991
 51
180.0
  0
LINE
  5
F12
  8
0
 10
90.156249999999986
 20
91.740210979560871
 30
0.0
 11
114.84375
 21
91.740210979560871
 31
0.0
  0
LINE
  5
F13
  8
0
 10
89.999999999999986
 20
91.469578040878247
 30
0.0
 11
115.0
 21
91.469578040878247
 31
0.0
  0
LINE
  5
F50
  8
1
 10
34.5
 20
197.0
 30
0.0
 11
65.5
 21
197.0
 31
0.0
  0
LINE
  5
F51
  8
1
 10
50.0
 20
181.5
 30
0.0
 11
50.0
 21
212.5
 31
0.0
  0
LINE
  5
F53
  8
0
 10
53.752776749732561
 20
203.50000000000011
 30
0.0
 11
46.247223250267432
 21
203.50000000000011
 31
0.0
  0
LINE
  5
F54
  8
0
 10
57.505553499465123
 20
197.0
 30
0.0
 11
53.752776749732561
 21
203.50000000000011
 31
0.0
  0
LINE
  5
F55
  8
0
 10
46.247223250267432
 20
203.50000000000011
 30
0.0
 11
42.494446500534863
 21
197.0
 31
0.0
  0
LINE
  5
F56
  8
0
 10
42.494446500534863
 20
197.0
 30
0.0
 11
46.247223250267417
 21
190.5
 31
0.0
  0
LINE
  5
F57
  8
0
 10
46.247223250267417
 20
190.5
 30
0.0
 11
53.752776749732568
 21
190.5
 31
0.0
  0
LINE
  5
F59
  8
0
 10
53.752776749732568
 20
190.5
 30
0.0
 11
57.505553499465123
 21
197.0
 31
0.0
  0
CIRCLE
  5
F5A
  8
0
 10
50.0
 20
197.0
 30
0.0
 40
3.0
  0
CIRCLE
  5
F5C
  8
0
 10
50.0
 20
197.0
 30
0.0
 40
12.5
  0
CIRCLE
  5
F5D
  8
0
 10
49.999999999999993
 20
197.0
 30
0.0
 40
6.4999999999999858
  0
LINE
  5
FF2
  8
1
 10
49.999999999999993
 20
160.0
 30
0.0
 11
49.999999999999993
 21
87.0
 31
0.0
  0
LINE
  5
FF3
  8
0
 10
47.613499999999988
 20
157.0
 30
0.0
 11
52.386499999999977
 21
157.0
 31
0.0
  0
LINE
  5
FF4
  8
0
 10
52.386499999999977
 20
157.0
 30
0.0
 11
52.999999999999979
 21
156.38650000000001
 31
0.0
  0
LINE
  5
FF5
  8
0
 10
46.999999999999979
 20
156.38650000000001
 30
0.0
 11
47.613499999999988
 21
157.0
 31
0.0
  0
LINE
  5
FF6
  8
0
 10
46.999999999999979
 20
156.38650000000001
 30
0.0
 11
52.999999999999979
 21
156.38650000000001
 31
0.0
  0
LINE
  5
FF7
  8
0
 10
52.999999999999979
 20
156.38650000000001
 30
0.0
 11
52.999999999999979
 21
101.0
 31
0.0
  0
LINE
  5
FF8
  8
0
 10
46.999999999999979
 20
101.0
 30
0.0
 11
46.999999999999979
 21
156.38650000000001
 31
0.0
  0
LINE
  5
FF9
  8
0
 10
42.494446500534849
 20
100.730562751872
 30
0.0
 11
43.499999999999979
 21
101.0
 31
0.0
  0
LINE
  5
FFA
  8
0
 10
43.499999999999979
 20
101.0
 30
0.0
 11
56.499999999999979
 21
101.0
 31
0.0
  0
LINE
  5
FFB
  8
0
 10
56.499999999999979
 20
101.0
 30
0.0
 11
57.505553499465123
 21
100.730562751872
 31
0.0
  0
LINE
  5
FFC
  8
0
 10
42.494446500534849
 20
100.730562751872
 30
0.0
 11
42.494446500534849
 21
94.533545031536988
 31
0.0
  0
POLYLINE
  5
FFD
  8
0
 66
     1
 10
0.0
 20
0.0
 30
0.0
  0
VERTEX
  5
14BF
  8
0
 10
44.37083487540113
 20
101.0
 30
0.0
  0
VERTEX
  5
14C0
  8
0
 10
43.901737781684552
 20
100.98195112673829
 30
0.0
  0
VERTEX
  5
14C1
  8
0
 10
43.432640687967982
 20
100.92888239953039
 30
0.0
  0
VERTEX
  5
14C2
  8
0
 10
42.96302722655453
 20
100.8436191670008
 30
0.0
  0
VERTEX
  5
14C3
  8
0
 10
42.494446500534849
 20
100.730562751872
 30
0.0
  0
SEQEND
  5
14C4
  8
0
  0
POLYLINE
  5
FFE
  8
0
 66
     1
 10
0.0
 20
0.0
 30
0.0
  0
VERTEX
  5
14C5
  8
0
 10
46.247223250267403
 20
100.730562751872
 30
0.0
  0
VERTEX
  5
14C6
  8
0
 10
45.781151455281808
 20
100.8430843381922
 30
0.0
  0
VERTEX
  5
14C7
  8
0
 10
45.312773563436288
 20
100.9283248240057
 30
0.0
  0
VERTEX
  5
14C8
  8
0
 10
44.84269828298055
 20
100.9817387346629
 30
0.0
  0
VERTEX
  5
14C9
  8
0
 10
44.37083487540113
 20
101.0
 30
0.0
  0
SEQEND
  5
14CA
  8
0
  0
LINE
  5
FFF
  8
0
 10
46.247223250267403
 20
100.730562751872
 30
0.0
 11
46.247223250267403
 21
94.533545031536988
 31
0.0
  0
POLYLINE
  5
1000
  8
0
 66
     1
 10
0.0
 20
0.0
 30
0.0
  0
VERTEX
  5
14CB
  8
0
 10
49.999999999999993
 20
101.0
 30
0.0
  0
VERTEX
  5
14CC
  8
0
 10
49.29588334076368
 20
100.9898110399681
 30
0.0
  0
VERTEX
  5
14CD
  8
0
 10
48.591766681527389
 20
100.9595936558156
 30
0.0
  0
VERTEX
  5
14CE
  8
0
 10
47.183533363054792
 20
100.8435284834799
 30
0.0
  0
VERTEX
  5
14CF
  8
0
 10
46.247223250267403
 20
100.730562751872
 30
0.0
  0
SEQEND
  5
14D0
  8
0
  0
POLYLINE
  5
1001
  8
0
 66
     1
 10
0.0
 20
0.0
 30
0.0
  0
VERTEX
  5
14D1
  8
0
 10
53.75277674973254
 20
100.730562751872
 30
0.0
  0
VERTEX
  5
14D2
  8
0
 10
52.820633159761343
 20
100.8430843381922
 30
0.0
  0
VERTEX
  5
14D3
  8
0
 10
51.884825122259826
 20
100.92825411578271
 30
0.0
  0
VERTEX
  5
14D4
  8
0
 10
50.943726815158811
 20
100.9817387346629
 30
0.0
  0
VERTEX
  5
14D5
  8
0
 10
49.999999999999993
 20
101.0
 30
0.0
  0
SEQEND
  5
14D6
  8
0
  0
LINE
  5
1002
  8
0
 10
53.75277674973254
 20
100.730562751872
 30
0.0
 11
53.75277674973254
 21
94.533545031536988
 31
0.0
  0
POLYLINE
  5
1003
  8
0
 66
     1
 10
0.0
 20
0.0
 30
0.0
  0
VERTEX
  5
14D7
  8
0
 10
55.629165124598842
 20
101.0
 30
0.0
  0
VERTEX
  5
14D8
  8
0
 10
55.160068030882272
 20
100.98195112673829
 30
0.0
  0
VERTEX
  5
14D9
  8
0
 10
54.690970937165702
 20
100.92888239953039
 30
0.0
  0
VERTEX
  5
14DA
  8
0
 10
54.221357475752221
 20
100.8436191670008
 30
0.0
  0
VERTEX
  5
14DB
  8
0
 10
53.75277674973254
 20
100.730562751872
 30
0.0
  0
SEQEND
  5
14DC
  8
0
  0
POLYLINE
  5
1004
  8
0
 66
     1
 10
0.0
 20
0.0
 30
0.0
  0
VERTEX
  5
14DD
  8
0
 10
57.505553499465123
 20
100.730562751872
 30
0.0
  0
VERTEX
  5
14DE
  8
0
 10
56.805519692157127
 20
100.8894208765376
 30
0.0
  0
VERTEX
  5
14DF
  8
0
 10
56.453573481058783
 20
100.944819192209
 30
0.0
  0
VERTEX
  5
14E0
  8
0
 10
56.10102853217824
 20
100.9817387346629
 30
0.0
  0
VERTEX
  5
14E1
  8
0
 10
55.629165124598842
 20
101.0
 30
0.0
  0
SEQEND
  5
14E2
  8
0
  0
LINE
  5
1005
  8
0
 10
57.505553499465123
 20
100.730562751872
 30
0.0
 11
57.505553499465123
 21
94.533545031536988
 31
0.0
  0
POLYLINE
  5
1006
  8
0
 66
     1
 10
0.0
 20
0.0
 30
0.0
  0
VERTEX
  5
14E3
  8
0
 10
42.494446500534849
 20
94.533545031536988
 30
0.0
  0
VERTEX
  5
14E4
  8
0
 10
42.981361842090081
 20
94.785516613314286
 30
0.0
  0
VERTEX
  5
14E5
  8
0
 10
43.477317243450869
 20
94.974856823544854
 30
0.0
  0
VERTEX
  5
14E6
  8
0
 10
43.731728753688373
 20
95.042208447463395
 30
0.0
  0
VERTEX
  5
14E7
  8
0
 10
43.98732425446515
 20
95.088063665987306
 30
0.0
  0
VERTEX
  5
14E8
  8
0
 10
44.245654694635107
 20
95.111288302036968
 30
0.0
  0
VERTEX
  5
14E9
  8
0
 10
44.504243767531193
 20
95.11094121017787
 30
0.0
  0
VERTEX
  5
14EA
  8
0
 10
44.94105641421455
 20
95.056777298262105
 30
0.0
  0
VERTEX
  5
14EB
  8
0
 10
45.377108024378991
 20
94.938335691841928
 30
0.0
  0
VERTEX
  5
14EC
  8
0
 10
45.814272888438239
 20
94.760620815311682
 30
0.0
  0
VERTEX
  5
14ED
  8
0
 10
46.247223250267403
 20
94.533545031536988
 30
0.0
  0
SEQEND
  5
14EE
  8
0
  0
POLYLINE
  5
1007
  8
0
 66
     1
 10
0.0
 20
0.0
 30
0.0
  0
VERTEX
  5
14EF
  8
0
 10
46.247223250267403
 20
94.533545031536988
 30
0.0
  0
VERTEX
  5
14F0
  8
0
 10
47.105984070813463
 20
94.758945867924695
 30
0.0
  0
VERTEX
  5
14F1
  8
0
 10
48.040919925543889
 20
94.947354808019284
 30
0.0
  0
VERTEX
  5
14F2
  8
0
 10
48.991487201906089
 20
95.06919933402709
 30
0.0
  0
VERTEX
  5
14F3
  8
0
 10
49.478429341152427
 20
95.102016277257604
 30
0.0
  0
VERTEX
  5
14F4
  8
0
 10
49.966320644020009
 20
95.114051239487864
 30
0.0
  0
VERTEX
  5
14F5
  8
0
 10
50.45790428295291
 20
95.104776871479444
 30
0.0
  0
VERTEX
  5
14F6
  8
0
 10
50.948639135944163
 20
95.074345516836559
 30
0.0
  0
VERTEX
  5
14F7
  8
0
 10
51.654286298777862
 20
94.994468987479024
 30
0.0
  0
VERTEX
  5
14F8
  8
0
 10
52.35663768177573
 20
94.875064192376584
 30
0.0
  0
VERTEX
  5
14F9
  8
0
 10
53.057718081554732
 20
94.719604566889018
 30
0.0
  0
VERTEX
  5
14FA
  8
0
 10
53.75277674973254
 20
94.533545031536988
 30
0.0
  0
SEQEND
  5
14FB
  8
0
  0
POLYLINE
  5
1008
  8
0
 66
     1
 10
0.0
 20
0.0
 30
0.0
  0
VERTEX
  5
14FC
  8
0
 10
53.75277674973254
 20
94.533545031536988
 30
0.0
  0
VERTEX
  5
14FD
  8
0
 10
54.239692091287793
 20
94.785516613314286
 30
0.0
  0
VERTEX
  5
14FE
  8
0
 10
54.73564749264856
 20
94.974856823544854
 30
0.0
  0
VERTEX
  5
14FF
  8
0
 10
54.990059002886071
 20
95.042208447463395
 30
0.0
  0
VERTEX
  5
1500
  8
0
 10
55.245654503662848
 20
95.088063665987306
 30
0.0
  0
VERTEX
  5
1501
  8
0
 10
55.503984943832819
 20
95.111288302036968
 30
0.0
  0
VERTEX
  5
1502
  8
0
 10
55.762574016728898
 20
95.11094121017787
 30
0.0
  0
VERTEX
  5
1503
  8
0
 10
56.199386663412263
 20
95.056777298262105
 30
0.0
  0
VERTEX
  5
1504
  8
0
 10
56.635438273576703
 20
94.938335691841928
 30
0.0
  0
VERTEX
  5
1505
  8
0
 10
57.072603137635951
 20
94.760620815311682
 30
0.0
  0
VERTEX
  5
1506
  8
0
 10
57.505553499465123
 20
94.533545031536988
 30
0.0
  0
SEQEND
  5
1507
  8
0
  0
LINE
  5
1009
  8
0
 10
57.505553499465123
 20
94.533545031536988
 30
0.0
 11
62.343749999999993
 21
91.740210979560871
 31
0.0
  0
LINE
  5
100A
  8
0
 10
37.656249999999993
 20
91.740210979560871
 30
0.0
 11
42.494446500534849
 21
94.533545031536988
 31
0.0
  0
LINE
  5
100B
  8
0
 10
37.499999999999993
 20
90.0
 30
0.0
 11
62.499999999999993
 21
90.0
 31
0.0
  0
LINE
  5
100C
  8
0
 10
62.499999999999993
 20
91.469578040878247
 30
0.0
 11
62.499999999999993
 21
90.0
 31
0.0
  0
LINE
  5
100D
  8
0
 10
37.499999999999993
 20
90.0
 30
0.0
 11
37.499999999999993
 21
91.469578040878247
 31
0.0
  0
LINE
  5
100E
  8
0
 10
37.656249999999993
 20
91.740210979560871
 30
0.0
 11
62.343749999999993
 21
91.740210979560871
 31
0.0
  0
LINE
  5
100F
  8
0
 10
37.499999999999993
 20
91.469578040878247
 30
0.0
 11
62.499999999999993
 21
91.469578040878247
 31
0.0
  0
ARC
  5
1010
  8
0
 10
62.187499999999972
 20
91.469578040878247
 30
0.0
 40
0.3125000000000071
 50
0.0
 51
59.999999999997833
  0
ARC
  5
1011
  8
0
 10
37.8125
 20
91.469578040878247
 30
0.0
 40
0.3125000000000071
 50
120.0000000000021
 51
180.0
  0
LINE
  5
10E0
  8
3
 10
52.458500000000072
 20
101.0
 30
0.0
 11
52.458500000000072
 21
156.92799999999991
 31
0.0
  0
LINE
  5
10E1
  8
3
 10
47.541499999999893
 20
101.0
 30
0.0
 11
47.5414999999999
 21
156.92799999999991
 31
0.0
  0
LINE
  5
10E2
  8
3
 10
104.9585
 20
101.0
 30
0.0
 11
104.9585
 21
156.92799999999991
 31
0.0
  0
LINE
  5
10E3
  8
3
 10
100.0414999999999
 20
101.0
 30
0.0
 11
100.0414999999999
 21
156.92799999999991
 31
0.0
  0
CIRCLE
  5
110F
  8
3
 10
50.0
 20
197.0
 30
0.0
 40
2.458499999999999
  0
LINE
  5
1263
  8
0
 10
51.0
 20
54.166666666666671
 30
0.0
 11
49.0
 21
54.166666666666671
 31
0.0
  0
LINE
  5
1264
  8
0
 10
49.0
 20
54.166666666666671
 30
0.0
 11
49.0
 21
51.0
 31
0.0
  0
LINE
  5
1265
  8
0
 10
51.0
 20
51.0
 30
0.0
 11
51.0
 21
54.166666666666671
 31
0.0
  0
LINE
  5
1266
  8
0
 10
54.166666666666679
 20
51.0
 30
0.0
 11
51.0
 21
51.0
 31
0.0
  0
LINE
  5
1267
  8
0
 10
54.166666666666679
 20
49.0
 30
0.0
 11
54.166666666666679
 21
51.0
 31
0.0
  0
LINE
  5
1268
  8
0
 10
51.0
 20
49.0
 30
0.0
 11
54.166666666666679
 21
49.0
 31
0.0
  0
LINE
  5
1269
  8
0
 10
45.833333333333307
 20
51.0
 30
0.0
 11
45.833333333333307
 21
49.0
 31
0.0
  0
LINE
  5
126A
  8
0
 10
49.0
 20
51.0
 30
0.0
 11
45.833333333333307
 21
51.0
 31
0.0
  0
LINE
  5
126B
  8
0
 10
45.833333333333307
 20
49.0
 30
0.0
 11
49.0
 21
49.0
 31
0.0
  0
LINE
  5
126C
  8
0
 10
49.0
 20
49.0
 30
0.0
 11
49.0
 21
45.833333333333329
 31
0.0
  0
LINE
  5
126D
  8
0
 10
51.0
 20
45.833333333333329
 30
0.0
 11
51.0
 21
49.0
 31
0.0
  0
LINE
  5
126E
  8
0
 10
49.0
 20
45.833333333333329
 30
0.0
 11
51.0
 21
45.833333333333329
 31
0.0
  0
LINE
  5
127E
  8
2
 10
98.3333333333333
 20
91.0
 30
0.0
 11
98.3333333333333
 21
90.0
 31
0.0
  0
LINE
  5
127F
  8
2
 10
98.3333333333333
 20
91.0
 30
0.0
 11
106.6666666666666
 21
91.0
 31
0.0
  0
LINE
  5
1280
  8
2
 10
106.6666666666666
 20
91.0
 30
0.0
 11
106.6666666666666
 21
90.0
 31
0.0
  0
LINE
  5
1286
  8
2
 10
101.5
 20
91.0
 30
0.0
 11
101.5
 21
90.0
 31
0.0
  0
LINE
  5
1287
  8
2
 10
103.5
 20
91.0
 30
0.0
 11
103.5
 21
90.0
 31
0.0
  0
LINE
  5
12D5
  8
2
 10
54.166666666666679
 20
91.0
 30
0.0
 11
54.166666666666679
 21
90.0
 31
0.0
  0
LINE
  5
12D6
  8
2
 10
45.833333333333307
 20
91.0
 30
0.0
 11
45.833333333333307
 21
90.0
 31
0.0
  0
LINE
  5
12D7
  8
2
 10
45.833333333333307
 20
91.0
 30
0.0
 11
54.166666666666679
 21
91.0
 31
0.0
  0
LINE
  5
12DD
  8
2
 10
51.0
 20
91.0
 30
0.0
 11
51.0
 21
90.0
 31
0.0
  0
LINE
  5
12DE
  8
2
 10
49.0
 20
91.0
 30
0.0
 11
49.0
 21
90.0
 31
0.0
  0
LINE
  5
13A4
  8
1
 10
34.5
 20
49.999999999999993
 30
0.0
 11
65.5
 21
49.999999999999993
 31
0.0
  0
LINE
  5
13A5
  8
1
 10
50.0
 20
34.499999999999993
 30
0.0
 11
50.0
 21
65.500000000000014
 31
0.0
  0
CIRCLE
  5
13AD
  8
0
 10
50.0
 20
50.000000000000007
 30
0.0
 40
12.5
  0
ENDSEC
  0
EOF
