  0
SECTION
  2
HEADER
  9
$ACADVER
  1
AC1009
  9
$INSBASE
 10
0.0
 20
0.0
 30
0.0
  9
$EXTMIN
 10
0.0
 20
-2.960436562073669
 30
0.0
  9
$EXTMAX
 10
150.0
 20
150.5
 30
0.0
  9
$LIMMIN
 10
0.0
 20
0.0
  9
$LIMMAX
 10
375.0
 20
270.0
  9
$ORTHOMODE
 70
     1
  9
$REGENMODE
 70
     1
  9
$FILLMODE
 70
     1
  9
$QTEXTMODE
 70
     0
  9
$MIRRTEXT
 70
     0
  9
$DRAGMODE
 70
     2
  9
$LTSCALE
 40
6.0
  9
$OSMODE
 70
    37
  9
$ATTMODE
 70
     1
  9
$TEXTSIZE
 40
0.2
  9
$TRACEWID
 40
0.05
  9
$TEXTSTYLE
  7
STANDARD
  9
$CLAYER
  8
0
  9
$CELTYPE
  6
BYLAYER
  9
$CECOLOR
 62
   256
  9
$DIMSCALE
 40
1.0
  9
$DIMASZ
 40
3.0
  9
$DIMEXO
 40
1.0
  9
$DIMDLI
 40
6.0
  9
$DIMRND
 40
0.0
  9
$DIMDLE
 40
0.0
  9
$DIMEXE
 40
1.0
  9
$DIMTP
 40
495.0
  9
$DIMTM
 40
0.0
  9
$DIMTXT
 40
3.0
  9
$DIMCEN
 40
0.0
  9
$DIMTSZ
 40
0.0
  9
$DIMTOL
 70
     0
  9
$DIMLIM
 70
     0
  9
$DIMTIH
 70
     0
  9
$DIMTOH
 70
     0
  9
$DIMSE1
 70
     0
  9
$DIMSE2
 70
     0
  9
$DIMTAD
 70
     1
  9
$DIMZIN
 70
     0
  9
$DIMBLK
  1

  9
$DIMASO
 70
     0
  9
$DIMSHO
 70
     0
  9
$DIMPOST
  1

  9
$DIMAPOST
  1

  9
$DIMALT
 70
     0
  9
$DIMALTD
 70
     2
  9
$DIMALTF
 40
25.399999999999999
  9
$DIMLFAC
 40
1.0
  9
$DIMTOFL
 70
     1
  9
$DIMTVP
 40
0.0
  9
$DIMTIX
 70
     1
  9
$DIMSOXD
 70
     0
  9
$DIMSAH
 70
     0
  9
$DIMBLK1
  1

  9
$DIMBLK2
  1

  9
$DIMSTYLE
  2
STANDARD
  9
$DIMCLRD
 70
     0
  9
$DIMCLRE
 70
     0
  9
$DIMCLRT
 70
     4
  9
$DIMTFAC
 40
1.0
  9
$DIMGAP
 40
1.0
  9
$LUNITS
 70
     2
  9
$LUPREC
 70
     1
  9
$SKETCHINC
 40
0.1
  9
$FILLETRAD
 40
2.0
  9
$AUNITS
 70
     0
  9
$AUPREC
 70
     0
  9
$MENU
  1
C:\R13\WIN\SUPPORT\ACAD-I
  9
$ELEVATION
 40
0.0
  9
$PELEVATION
 40
0.0
  9
$THICKNESS
 40
0.0
  9
$LIMCHECK
 70
     0
  9
$BLIPMODE
 70
     0
  9
$CHAMFERA
 40
0.0
  9
$CHAMFERB
 40
0.0
  9
$SKPOLY
 70
     0
  9
$TDCREATE
 40
2450834.7095229169
  9
$TDUPDATE
 40
2457178.4193521761
  9
$TDINDWG
 40
0.115101956
  9
$TDUSRTIMER
 40
2456694.2615667251
  9
$USRTIMER
 70
     1
  9
$ANGBASE
 50
0.0
  9
$ANGDIR
 70
     0
  9
$PDMODE
 70
     0
  9
$PDSIZE
 40
0.0
  9
$PLINEWID
 40
0.0
  9
$COORDS
 70
     1
  9
$SPLFRAME
 70
     0
  9
$SPLINETYPE
 70
     6
  9
$SPLINESEGS
 70
     8
  9
$ATTDIA
 70
     0
  9
$ATTREQ
 70
     1
  9
$HANDLING
 70
     1
  9
$HANDSEED
  5
18D0
  9
$SURFTAB1
 70
     6
  9
$SURFTAB2
 70
     6
  9
$SURFTYPE
 70
     6
  9
$SURFU
 70
     6
  9
$SURFV
 70
     6
  9
$UCSNAME
  2

  9
$UCSORG
 10
0.0
 20
0.0
 30
0.0
  9
$UCSXDIR
 10
1.0
 20
0.0
 30
0.0
  9
$UCSYDIR
 10
0.0
 20
1.0
 30
0.0
  9
$PUCSNAME
  2

  9
$PUCSORG
 10
0.0
 20
0.0
 30
0.0
  9
$PUCSXDIR
 10
1.0
 20
0.0
 30
0.0
  9
$PUCSYDIR
 10
0.0
 20
1.0
 30
0.0
  9
$USERI1
 70
     4
  9
$USERI2
 70
     1
  9
$USERI3
 70
     0
  9
$USERI4
 70
     0
  9
$USERI5
 70
     0
  9
$USERR1
 40
1.0
  9
$USERR2
 40
3.0
  9
$USERR3
 40
3.0
  9
$USERR4
 40
3.0
  9
$USERR5
 40
10.0
  9
$WORLDVIEW
 70
     1
  9
$SHADEDGE
 70
     3
  9
$SHADEDIF
 70
    70
  9
$TILEMODE
 70
     1
  9
$MAXACTVP
 70
    16
  9
$PLIMCHECK
 70
     0
  9
$PEXTMIN
 10
1.0000000000000000E+020
 20
1.0000000000000000E+020
 30
1.0000000000000000E+020
  9
$PEXTMAX
 10
-1.0000000000000000E+020
 20
-1.0000000000000000E+020
 30
-1.0000000000000000E+020
  9
$PLIMMIN
 10
0.0
 20
0.0
  9
$PLIMMAX
 10
0.0
 20
0.0
  9
$UNITMODE
 70
     0
  9
$VISRETAIN
 70
     0
  9
$PLINEGEN
 70
     0
  9
$PSLTSCALE
 70
     0
  0
ENDSEC
  0
SECTION
  2
TABLES
  0
TABLE
  2
VPORT
 70
     1
  0
VPORT
  2
*ACTIVE
 70
     0
 10
0.0
 20
0.0
 11
1.0
 21
1.0
 12
181.62393162393161
 22
100.0
 13
0.0
 23
0.0
 14
10.0
 24
10.0
 15
10.0
 25
10.0
 16
0.0
 26
0.0
 36
1.0
 17
0.0
 27
0.0
 37
0.0
 40
200.0
 41
1.816239316239316
 42
50.0
 43
0.0
 44
0.0
 50
0.0
 51
0.0
 71
    16
 72
   100
 73
     1
 74
     0
 75
     0
 76
     0
 77
     0
 78
     0
  0
ENDTAB
  0
TABLE
  2
LTYPE
 70
     3
  0
LTYPE
  2
CONTINUOUS
 70
     0
  3
Solid Line
 72
    65
 73
     0
 40
0.0
  0
LTYPE
  2
PHANTOM2
 70
     0
  3
___ _ _ ___ _ _ ___ _ _ ___ _ _
 72
    65
 73
     6
 40
1.25
 49
0.625
 49
-0.125
 49
0.125
 49
-0.125
 49
0.125
 49
-0.125
  0
LTYPE
  2
CENTER
 70
     0
  3
____ _ ____ _ ____ _ ____ _ ____ _ ____ _ ____
 72
    65
 73
     4
 40
2.0
 49
1.25
 49
-0.25
 49
0.25
 49
-0.25
  0
ENDTAB
  0
TABLE
  2
LAYER
 70
     3
  0
LAYER
  2
0
 70
     0
 62
     7
  6
CONTINUOUS
  0
LAYER
  2
1
 70
     0
 62
     1
  6
CENTER
  0
LAYER
  2
3
 70
     0
 62
     3
  6
CONTINUOUS
  0
ENDTAB
  0
TABLE
  2
STYLE
 70
     2
  0
STYLE
  2
STANDARD
 70
     0
 40
0.0
 41
1.0
 50
0.0
 71
     0
 42
0.2
  3
SIMPLEX
  4
BIGFONT
  0
STYLE
  2
STANDARD1
 70
     0
 40
0.0
 41
1.0
 50
0.0
 71
     0
 42
3.0
  3
txt
  4

  0
ENDTAB
  0
TABLE
  2
VIEW
 70
     0
  0
ENDTAB
  0
TABLE
  2
UCS
 70
     0
  0
ENDTAB
  0
TABLE
  2
APPID
 70
    32
  0
APPID
  2
ACAD
 70
     0
  0
APPID
  2
ACADANNOTATIVE
 70
     0
  0
APPID
  2
GENIUS_GENOREF_13
 70
     0
  0
APPID
  2
GENIUS_GENOENT_13
 70
     0
  0
APPID
  2
GENIUS_GENBH_13
 70
     0
  0
APPID
  2
GENIUS_GENOBJ_13
 70
     0
  0
APPID
  2
GENIUS_GENODEF_13
 70
     0
  0
APPID
  2
GENIUS_GENOLIS_13
 70
     0
  0
APPID
  2
GENIUS_GENOBJ-NBEHI-BHF_13
 70
     0
  0
APPID
  2
GENIUS_GENOBJ-NBEHI-BHB_13
 70
     0
  0
APPID
  2
GENIUS_GENOBJ-F-PART_13
 70
     0
  0
APPID
  2
GENIUS_GEFSTDP_13
 70
     0
  0
APPID
  2
GENIUS_GENOBJ-N-RSSYM_13
 70
     0
  0
APPID
  2
GENIUS_GENSYMENT_13
 70
     0
  0
APPID
  2
GENIUS_GENOBJ-N-TIT_13
 70
     0
  0
APPID
  2
GENIUS_GENTITLE_13
 70
     0
  0
APPID
  2
GENIUS_GENZVEED_13
 70
     0
  0
APPID
  2
GENIUS_GENOBJ-N-LEADER_13
 70
     0
  0
APPID
  2
GENIUS_GENOBJ-N-FIL_13
 70
     0
  0
APPID
  2
GENIUS_GENOBJ-N-SEC_13
 70
     0
  0
APPID
  2
GENIUS_GENOBJ-N-CRS_13
 70
     0
  0
APPID
  2
GENIUS_GENOBJ-N-ZOO_13
 70
     0
  0
APPID
  2
GENIUS_GENZOO_13
 70
     0
  0
APPID
  2
GENIUS_GENOBJ-F-TOL_13
 70
     0
  0
APPID
  2
GENIUS_GENFIL_13
 70
     0
  0
APPID
  2
GENIUS_GENOBJ-N-CHA_13
 70
     0
  0
APPID
  2
ACAD_MLEADERVER
 70
     0
  0
APPID
  2
ACAD_EXEMPT_FROM_CAD_STAND
 70
     0
  0
APPID
  2
ACAD_NAV_VCDISPLAY
 70
     0
  0
APPID
  2
ACAD_EXEMPT_FROM_CAD_STANDARDS
 70
     0
  0
APPID
  2
ACAD_DSTYLE_DIMJAG
 70
     0
  0
APPID
  2
ACAD_DSTYLE_DIMTALN
 70
     0
  0
ENDTAB
  0
TABLE
  2
DIMSTYLE
 70
     1
  0
DIMSTYLE
  2
STANDARD
 70
     0
  3

  4

  5

  6

  7

 40
1.0
 41
0.18
 42
0.0625
 43
0.38
 44
0.18
 45
0.0
 46
0.0
 47
0.0
 48
0.0
140
0.18
141
0.09
142
0.0
143
25.399999999999999
144
1.0
145
0.0
146
1.0
147
0.09
 71
     0
 72
     0
 73
     1
 74
     1
 75
     0
 76
     0
 77
     0
 78
     0
170
     0
171
     2
172
     0
173
     0
174
     0
175
     0
176
     0
177
     0
178
     0
  0
ENDTAB
  0
ENDSEC
  0
SECTION
  2
BLOCKS
  0
BLOCK
  8
0
  2
$MODEL_SPACE
 70
     0
 10
0.0
 20
0.0
 30
0.0
  3
$MODEL_SPACE
  1

  0
ENDBLK
  5
E10
  8
0
  0
BLOCK
 67
     1
  8
0
  2
$PAPER_SPACE
 70
     0
 10
0.0
 20
0.0
 30
0.0
  3
$PAPER_SPACE
  1

  0
ENDBLK
  5
E0C
 67
     1
  8
0
  0
ENDSEC
  0
SECTION
  2
ENTITIES
  0
TEXT
  5
E90
  8
0
 62
     3
 10
0.0
 20
0.0
 30
0.0
 40
10.0
  1
ELP40-M8X30
  7
STANDARD1
  0
LINE
  5
12FB
  8
1
 10
130.0
 20
85.5
 30
0.0
 11
130.0
 21
37.000000000000007
 31
0.0
  0
LINE
  5
12FC
  8
0
 10
126.0
 20
81.733000000000004
 30
0.0
 11
126.0
 21
53.0
 31
0.0
  0
LINE
  5
12FD
  8
0
 10
134.0
 20
53.0
 30
0.0
 11
134.0
 21
81.733000000000004
 31
0.0
  0
LINE
  5
12FE
  8
0
 10
126.767
 20
82.5
 30
0.0
 11
126.0
 21
81.733000000000004
 31
0.0
  0
LINE
  5
12FF
  8
0
 10
134.0
 20
81.733000000000004
 30
0.0
 11
133.233
 21
82.5
 31
0.0
  0
LINE
  5
1300
  8
0
 10
134.0
 20
81.733000000000004
 30
0.0
 11
126.0
 21
81.733000000000004
 31
0.0
  0
LINE
  5
1301
  8
0
 10
133.233
 20
82.5
 30
0.0
 11
126.767
 21
82.5
 31
0.0
  0
LINE
  5
1378
  8
1
 10
60.0
 20
85.5
 30
0.0
 11
60.0
 21
37.000000000000007
 31
0.0
  0
LINE
  5
1379
  8
0
 10
63.232999999999997
 20
82.5
 30
0.0
 11
56.767000000000003
 21
82.5
 31
0.0
  0
LINE
  5
137A
  8
0
 10
56.767000000000003
 20
82.5
 30
0.0
 11
56.0
 21
81.733000000000004
 31
0.0
  0
LINE
  5
137B
  8
0
 10
64.0
 20
81.733000000000004
 30
0.0
 11
63.232999999999997
 21
82.5
 31
0.0
  0
LINE
  5
137C
  8
0
 10
64.0
 20
81.733000000000004
 30
0.0
 11
56.0
 21
81.733000000000004
 31
0.0
  0
LINE
  5
137D
  8
0
 10
56.000000000000007
 20
81.733000000000018
 30
0.0
 11
56.0
 21
53.0
 31
0.0
  0
LINE
  5
137E
  8
0
 10
64.0
 20
53.0
 30
0.0
 11
64.0
 21
81.733000000000018
 31
0.0
  0
LINE
  5
13D3
  8
1
 10
36.999999999999993
 20
127.5
 30
0.0
 11
83.000000000000043
 21
127.5
 31
0.0
  0
LINE
  5
13D4
  8
1
 10
60.000000000000007
 20
104.5
 30
0.0
 11
60.000000000000007
 21
150.5
 31
0.0
  0
LINE
  5
13D6
  8
0
 10
64.907477288111878
 20
136.0
 30
0.0
 11
55.092522711888243
 21
136.0
 31
0.0
  0
LINE
  5
13D7
  8
0
 10
69.814954576223698
 20
127.5
 30
0.0
 11
64.907477288111878
 21
136.0
 31
0.0
  0
LINE
  5
13D8
  8
0
 10
55.092522711888243
 20
136.0
 30
0.0
 11
50.185045423776423
 21
127.5
 31
0.0
  0
LINE
  5
13D9
  8
0
 10
50.185045423776423
 20
127.5
 30
0.0
 11
55.092522711888243
 21
119.0
 31
0.0
  0
LINE
  5
13DA
  8
0
 10
55.092522711888243
 20
119.0
 30
0.0
 11
64.907477288111892
 21
119.0
 31
0.0
  0
LINE
  5
13DC
  8
0
 10
64.907477288111892
 20
119.0
 30
0.0
 11
69.814954576223698
 21
127.5
 31
0.0
  0
CIRCLE
  5
13DD
  8
0
 10
60.000000000000071
 20
127.5
 30
0.0
 40
4.0
  0
CIRCLE
  5
13DF
  8
0
 10
60.000000000000021
 20
127.5
 30
0.0
 40
20.000000000000021
  0
CIRCLE
  5
13E0
  8
0
 10
60.000000000000028
 20
127.5
 30
0.0
 40
8.4999999999999911
  0
CIRCLE
  5
145D
  8
3
 10
60.000000000000021
 20
127.5
 30
0.0
 40
3.3235000000000001
  0
LINE
  5
145E
  8
3
 10
63.323500000000109
 20
53.0
 30
0.0
 11
63.323500000000102
 21
82.409499999999895
 31
0.0
  0
LINE
  5
145F
  8
3
 10
56.676499999999891
 20
53.0
 30
0.0
 11
56.676499999999891
 21
82.409499999999895
 31
0.0
  0
LINE
  5
1460
  8
3
 10
133.32350000000011
 20
53.0
 30
0.0
 11
133.32350000000011
 21
82.409499999999895
 31
0.0
  0
LINE
  5
1461
  8
3
 10
126.6764999999999
 20
53.0
 30
0.0
 11
126.6764999999999
 21
82.409499999999895
 31
0.0
  0
LINE
  5
1615
  8
0
 10
138.5
 20
47.830338717125848
 30
0.0
 11
138.5
 21
53.0
 31
0.0
  0
LINE
  5
1616
  8
0
 10
138.5
 20
53.0
 30
0.0
 11
121.5
 21
53.0
 31
0.0
  0
LINE
  5
1617
  8
0
 10
121.5
 20
53.0
 30
0.0
 11
121.5
 21
47.830338717125848
 31
0.0
  0
POLYLINE
  5
1618
  8
0
 66
     1
 10
0.0
 20
0.0
 30
0.0
 70
     8
  0
VERTEX
  5
1619
  8
0
 10
125.75
 20
53.0
 30
0.0
 70
    32
  0
VERTEX
  5
161A
  8
0
 10
126.8132310007995
 20
52.976247591287851
 30
0.0
 70
    32
  0
VERTEX
  5
161B
  8
0
 10
127.875
 20
52.907000060924361
 30
0.0
 70
    32
  0
VERTEX
  5
161C
  8
0
 10
128.9391308150731
 20
52.795426959874803
 30
0.0
 70
    32
  0
VERTEX
  5
161D
  8
0
 10
130.0
 20
52.647658983217262
 30
0.0
 70
    32
  0
SEQEND
  5
161E
  8
0
  0
POLYLINE
  5
161F
  8
0
 66
     1
 10
0.0
 20
0.0
 30
0.0
 70
     8
  0
VERTEX
  5
1620
  8
0
 10
121.5
 20
52.647658983217262
 30
0.0
 70
    32
  0
VERTEX
  5
1621
  8
0
 10
122.5561052616209
 20
52.794841180344221
 30
0.0
 70
    32
  0
VERTEX
  5
1622
  8
0
 10
123.61544542779551
 20
52.906178459100481
 30
0.0
 70
    32
  0
VERTEX
  5
1623
  8
0
 10
124.6819823424441
 20
52.976033474923142
 30
0.0
 70
    32
  0
VERTEX
  5
1624
  8
0
 10
125.75
 20
53.0
 30
0.0
 70
    32
  0
SEQEND
  5
1625
  8
0
  0
POLYLINE
  5
1626
  8
0
 66
     1
 10
0.0
 20
0.0
 30
0.0
 70
     8
  0
VERTEX
  5
1627
  8
0
 10
134.25
 20
53.0
 30
0.0
 70
    32
  0
VERTEX
  5
1628
  8
0
 10
135.3132310007995
 20
52.976247591287851
 30
0.0
 70
    32
  0
VERTEX
  5
1629
  8
0
 10
136.375
 20
52.907000060924361
 30
0.0
 70
    32
  0
VERTEX
  5
162A
  8
0
 10
137.4391308150731
 20
52.795426959874803
 30
0.0
 70
    32
  0
VERTEX
  5
162B
  8
0
 10
138.5
 20
52.647658983217262
 30
0.0
 70
    32
  0
SEQEND
  5
162C
  8
0
  0
POLYLINE
  5
162D
  8
0
 66
     1
 10
0.0
 20
0.0
 30
0.0
 70
     8
  0
VERTEX
  5
162E
  8
0
 10
130.0
 20
52.647658983217262
 30
0.0
 70
    32
  0
VERTEX
  5
162F
  8
0
 10
131.0561052616209
 20
52.794841180344221
 30
0.0
 70
    32
  0
VERTEX
  5
1630
  8
0
 10
132.11544542779549
 20
52.906178459100481
 30
0.0
 70
    32
  0
VERTEX
  5
1631
  8
0
 10
133.18198234244409
 20
52.976033474923121
 30
0.0
 70
    32
  0
VERTEX
  5
1632
  8
0
 10
134.25
 20
53.0
 30
0.0
 70
    32
  0
SEQEND
  5
1633
  8
0
  0
LINE
  5
1634
  8
0
 10
130.0
 20
52.647658983217262
 30
0.0
 11
130.0
 21
47.830338717125848
 31
0.0
  0
POLYLINE
  5
1635
  8
0
 66
     1
 10
0.0
 20
0.0
 30
0.0
 70
     8
  0
VERTEX
  5
1636
  8
0
 10
138.5
 20
47.830338717125848
 30
0.0
 70
    32
  0
VERTEX
  5
1637
  8
0
 10
137.3947987084492
 20
48.160406099599932
 30
0.0
 70
    32
  0
VERTEX
  5
1638
  8
0
 10
136.27378528039361
 20
48.407442780401219
 30
0.0
 70
    32
  0
VERTEX
  5
1639
  8
0
 10
135.11405607265351
 20
48.555287974171712
 30
0.0
 70
    32
  0
VERTEX
  5
163A
  8
0
 10
133.94778233687461
 20
48.585393948025441
 30
0.0
 70
    32
  0
VERTEX
  5
163B
  8
0
 10
132.95580612108839
 20
48.514013078657307
 30
0.0
 70
    32
  0
VERTEX
  5
163C
  8
0
 10
131.97077749749749
 20
48.359675544884041
 30
0.0
 70
    32
  0
VERTEX
  5
163D
  8
0
 10
130.97907522365051
 20
48.126847243574638
 30
0.0
 70
    32
  0
VERTEX
  5
163E
  8
0
 10
130.0
 20
47.830338717125848
 30
0.0
 70
    32
  0
SEQEND
  5
163F
  8
0
  0
POLYLINE
  5
1640
  8
0
 66
     1
 10
0.0
 20
0.0
 30
0.0
 70
     8
  0
VERTEX
  5
1641
  8
0
 10
130.0
 20
47.830338717125848
 30
0.0
 70
    32
  0
VERTEX
  5
1642
  8
0
 10
128.8947987084492
 20
48.160406099599932
 30
0.0
 70
    32
  0
VERTEX
  5
1643
  8
0
 10
127.7737852803936
 20
48.407442780401219
 30
0.0
 70
    32
  0
VERTEX
  5
1644
  8
0
 10
126.6140560726535
 20
48.555287974171712
 30
0.0
 70
    32
  0
VERTEX
  5
1645
  8
0
 10
125.4477823368746
 20
48.585393948025448
 30
0.0
 70
    32
  0
VERTEX
  5
1646
  8
0
 10
124.4558061210884
 20
48.514013078657307
 30
0.0
 70
    32
  0
VERTEX
  5
1647
  8
0
 10
123.47077749749749
 20
48.359675544884041
 30
0.0
 70
    32
  0
VERTEX
  5
1648
  8
0
 10
122.4790752236506
 20
48.126847243574638
 30
0.0
 70
    32
  0
VERTEX
  5
1649
  8
0
 10
121.5
 20
47.830338717125848
 30
0.0
 70
    32
  0
SEQEND
  5
164A
  8
0
  0
LINE
  5
164B
  8
0
 10
121.5
 20
48.589528095680691
 30
0.0
 11
110.25
 21
42.094337567297387
 31
0.0
  0
LINE
  5
164C
  8
0
 10
149.75
 20
42.094337567297387
 30
0.0
 11
138.5
 21
48.589528095680691
 31
0.0
  0
LINE
  5
164D
  8
0
 10
110.0
 20
41.661324865405177
 30
0.0
 11
110.0
 21
40.0
 31
0.0
  0
LINE
  5
164E
  8
0
 10
150.0
 20
40.0
 30
0.0
 11
150.0
 21
41.661324865405177
 31
0.0
  0
LINE
  5
164F
  8
0
 10
150.0
 20
40.0
 30
0.0
 11
110.0
 21
40.0
 31
0.0
  0
ARC
  5
1650
  8
0
 10
110.5
 20
41.661324865405177
 30
0.0
 40
0.5000000000000029
 50
119.9999999999999
 51
180.0
  0
ARC
  5
1651
  8
0
 10
149.5
 20
41.661324865405177
 30
0.0
 40
0.5000000000000036
 50
0.0
 51
60.0
  0
LINE
  5
1652
  8
0
 10
149.75
 20
42.094337567297387
 30
0.0
 11
110.25
 21
42.094337567297387
 31
0.0
  0
LINE
  5
1653
  8
0
 10
150.0
 20
41.661324865405177
 30
0.0
 11
110.0
 21
41.661324865405177
 31
0.0
  0
LINE
  5
166D
  8
0
 10
69.814954576223641
 20
52.647658983217262
 30
0.0
 11
68.5
 21
53.0
 31
0.0
  0
LINE
  5
166E
  8
0
 10
68.5
 20
53.0
 30
0.0
 11
51.5
 21
53.0
 31
0.0
  0
LINE
  5
166F
  8
0
 10
51.5
 20
53.0
 30
0.0
 11
50.185045423776359
 21
52.647658983217262
 31
0.0
  0
POLYLINE
  5
1670
  8
0
 66
     1
 10
0.0
 20
0.0
 30
0.0
 70
     8
  0
VERTEX
  5
1671
  8
0
 10
50.185045423776359
 20
52.647658983217262
 30
0.0
 70
    32
  0
VERTEX
  5
1672
  8
0
 10
50.794523924911381
 20
52.794802596097512
 30
0.0
 70
    32
  0
VERTEX
  5
1673
  8
0
 10
51.40639841097007
 20
52.906178459100481
 30
0.0
 70
    32
  0
VERTEX
  5
1674
  8
0
 10
52.021731919459199
 20
52.97611988379002
 30
0.0
 70
    32
  0
VERTEX
  5
1675
  8
0
 10
52.638784067832262
 20
53.0
 30
0.0
 70
    32
  0
SEQEND
  5
1676
  8
0
  0
LINE
  5
1677
  8
0
 10
50.185045423776359
 20
52.647658983217262
 30
0.0
 11
50.185045423776359
 21
47.830338717125848
 31
0.0
  0
LINE
  5
1678
  8
0
 10
69.814954576223641
 20
52.647658983217262
 30
0.0
 11
69.814954576223641
 21
47.830338717125848
 31
0.0
  0
POLYLINE
  5
1679
  8
0
 66
     1
 10
0.0
 20
0.0
 30
0.0
 70
     8
  0
VERTEX
  5
167A
  8
0
 10
67.361215932167738
 20
53.0
 30
0.0
 70
    32
  0
VERTEX
  5
167B
  8
0
 10
67.974650593181707
 20
52.976397627273172
 30
0.0
 70
    32
  0
VERTEX
  5
167C
  8
0
 10
68.588085254195676
 20
52.907000060924361
 30
0.0
 70
    32
  0
VERTEX
  5
167D
  8
0
 10
69.202195165274816
 20
52.795501987616468
 30
0.0
 70
    32
  0
VERTEX
  5
167E
  8
0
 10
69.814954576223641
 20
52.647658983217262
 30
0.0
 70
    32
  0
SEQEND
  5
167F
  8
0
  0
LINE
  5
1680
  8
0
 10
64.907477288111807
 20
52.647658983217262
 30
0.0
 11
64.907477288111807
 21
47.830338717125848
 31
0.0
  0
LINE
  5
1681
  8
0
 10
55.092522711888193
 20
52.647658983217262
 30
0.0
 11
55.092522711888193
 21
47.830338717125848
 31
0.0
  0
POLYLINE
  5
1682
  8
0
 66
     1
 10
0.0
 20
0.0
 30
0.0
 70
     8
  0
VERTEX
  5
1683
  8
0
 10
52.638784067832262
 20
53.0
 30
0.0
 70
    32
  0
VERTEX
  5
1684
  8
0
 10
53.252218728846252
 20
52.976397627273172
 30
0.0
 70
    32
  0
VERTEX
  5
1685
  8
0
 10
53.865653389860228
 20
52.907000060924361
 30
0.0
 70
    32
  0
VERTEX
  5
1686
  8
0
 10
54.479763300939361
 20
52.795501987616468
 30
0.0
 70
    32
  0
VERTEX
  5
1687
  8
0
 10
55.092522711888193
 20
52.647658983217262
 30
0.0
 70
    32
  0
SEQEND
  5
1688
  8
0
  0
POLYLINE
  5
1689
  8
0
 66
     1
 10
0.0
 20
0.0
 30
0.0
 70
     8
  0
VERTEX
  5
168A
  8
0
 10
55.092522711888193
 20
52.647658983217262
 30
0.0
 70
    32
  0
VERTEX
  5
168B
  8
0
 10
56.311479714158217
 20
52.794802596097512
 30
0.0
 70
    32
  0
VERTEX
  5
168C
  8
0
 10
57.535228686275623
 20
52.906178459100481
 30
0.0
 70
    32
  0
VERTEX
  5
168D
  8
0
 10
58.765895703253847
 20
52.97611988379002
 30
0.0
 70
    32
  0
VERTEX
  5
168E
  8
0
 10
60.0
 20
53.0
 30
0.0
 70
    32
  0
SEQEND
  5
168F
  8
0
  0
POLYLINE
  5
1690
  8
0
 66
     1
 10
0.0
 20
0.0
 30
0.0
 70
     8
  0
VERTEX
  5
1691
  8
0
 10
60.0
 20
53.0
 30
0.0
 70
    32
  0
VERTEX
  5
1692
  8
0
 10
61.841535878002617
 20
52.947160934528149
 30
0.0
 70
    32
  0
VERTEX
  5
1693
  8
0
 10
63.683071756005241
 20
52.795383401473678
 30
0.0
 70
    32
  0
VERTEX
  5
1694
  8
0
 10
64.907477288111807
 20
52.647658983217262
 30
0.0
 70
    32
  0
SEQEND
  5
1695
  8
0
  0
POLYLINE
  5
1696
  8
0
 66
     1
 10
0.0
 20
0.0
 30
0.0
 70
     8
  0
VERTEX
  5
1697
  8
0
 10
64.907477288111807
 20
52.647658983217262
 30
0.0
 70
    32
  0
VERTEX
  5
1698
  8
0
 10
65.516955789246822
 20
52.794802596097512
 30
0.0
 70
    32
  0
VERTEX
  5
1699
  8
0
 10
66.128830275305518
 20
52.906178459100481
 30
0.0
 70
    32
  0
VERTEX
  5
169A
  8
0
 10
66.744163783794647
 20
52.97611988379002
 30
0.0
 70
    32
  0
VERTEX
  5
169B
  8
0
 10
67.361215932167738
 20
53.0
 30
0.0
 70
    32
  0
SEQEND
  5
169C
  8
0
  0
POLYLINE
  5
169D
  8
0
 66
     1
 10
0.0
 20
0.0
 30
0.0
 70
     8
  0
VERTEX
  5
169E
  8
0
 10
69.814954576223641
 20
47.830338717125848
 30
0.0
 70
    32
  0
VERTEX
  5
169F
  8
0
 10
69.17821268247647
 20
48.159842942865382
 30
0.0
 70
    32
  0
VERTEX
  5
16A0
  8
0
 10
68.529648908585017
 20
48.407442780401219
 30
0.0
 70
    32
  0
VERTEX
  5
16A1
  8
0
 10
67.86270946814858
 20
48.555481223963469
 30
0.0
 70
    32
  0
VERTEX
  5
16A2
  8
0
 10
67.186730483008404
 20
48.585393948025448
 30
0.0
 70
    32
  0
VERTEX
  5
16A3
  8
0
 10
66.615520678582655
 20
48.514561350158793
 30
0.0
 70
    32
  0
VERTEX
  5
16A4
  8
0
 10
66.045306206804867
 20
48.359675544884041
 30
0.0
 70
    32
  0
VERTEX
  5
16A5
  8
0
 10
65.473636158975978
 20
48.127280698092427
 30
0.0
 70
    32
  0
VERTEX
  5
16A6
  8
0
 10
64.907477288111807
 20
47.830338717125848
 30
0.0
 70
    32
  0
SEQEND
  5
16A7
  8
0
  0
POLYLINE
  5
16A8
  8
0
 66
     1
 10
0.0
 20
0.0
 30
0.0
 70
     8
  0
VERTEX
  5
16A9
  8
0
 10
64.907477288111807
 20
47.830338717125848
 30
0.0
 70
    32
  0
VERTEX
  5
16AA
  8
0
 10
63.514547010648329
 20
48.186574117876432
 30
0.0
 70
    32
  0
VERTEX
  5
16AB
  8
0
 10
62.299243708175879
 20
48.412943132682642
 30
0.0
 70
    32
  0
VERTEX
  5
16AC
  8
0
 10
61.071041190335023
 20
48.55072296729039
 30
0.0
 70
    32
  0
VERTEX
  5
16AD
  8
0
 10
59.804793935683279
 20
48.587747982185533
 30
0.0
 70
    32
  0
VERTEX
  5
16AE
  8
0
 10
58.539906141820722
 20
48.517652210447849
 30
0.0
 70
    32
  0
VERTEX
  5
16AF
  8
0
 10
57.670767281452207
 20
48.408556348039589
 30
0.0
 70
    32
  0
VERTEX
  5
16B0
  8
0
 10
56.808300160233209
 20
48.254965454300446
 30
0.0
 70
    32
  0
VERTEX
  5
16B1
  8
0
 10
55.946158109885282
 20
48.05998500231474
 30
0.0
 70
    32
  0
VERTEX
  5
16B2
  8
0
 10
55.092522711888193
 20
47.830338717125848
 30
0.0
 70
    32
  0
SEQEND
  5
16B3
  8
0
  0
POLYLINE
  5
16B4
  8
0
 66
     1
 10
0.0
 20
0.0
 30
0.0
 70
     8
  0
VERTEX
  5
16B5
  8
0
 10
55.092522711888193
 20
47.830338717125848
 30
0.0
 70
    32
  0
VERTEX
  5
16B6
  8
0
 10
54.455780818141022
 20
48.159842942865382
 30
0.0
 70
    32
  0
VERTEX
  5
16B7
  8
0
 10
53.807217044249562
 20
48.407442780401219
 30
0.0
 70
    32
  0
VERTEX
  5
16B8
  8
0
 10
53.140277603813111
 20
48.555481223963469
 30
0.0
 70
    32
  0
VERTEX
  5
16B9
  8
0
 10
52.464298618672949
 20
48.585393948025441
 30
0.0
 70
    32
  0
VERTEX
  5
16BA
  8
0
 10
51.893088814247221
 20
48.514561350158793
 30
0.0
 70
    32
  0
VERTEX
  5
16BB
  8
0
 10
51.322874342469419
 20
48.359675544884041
 30
0.0
 70
    32
  0
VERTEX
  5
16BC
  8
0
 10
50.75120429464053
 20
48.127280698092427
 30
0.0
 70
    32
  0
VERTEX
  5
16BD
  8
0
 10
50.185045423776359
 20
47.830338717125848
 30
0.0
 70
    32
  0
SEQEND
  5
16BE
  8
0
  0
LINE
  5
16BF
  8
0
 10
50.185045423776359
 20
47.830338717125848
 30
0.0
 11
40.25
 21
42.094337567297387
 31
0.0
  0
LINE
  5
16C0
  8
0
 10
79.75
 20
42.094337567297387
 30
0.0
 11
69.814954576223613
 21
47.830338717125848
 31
0.0
  0
LINE
  5
16C1
  8
0
 10
80.0
 20
40.0
 30
0.0
 11
40.0
 21
40.0
 31
0.0
  0
LINE
  5
16C2
  8
0
 10
40.0
 20
41.661324865405177
 30
0.0
 11
40.0
 21
40.0
 31
0.0
  0
LINE
  5
16C3
  8
0
 10
80.0
 20
40.0
 30
0.0
 11
80.0
 21
41.661324865405177
 31
0.0
  0
LINE
  5
16C4
  8
0
 10
79.75
 20
42.094337567297387
 30
0.0
 11
40.25
 21
42.094337567297387
 31
0.0
  0
LINE
  5
16C5
  8
0
 10
80.0
 20
41.661324865405177
 30
0.0
 11
40.0
 21
41.661324865405177
 31
0.0
  0
ARC
  5
16C6
  8
0
 10
40.499999999999993
 20
41.661324865405177
 30
0.0
 40
0.5000000000000029
 50
119.9999999999999
 51
180.0
  0
ARC
  5
16C7
  8
0
 10
79.5
 20
41.661324865405177
 30
0.0
 40
0.5000000000000036
 50
0.0
 51
59.999999999998238
  0
ENDSEC
  0
EOF
