  0
SECTION
  2
HEADER
  9
$ACADVER
  1
AC1009
  9
$INSBASE
 10
0.0
 20
0.0
 30
0.0
  9
$EXTMIN
 10
0.0
 20
-2.960436562073669
 30
0.0
  9
$EXTMAX
 10
140.0
 20
185.5
 30
0.0
  9
$LIMMIN
 10
0.0
 20
0.0
  9
$LIMMAX
 10
375.0
 20
270.0
  9
$ORTHOMODE
 70
     1
  9
$REGENMODE
 70
     1
  9
$FILLMODE
 70
     1
  9
$QTEXTMODE
 70
     0
  9
$MIRRTEXT
 70
     0
  9
$DRAGMODE
 70
     2
  9
$LTSCALE
 40
6.0
  9
$OSMODE
 70
    37
  9
$ATTMODE
 70
     1
  9
$TEXTSIZE
 40
0.2
  9
$TRACEWID
 40
0.05
  9
$TEXTSTYLE
  7
STANDARD
  9
$CLAYER
  8
0
  9
$CELTYPE
  6
BYLAYER
  9
$CECOLOR
 62
   256
  9
$DIMSCALE
 40
1.0
  9
$DIMASZ
 40
3.0
  9
$DIMEXO
 40
1.0
  9
$DIMDLI
 40
6.0
  9
$DIMRND
 40
0.0
  9
$DIMDLE
 40
0.0
  9
$DIMEXE
 40
1.0
  9
$DIMTP
 40
495.0
  9
$DIMTM
 40
0.0
  9
$DIMTXT
 40
3.0
  9
$DIMCEN
 40
0.0
  9
$DIMTSZ
 40
0.0
  9
$DIMTOL
 70
     0
  9
$DIMLIM
 70
     0
  9
$DIMTIH
 70
     0
  9
$DIMTOH
 70
     0
  9
$DIMSE1
 70
     0
  9
$DIMSE2
 70
     0
  9
$DIMTAD
 70
     1
  9
$DIMZIN
 70
     0
  9
$DIMBLK
  1

  9
$DIMASO
 70
     0
  9
$DIMSHO
 70
     0
  9
$DIMPOST
  1

  9
$DIMAPOST
  1

  9
$DIMALT
 70
     0
  9
$DIMALTD
 70
     2
  9
$DIMALTF
 40
25.399999999999999
  9
$DIMLFAC
 40
1.0
  9
$DIMTOFL
 70
     1
  9
$DIMTVP
 40
0.0
  9
$DIMTIX
 70
     1
  9
$DIMSOXD
 70
     0
  9
$DIMSAH
 70
     0
  9
$DIMBLK1
  1

  9
$DIMBLK2
  1

  9
$DIMSTYLE
  2
STANDARD
  9
$DIMCLRD
 70
     0
  9
$DIMCLRE
 70
     0
  9
$DIMCLRT
 70
     4
  9
$DIMTFAC
 40
1.0
  9
$DIMGAP
 40
1.0
  9
$LUNITS
 70
     2
  9
$LUPREC
 70
     1
  9
$SKETCHINC
 40
0.1
  9
$FILLETRAD
 40
2.0
  9
$AUNITS
 70
     0
  9
$AUPREC
 70
     1
  9
$MENU
  1
C:\R13\WIN\SUPPORT\ACAD-I
  9
$ELEVATION
 40
0.0
  9
$PELEVATION
 40
0.0
  9
$THICKNESS
 40
0.0
  9
$LIMCHECK
 70
     0
  9
$BLIPMODE
 70
     0
  9
$CHAMFERA
 40
0.0
  9
$CHAMFERB
 40
0.0
  9
$SKPOLY
 70
     0
  9
$TDCREATE
 40
2450834.7095229169
  9
$TDUPDATE
 40
2457164.3870329629
  9
$TDINDWG
 40
0.1531977199
  9
$TDUSRTIMER
 40
2456694.2900523501
  9
$USRTIMER
 70
     1
  9
$ANGBASE
 50
0.0
  9
$ANGDIR
 70
     0
  9
$PDMODE
 70
     0
  9
$PDSIZE
 40
0.0
  9
$PLINEWID
 40
0.0
  9
$COORDS
 70
     1
  9
$SPLFRAME
 70
     0
  9
$SPLINETYPE
 70
     6
  9
$SPLINESEGS
 70
     8
  9
$ATTDIA
 70
     0
  9
$ATTREQ
 70
     1
  9
$HANDLING
 70
     1
  9
$HANDSEED
  5
192B
  9
$SURFTAB1
 70
     6
  9
$SURFTAB2
 70
     6
  9
$SURFTYPE
 70
     6
  9
$SURFU
 70
     6
  9
$SURFV
 70
     6
  9
$UCSNAME
  2

  9
$UCSORG
 10
0.0
 20
0.0
 30
0.0
  9
$UCSXDIR
 10
1.0
 20
0.0
 30
0.0
  9
$UCSYDIR
 10
0.0
 20
1.0
 30
0.0
  9
$PUCSNAME
  2

  9
$PUCSORG
 10
0.0
 20
0.0
 30
0.0
  9
$PUCSXDIR
 10
1.0
 20
0.0
 30
0.0
  9
$PUCSYDIR
 10
0.0
 20
1.0
 30
0.0
  9
$USERI1
 70
     4
  9
$USERI2
 70
     1
  9
$USERI3
 70
     0
  9
$USERI4
 70
     0
  9
$USERI5
 70
     0
  9
$USERR1
 40
1.0
  9
$USERR2
 40
3.0
  9
$USERR3
 40
3.0
  9
$USERR4
 40
3.0
  9
$USERR5
 40
10.0
  9
$WORLDVIEW
 70
     1
  9
$SHADEDGE
 70
     3
  9
$SHADEDIF
 70
    70
  9
$TILEMODE
 70
     1
  9
$MAXACTVP
 70
    16
  9
$PLIMCHECK
 70
     0
  9
$PEXTMIN
 10
1.0000000000000000E+020
 20
1.0000000000000000E+020
 30
1.0000000000000000E+020
  9
$PEXTMAX
 10
-1.0000000000000000E+020
 20
-1.0000000000000000E+020
 30
-1.0000000000000000E+020
  9
$PLIMMIN
 10
0.0
 20
0.0
  9
$PLIMMAX
 10
0.0
 20
0.0
  9
$UNITMODE
 70
     0
  9
$VISRETAIN
 70
     0
  9
$PLINEGEN
 70
     0
  9
$PSLTSCALE
 70
     0
  0
ENDSEC
  0
SECTION
  2
TABLES
  0
TABLE
  2
VPORT
 70
     1
  0
VPORT
  2
*ACTIVE
 70
     0
 10
0.0
 20
0.0
 11
1.0
 21
1.0
 12
227.02991452991449
 22
125.0
 13
0.0
 23
0.0
 14
10.0
 24
10.0
 15
10.0
 25
10.0
 16
0.0
 26
0.0
 36
1.0
 17
0.0
 27
0.0
 37
0.0
 40
250.0
 41
1.816239316239316
 42
50.0
 43
0.0
 44
0.0
 50
0.0
 51
0.0
 71
    16
 72
   100
 73
     1
 74
     0
 75
     0
 76
     0
 77
     0
 78
     0
  0
ENDTAB
  0
TABLE
  2
LTYPE
 70
     3
  0
LTYPE
  2
CONTINUOUS
 70
     0
  3
Solid Line
 72
    65
 73
     0
 40
0.0
  0
LTYPE
  2
PHANTOM2
 70
     0
  3
___ _ _ ___ _ _ ___ _ _ ___ _ _
 72
    65
 73
     6
 40
1.25
 49
0.625
 49
-0.125
 49
0.125
 49
-0.125
 49
0.125
 49
-0.125
  0
LTYPE
  2
CENTER
 70
     0
  3
____ _ ____ _ ____ _ ____ _ ____ _ ____ _ ____
 72
    65
 73
     4
 40
2.0
 49
1.25
 49
-0.25
 49
0.25
 49
-0.25
  0
ENDTAB
  0
TABLE
  2
LAYER
 70
     3
  0
LAYER
  2
0
 70
     0
 62
     7
  6
CONTINUOUS
  0
LAYER
  2
1
 70
     0
 62
     1
  6
CENTER
  0
LAYER
  2
3
 70
     0
 62
     3
  6
CONTINUOUS
  0
ENDTAB
  0
TABLE
  2
STYLE
 70
     2
  0
STYLE
  2
STANDARD
 70
     0
 40
0.0
 41
1.0
 50
0.0
 71
     0
 42
0.2
  3
SIMPLEX
  4
BIGFONT
  0
STYLE
  2
STANDARD1
 70
     0
 40
0.0
 41
1.0
 50
0.0
 71
     0
 42
3.0
  3
txt
  4

  0
ENDTAB
  0
TABLE
  2
VIEW
 70
     0
  0
ENDTAB
  0
TABLE
  2
UCS
 70
     0
  0
ENDTAB
  0
TABLE
  2
APPID
 70
    32
  0
APPID
  2
ACAD
 70
     0
  0
APPID
  2
ACADANNOTATIVE
 70
     0
  0
APPID
  2
GENIUS_GENOREF_13
 70
     0
  0
APPID
  2
GENIUS_GENOENT_13
 70
     0
  0
APPID
  2
GENIUS_GENBH_13
 70
     0
  0
APPID
  2
GENIUS_GENOBJ_13
 70
     0
  0
APPID
  2
GENIUS_GENODEF_13
 70
     0
  0
APPID
  2
GENIUS_GENOLIS_13
 70
     0
  0
APPID
  2
GENIUS_GENOBJ-NBEHI-BHF_13
 70
     0
  0
APPID
  2
GENIUS_GENOBJ-NBEHI-BHB_13
 70
     0
  0
APPID
  2
GENIUS_GENOBJ-F-PART_13
 70
     0
  0
APPID
  2
GENIUS_GEFSTDP_13
 70
     0
  0
APPID
  2
GENIUS_GENOBJ-N-RSSYM_13
 70
     0
  0
APPID
  2
GENIUS_GENSYMENT_13
 70
     0
  0
APPID
  2
GENIUS_GENOBJ-N-TIT_13
 70
     0
  0
APPID
  2
GENIUS_GENTITLE_13
 70
     0
  0
APPID
  2
GENIUS_GENZVEED_13
 70
     0
  0
APPID
  2
GENIUS_GENOBJ-N-LEADER_13
 70
     0
  0
APPID
  2
GENIUS_GENOBJ-N-FIL_13
 70
     0
  0
APPID
  2
GENIUS_GENOBJ-N-SEC_13
 70
     0
  0
APPID
  2
GENIUS_GENOBJ-N-CRS_13
 70
     0
  0
APPID
  2
GENIUS_GENOBJ-N-ZOO_13
 70
     0
  0
APPID
  2
GENIUS_GENZOO_13
 70
     0
  0
APPID
  2
GENIUS_GENOBJ-F-TOL_13
 70
     0
  0
APPID
  2
GENIUS_GENFIL_13
 70
     0
  0
APPID
  2
GENIUS_GENOBJ-N-CHA_13
 70
     0
  0
APPID
  2
ACAD_MLEADERVER
 70
     0
  0
APPID
  2
ACAD_EXEMPT_FROM_CAD_STAND
 70
     0
  0
APPID
  2
ACAD_NAV_VCDISPLAY
 70
     0
  0
APPID
  2
ACAD_EXEMPT_FROM_CAD_STANDARDS
 70
     0
  0
APPID
  2
ACAD_DSTYLE_DIMJAG
 70
     0
  0
APPID
  2
ACAD_DSTYLE_DIMTALN
 70
     0
  0
ENDTAB
  0
TABLE
  2
DIMSTYLE
 70
     1
  0
DIMSTYLE
  2
STANDARD
 70
     0
  3

  4

  5

  6

  7

 40
1.0
 41
0.18
 42
0.0625
 43
0.38
 44
0.18
 45
0.0
 46
0.0
 47
0.0
 48
0.0
140
0.18
141
0.09
142
0.0
143
25.399999999999999
144
1.0
145
0.0
146
1.0
147
0.09
 71
     0
 72
     0
 73
     1
 74
     1
 75
     0
 76
     0
 77
     0
 78
     0
170
     0
171
     2
172
     0
173
     0
174
     0
175
     0
176
     0
177
     0
178
     0
  0
ENDTAB
  0
ENDSEC
  0
SECTION
  2
BLOCKS
  0
BLOCK
  8
0
  2
$MODEL_SPACE
 70
     0
 10
0.0
 20
0.0
 30
0.0
  3
$MODEL_SPACE
  1

  0
ENDBLK
  5
E10
  8
0
  0
BLOCK
 67
     1
  8
0
  2
$PAPER_SPACE
 70
     0
 10
0.0
 20
0.0
 30
0.0
  3
$PAPER_SPACE
  1

  0
ENDBLK
  5
E0C
 67
     1
  8
0
  0
ENDSEC
  0
SECTION
  2
ENTITIES
  0
TEXT
  5
E90
  8
0
 62
     3
 10
0.0
 20
0.0
 30
0.0
 40
10.0
  1
ELP40-M12X50
  7
STANDARD1
  0
LINE
  5
1679
  8
1
 10
120.0
 20
115.5
 30
0.0
 11
120.0
 21
47.0
 31
0.0
  0
LINE
  5
167A
  8
0
 10
114.0
 20
111.4265
 30
0.0
 11
114.0
 21
63.0
 31
0.0
  0
LINE
  5
167B
  8
0
 10
126.0
 20
63.0
 30
0.0
 11
126.0
 21
111.4265
 31
0.0
  0
LINE
  5
167C
  8
0
 10
126.0
 20
111.4265
 30
0.0
 11
114.0
 21
111.4265
 31
0.0
  0
LINE
  5
167D
  8
0
 10
124.9265
 20
112.5
 30
0.0
 11
115.0735
 21
112.5
 31
0.0
  0
LINE
  5
167E
  8
0
 10
115.0735
 20
112.5
 30
0.0
 11
114.0
 21
111.4265
 31
0.0
  0
LINE
  5
167F
  8
0
 10
126.0
 20
111.4265
 30
0.0
 11
124.9265
 21
112.5
 31
0.0
  0
LINE
  5
1680
  8
0
 10
111.5
 20
63.0
 30
0.0
 11
111.5
 21
57.830338717125869
 31
0.0
  0
LINE
  5
1681
  8
0
 10
128.5
 20
63.0
 30
0.0
 11
111.5
 21
63.0
 31
0.0
  0
LINE
  5
1682
  8
0
 10
128.5
 20
57.830338717125869
 30
0.0
 11
128.5
 21
63.0
 31
0.0
  0
POLYLINE
  5
1683
  8
0
 66
     1
 10
0.0
 20
0.0
 30
0.0
  0
VERTEX
  5
18BD
  8
0
 10
115.75
 20
63.0
 30
0.0
  0
VERTEX
  5
18BE
  8
0
 10
116.8125
 20
62.976397627273172
 30
0.0
  0
VERTEX
  5
18BF
  8
0
 10
117.875
 20
62.907000060924361
 30
0.0
  0
VERTEX
  5
18C0
  8
0
 10
118.9386695674206
 20
62.79550198761649
 30
0.0
  0
VERTEX
  5
18C1
  8
0
 10
120.0
 20
62.647658983217298
 30
0.0
  0
SEQEND
  5
18C2
  8
0
  0
POLYLINE
  5
1684
  8
0
 66
     1
 10
0.0
 20
0.0
 30
0.0
  0
VERTEX
  5
18C3
  8
0
 10
111.5
 20
62.647658983217298
 30
0.0
  0
VERTEX
  5
18C4
  8
0
 10
112.5556477300867
 20
62.794802596097497
 30
0.0
  0
VERTEX
  5
18C5
  8
0
 10
113.61544542779551
 20
62.906178459100481
 30
0.0
  0
VERTEX
  5
18C6
  8
0
 10
114.6812343280983
 20
62.976119883790027
 30
0.0
  0
VERTEX
  5
18C7
  8
0
 10
115.75
 20
63.0
 30
0.0
  0
SEQEND
  5
18C8
  8
0
  0
POLYLINE
  5
1685
  8
0
 66
     1
 10
0.0
 20
0.0
 30
0.0
  0
VERTEX
  5
18C9
  8
0
 10
124.25
 20
63.0
 30
0.0
  0
VERTEX
  5
18CA
  8
0
 10
125.3125
 20
62.976397627273172
 30
0.0
  0
VERTEX
  5
18CB
  8
0
 10
126.375
 20
62.907000060924361
 30
0.0
  0
VERTEX
  5
18CC
  8
0
 10
127.4386695674206
 20
62.79550198761649
 30
0.0
  0
VERTEX
  5
18CD
  8
0
 10
128.5
 20
62.647658983217298
 30
0.0
  0
SEQEND
  5
18CE
  8
0
  0
POLYLINE
  5
1686
  8
0
 66
     1
 10
0.0
 20
0.0
 30
0.0
  0
VERTEX
  5
18CF
  8
0
 10
120.0
 20
62.647658983217298
 30
0.0
  0
VERTEX
  5
18D0
  8
0
 10
121.0556477300867
 20
62.794802596097497
 30
0.0
  0
VERTEX
  5
18D1
  8
0
 10
122.11544542779551
 20
62.906178459100481
 30
0.0
  0
VERTEX
  5
18D2
  8
0
 10
123.1812343280983
 20
62.976119883790027
 30
0.0
  0
VERTEX
  5
18D3
  8
0
 10
124.25
 20
63.0
 30
0.0
  0
SEQEND
  5
18D4
  8
0
  0
LINE
  5
1687
  8
0
 10
120.0
 20
62.647658983217298
 30
0.0
 11
120.0
 21
57.830338717125869
 31
0.0
  0
POLYLINE
  5
1688
  8
0
 66
     1
 10
0.0
 20
0.0
 30
0.0
  0
VERTEX
  5
18D5
  8
0
 10
128.5
 20
57.830338717125869
 30
0.0
  0
VERTEX
  5
18D6
  8
0
 10
127.3947987084492
 20
58.160406099599918
 30
0.0
  0
VERTEX
  5
18D7
  8
0
 10
126.2737852803937
 20
58.40744278040119
 30
0.0
  0
VERTEX
  5
18D8
  8
0
 10
125.1140560726536
 20
58.555287974171733
 30
0.0
  0
VERTEX
  5
18D9
  8
0
 10
123.9477823368746
 20
58.585393948025448
 30
0.0
  0
VERTEX
  5
18DA
  8
0
 10
122.9558061210884
 20
58.514013078657278
 30
0.0
  0
VERTEX
  5
18DB
  8
0
 10
121.97077749749749
 20
58.359675544884048
 30
0.0
  0
VERTEX
  5
18DC
  8
0
 10
120.9790752236505
 20
58.126847243574609
 30
0.0
  0
VERTEX
  5
18DD
  8
0
 10
120.0
 20
57.830338717125869
 30
0.0
  0
SEQEND
  5
18DE
  8
0
  0
POLYLINE
  5
1689
  8
0
 66
     1
 10
0.0
 20
0.0
 30
0.0
  0
VERTEX
  5
18DF
  8
0
 10
120.0
 20
57.830338717125869
 30
0.0
  0
VERTEX
  5
18E0
  8
0
 10
118.8947987084492
 20
58.160406099599918
 30
0.0
  0
VERTEX
  5
18E1
  8
0
 10
117.7737852803936
 20
58.40744278040119
 30
0.0
  0
VERTEX
  5
18E2
  8
0
 10
116.6140560726535
 20
58.555287974171733
 30
0.0
  0
VERTEX
  5
18E3
  8
0
 10
115.4477823368746
 20
58.585393948025448
 30
0.0
  0
VERTEX
  5
18E4
  8
0
 10
114.4558061210884
 20
58.514013078657278
 30
0.0
  0
VERTEX
  5
18E5
  8
0
 10
113.47077749749749
 20
58.359675544884048
 30
0.0
  0
VERTEX
  5
18E6
  8
0
 10
112.4790752236505
 20
58.126847243574609
 30
0.0
  0
VERTEX
  5
18E7
  8
0
 10
111.5
 20
57.830338717125869
 30
0.0
  0
SEQEND
  5
18E8
  8
0
  0
LINE
  5
168A
  8
0
 10
111.5
 20
58.589528095680691
 30
0.0
 11
100.25
 21
52.094337567297401
 31
0.0
  0
LINE
  5
168B
  8
0
 10
139.75
 20
52.094337567297401
 30
0.0
 11
128.5
 21
58.589528095680691
 31
0.0
  0
LINE
  5
168C
  8
0
 10
140.0
 20
50.0
 30
0.0
 11
100.0
 21
50.0
 31
0.0
  0
LINE
  5
168D
  8
0
 10
100.0
 20
51.661324865405192
 30
0.0
 11
100.0
 21
50.0
 31
0.0
  0
LINE
  5
168E
  8
0
 10
140.0
 20
50.0
 30
0.0
 11
140.0
 21
51.661324865405192
 31
0.0
  0
LINE
  5
168F
  8
0
 10
139.75
 20
52.094337567297401
 30
0.0
 11
100.25
 21
52.094337567297401
 31
0.0
  0
LINE
  5
1690
  8
0
 10
140.0
 20
51.661324865405192
 30
0.0
 11
100.0
 21
51.661324865405192
 31
0.0
  0
ARC
  5
1691
  8
0
 10
100.5
 20
51.661324865405192
 30
0.0
 40
0.5000000000000029
 50
120.00000000000161
 51
180.0
  0
ARC
  5
1692
  8
0
 10
139.5
 20
51.661324865405192
 30
0.0
 40
0.5000000000000036
 50
0.0
 51
59.999999999998408
  0
LINE
  5
1693
  8
3
 10
115.0735
 20
112.5
 30
0.0
 11
115.0735
 21
63.0
 31
0.0
  0
LINE
  5
1696
  8
3
 10
124.9265
 20
112.5
 30
0.0
 11
124.9265
 21
63.0
 31
0.0
  0
LINE
  5
169D
  8
1
 10
50.0
 20
115.5
 30
0.0
 11
50.0
 21
47.0
 31
0.0
  0
LINE
  5
169E
  8
0
 10
58.5
 20
63.0
 30
0.0
 11
41.5
 21
63.0
 31
0.0
  0
LINE
  5
169F
  8
0
 10
41.5
 20
63.0
 30
0.0
 11
40.185045423776359
 21
62.647658983217241
 31
0.0
  0
LINE
  5
16A0
  8
0
 10
59.814954576223641
 20
62.647658983217241
 30
0.0
 11
58.5
 21
63.0
 31
0.0
  0
LINE
  5
16A1
  8
0
 10
45.073499999999989
 20
112.5
 30
0.0
 11
44.0
 21
111.4265
 31
0.0
  0
LINE
  5
16A2
  8
0
 10
56.0
 20
111.4265
 30
0.0
 11
54.926500000000011
 21
112.5
 31
0.0
  0
LINE
  5
16A3
  8
0
 10
54.926500000000011
 20
112.5
 30
0.0
 11
45.073499999999989
 21
112.5
 31
0.0
  0
LINE
  5
16A4
  8
0
 10
44.0
 20
111.4265
 30
0.0
 11
44.0
 21
63.0
 31
0.0
  0
LINE
  5
16A5
  8
0
 10
56.0
 20
63.0
 30
0.0
 11
56.0
 21
111.4265
 31
0.0
  0
LINE
  5
16A6
  8
0
 10
56.0
 20
111.4265
 30
0.0
 11
44.0
 21
111.4265
 31
0.0
  0
LINE
  5
16A7
  8
0
 10
59.814954576223641
 20
62.647658983217241
 30
0.0
 11
59.814954576223641
 21
57.830338717125841
 31
0.0
  0
POLYLINE
  5
16A8
  8
0
 66
     1
 10
0.0
 20
0.0
 30
0.0
  0
VERTEX
  5
18E9
  8
0
 10
57.361215932167717
 20
63.0
 30
0.0
  0
VERTEX
  5
18EA
  8
0
 10
57.9746505931817
 20
62.976397627273172
 30
0.0
  0
VERTEX
  5
18EB
  8
0
 10
58.588823663698939
 20
62.906890279549089
 30
0.0
  0
VERTEX
  5
18EC
  8
0
 10
59.202563865767608
 20
62.795423444022838
 30
0.0
  0
VERTEX
  5
18ED
  8
0
 10
59.814954576223641
 20
62.647658983217241
 30
0.0
  0
SEQEND
  5
18EE
  8
0
  0
LINE
  5
16A9
  8
0
 10
54.907477288111821
 20
62.647658983217241
 30
0.0
 11
54.907477288111821
 21
57.830338717125841
 31
0.0
  0
LINE
  5
16AA
  8
0
 10
45.092522711888179
 20
62.647658983217241
 30
0.0
 11
45.092522711888179
 21
57.830338717125841
 31
0.0
  0
POLYLINE
  5
16AB
  8
0
 66
     1
 10
0.0
 20
0.0
 30
0.0
  0
VERTEX
  5
18EF
  8
0
 10
40.185045423776359
 20
62.647658983217241
 30
0.0
  0
VERTEX
  5
18F0
  8
0
 10
40.794832453310399
 20
62.794868409742087
 30
0.0
  0
VERTEX
  5
18F1
  8
0
 10
41.407018091170912
 20
62.906270923699793
 30
0.0
  0
VERTEX
  5
18F2
  8
0
 10
42.021731919459192
 20
62.976119883789998
 30
0.0
  0
VERTEX
  5
18F3
  8
0
 10
42.638784067832269
 20
63.0
 30
0.0
  0
SEQEND
  5
18F4
  8
0
  0
LINE
  5
16AC
  8
0
 10
40.185045423776359
 20
62.647658983217241
 30
0.0
 11
40.185045423776359
 21
57.830338717125841
 31
0.0
  0
POLYLINE
  5
16AD
  8
0
 66
     1
 10
0.0
 20
0.0
 30
0.0
  0
VERTEX
  5
18F5
  8
0
 10
42.638784067832269
 20
63.0
 30
0.0
  0
VERTEX
  5
18F6
  8
0
 10
43.252218728846252
 20
62.976397627273172
 30
0.0
  0
VERTEX
  5
18F7
  8
0
 10
43.866391799363477
 20
62.906890279549089
 30
0.0
  0
VERTEX
  5
18F8
  8
0
 10
44.479763300939361
 20
62.795501987616461
 30
0.0
  0
VERTEX
  5
18F9
  8
0
 10
45.092522711888179
 20
62.647658983217241
 30
0.0
  0
SEQEND
  5
18FA
  8
0
  0
POLYLINE
  5
16AE
  8
0
 66
     1
 10
0.0
 20
0.0
 30
0.0
  0
VERTEX
  5
18FB
  8
0
 10
45.092522711888179
 20
62.647658983217241
 30
0.0
  0
VERTEX
  5
18FC
  8
0
 10
46.316928243994752
 20
62.795383401473678
 30
0.0
  0
VERTEX
  5
18FD
  8
0
 10
48.15322575899674
 20
62.946863330787153
 30
0.0
  0
VERTEX
  5
18FE
  8
0
 10
50.0
 20
63.0
 30
0.0
  0
SEQEND
  5
18FF
  8
0
  0
POLYLINE
  5
16AF
  8
0
 66
     1
 10
0.0
 20
0.0
 30
0.0
  0
VERTEX
  5
1900
  8
0
 10
50.0
 20
63.0
 30
0.0
  0
VERTEX
  5
1901
  8
0
 10
51.226869322027952
 20
62.976397627273172
 30
0.0
  0
VERTEX
  5
1902
  8
0
 10
52.453738644055903
 20
62.907000060924361
 30
0.0
  0
VERTEX
  5
1903
  8
0
 10
53.681958466214198
 20
62.795501987616461
 30
0.0
  0
VERTEX
  5
1904
  8
0
 10
54.907477288111821
 20
62.647658983217241
 30
0.0
  0
SEQEND
  5
1905
  8
0
  0
POLYLINE
  5
16B0
  8
0
 66
     1
 10
0.0
 20
0.0
 30
0.0
  0
VERTEX
  5
1906
  8
0
 10
54.907477288111821
 20
62.647658983217241
 30
0.0
  0
VERTEX
  5
1907
  8
0
 10
55.516955789246829
 20
62.794802596097497
 30
0.0
  0
VERTEX
  5
1908
  8
0
 10
56.129449955506381
 20
62.906270923699793
 30
0.0
  0
VERTEX
  5
1909
  8
0
 10
56.744163783794647
 20
62.976119883789998
 30
0.0
  0
VERTEX
  5
190A
  8
0
 10
57.361215932167717
 20
63.0
 30
0.0
  0
SEQEND
  5
190B
  8
0
  0
POLYLINE
  5
16B1
  8
0
 66
     1
 10
0.0
 20
0.0
 30
0.0
  0
VERTEX
  5
190C
  8
0
 10
54.907477288111821
 20
57.830338717125841
 30
0.0
  0
VERTEX
  5
190D
  8
0
 10
54.061753408065762
 20
58.058015258535363
 30
0.0
  0
VERTEX
  5
190E
  8
0
 10
53.206302347735779
 20
58.251995859012588
 30
0.0
  0
VERTEX
  5
190F
  8
0
 10
52.337778621391031
 20
58.407303071520751
 30
0.0
  0
VERTEX
  5
1910
  8
0
 10
51.460093858179263
 20
58.517652210447828
 30
0.0
  0
VERTEX
  5
1911
  8
0
 10
50.231371508354883
 20
58.587710363972832
 30
0.0
  0
VERTEX
  5
1912
  8
0
 10
48.992622171493181
 20
58.555183516998603
 30
0.0
  0
VERTEX
  5
1913
  8
0
 10
47.735808258207911
 20
58.418404387336921
 30
0.0
  0
VERTEX
  5
1914
  8
0
 10
46.485452989351671
 20
58.186574117876432
 30
0.0
  0
VERTEX
  5
1915
  8
0
 10
45.092522711888179
 20
57.830338717125841
 30
0.0
  0
SEQEND
  5
1916
  8
0
  0
POLYLINE
  5
16B2
  8
0
 66
     1
 10
0.0
 20
0.0
 30
0.0
  0
VERTEX
  5
1917
  8
0
 10
45.092522711888179
 20
57.830338717125841
 30
0.0
  0
VERTEX
  5
1918
  8
0
 10
44.455780818141022
 20
58.15984294286536
 30
0.0
  0
VERTEX
  5
1919
  8
0
 10
43.807217044249562
 20
58.40744278040119
 30
0.0
  0
VERTEX
  5
191A
  8
0
 10
43.140277603813111
 20
58.555481223963461
 30
0.0
  0
VERTEX
  5
191B
  8
0
 10
42.464298618672949
 20
58.585393948025448
 30
0.0
  0
VERTEX
  5
191C
  8
0
 10
41.893088814247221
 20
58.514561350158772
 30
0.0
  0
VERTEX
  5
191D
  8
0
 10
41.322874342469419
 20
58.35967554488402
 30
0.0
  0
VERTEX
  5
191E
  8
0
 10
40.751204294640523
 20
58.12728069809242
 30
0.0
  0
VERTEX
  5
191F
  8
0
 10
40.185045423776359
 20
57.830338717125841
 30
0.0
  0
SEQEND
  5
1920
  8
0
  0
POLYLINE
  5
16B3
  8
0
 66
     1
 10
0.0
 20
0.0
 30
0.0
  0
VERTEX
  5
1921
  8
0
 10
59.814954576223641
 20
57.830338717125841
 30
0.0
  0
VERTEX
  5
1922
  8
0
 10
59.178212682476477
 20
58.15984294286536
 30
0.0
  0
VERTEX
  5
1923
  8
0
 10
58.52964890858501
 20
58.40744278040119
 30
0.0
  0
VERTEX
  5
1924
  8
0
 10
57.862709468148559
 20
58.555481223963461
 30
0.0
  0
VERTEX
  5
1925
  8
0
 10
57.186730483008397
 20
58.585393948025448
 30
0.0
  0
VERTEX
  5
1926
  8
0
 10
56.615520678582662
 20
58.514561350158772
 30
0.0
  0
VERTEX
  5
1927
  8
0
 10
56.045306206804881
 20
58.35967554488402
 30
0.0
  0
VERTEX
  5
1928
  8
0
 10
55.473636158975978
 20
58.12728069809242
 30
0.0
  0
VERTEX
  5
1929
  8
0
 10
54.907477288111821
 20
57.830338717125841
 30
0.0
  0
SEQEND
  5
192A
  8
0
  0
LINE
  5
16B4
  8
0
 10
40.185045423776359
 20
57.830338717125841
 30
0.0
 11
30.25
 21
52.094337567297401
 31
0.0
  0
LINE
  5
16B5
  8
0
 10
69.75
 20
52.094337567297401
 30
0.0
 11
59.81495457622362
 21
57.830338717125841
 31
0.0
  0
LINE
  5
16B6
  8
0
 10
30.0
 20
51.661324865405163
 30
0.0
 11
30.0
 21
50.0
 31
0.0
  0
LINE
  5
16B7
  8
0
 10
70.0
 20
50.0
 30
0.0
 11
70.0
 21
51.661324865405163
 31
0.0
  0
LINE
  5
16B8
  8
0
 10
70.0
 20
50.0
 30
0.0
 11
30.0
 21
50.0
 31
0.0
  0
ARC
  5
16B9
  8
0
 10
30.5
 20
51.661324865405163
 30
0.0
 40
0.5000000000000029
 50
120.00000000000141
 51
180.0
  0
ARC
  5
16BA
  8
0
 10
69.5
 20
51.661324865405163
 30
0.0
 40
0.5000000000000036
 50
0.0
 51
59.999999999998487
  0
LINE
  5
16BB
  8
0
 10
69.75
 20
52.094337567297401
 30
0.0
 11
30.25
 21
52.094337567297401
 31
0.0
  0
LINE
  5
16BC
  8
0
 10
70.0
 20
51.661324865405163
 30
0.0
 11
30.0
 21
51.661324865405163
 31
0.0
  0
LINE
  5
16BD
  8
3
 10
45.073499999999989
 20
112.5
 30
0.0
 11
45.073499999999989
 21
63.0
 31
0.0
  0
LINE
  5
16C0
  8
3
 10
54.926500000000011
 20
112.5
 30
0.0
 11
54.926500000000011
 21
63.0
 31
0.0
  0
LINE
  5
16C2
  8
1
 10
50.0
 20
139.5
 30
0.0
 11
50.0
 21
185.5
 31
0.0
  0
LINE
  5
16C3
  8
1
 10
73.000000000000014
 20
162.5
 30
0.0
 11
26.999999999999979
 21
162.5
 31
0.0
  0
LINE
  5
16C5
  8
0
 10
54.907477288111863
 20
171.0
 30
0.0
 11
45.092522711888193
 21
171.0
 31
0.0
  0
LINE
  5
16C6
  8
0
 10
45.092522711888193
 20
171.0
 30
0.0
 11
40.18504542377638
 21
162.5
 31
0.0
  0
LINE
  5
16C7
  8
0
 10
40.18504542377638
 20
162.5
 30
0.0
 11
45.092522711888193
 21
154.0
 31
0.0
  0
LINE
  5
16C8
  8
0
 10
45.092522711888193
 20
154.0
 30
0.0
 11
54.907477288111863
 21
154.0
 31
0.0
  0
LINE
  5
16C9
  8
0
 10
54.907477288111863
 20
154.0
 30
0.0
 11
59.81495457622367
 21
162.5
 31
0.0
  0
LINE
  5
16CA
  8
0
 10
59.81495457622367
 20
162.5
 30
0.0
 11
54.907477288111863
 21
171.0
 31
0.0
  0
CIRCLE
  5
16CC
  8
0
 10
50.0
 20
162.5
 30
0.0
 40
6.0
  0
CIRCLE
  5
16CF
  8
0
 10
50.0
 20
162.5
 30
0.0
 40
20.000000000000021
  0
CIRCLE
  5
16D0
  8
0
 10
50.0
 20
162.5
 30
0.0
 40
8.4999999999999734
  0
CIRCLE
  5
16D1
  8
3
 10
49.999999999999972
 20
162.5
 30
0.0
 40
4.926499999999975
  0
ENDSEC
  0
EOF
