  0
SECTION
  2
HEADER
  9
$ACADVER
  1
AC1009
  9
$INSBASE
 10
0.0
 20
0.0
 30
0.0
  9
$EXTMIN
 10
0.0
 20
-2.960436562073669
 30
0.0
  9
$EXTMAX
 10
150.0
 20
190.5
 30
0.0
  9
$LIMMIN
 10
0.0
 20
0.0
  9
$LIMMAX
 10
375.0
 20
270.0
  9
$ORTHOMODE
 70
     1
  9
$REGENMODE
 70
     1
  9
$FILLMODE
 70
     1
  9
$QTEXTMODE
 70
     0
  9
$MIRRTEXT
 70
     0
  9
$DRAGMODE
 70
     2
  9
$LTSCALE
 40
6.0
  9
$OSMODE
 70
    37
  9
$ATTMODE
 70
     1
  9
$TEXTSIZE
 40
0.2
  9
$TRACEWID
 40
0.05
  9
$TEXTSTYLE
  7
STANDARD
  9
$CLAYER
  8
0
  9
$CELTYPE
  6
BYLAYER
  9
$CECOLOR
 62
   256
  9
$DIMSCALE
 40
1.0
  9
$DIMASZ
 40
3.0
  9
$DIMEXO
 40
1.0
  9
$DIMDLI
 40
6.0
  9
$DIMRND
 40
0.0
  9
$DIMDLE
 40
0.0
  9
$DIMEXE
 40
1.0
  9
$DIMTP
 40
495.0
  9
$DIMTM
 40
0.0
  9
$DIMTXT
 40
3.0
  9
$DIMCEN
 40
0.0
  9
$DIMTSZ
 40
0.0
  9
$DIMTOL
 70
     0
  9
$DIMLIM
 70
     0
  9
$DIMTIH
 70
     0
  9
$DIMTOH
 70
     0
  9
$DIMSE1
 70
     0
  9
$DIMSE2
 70
     0
  9
$DIMTAD
 70
     1
  9
$DIMZIN
 70
     0
  9
$DIMBLK
  1

  9
$DIMASO
 70
     0
  9
$DIMSHO
 70
     0
  9
$DIMPOST
  1

  9
$DIMAPOST
  1

  9
$DIMALT
 70
     0
  9
$DIMALTD
 70
     2
  9
$DIMALTF
 40
25.399999999999999
  9
$DIMLFAC
 40
1.0
  9
$DIMTOFL
 70
     1
  9
$DIMTVP
 40
0.0
  9
$DIMTIX
 70
     1
  9
$DIMSOXD
 70
     0
  9
$DIMSAH
 70
     0
  9
$DIMBLK1
  1

  9
$DIMBLK2
  1

  9
$DIMSTYLE
  2
STANDARD
  9
$DIMCLRD
 70
     0
  9
$DIMCLRE
 70
     0
  9
$DIMCLRT
 70
     4
  9
$DIMTFAC
 40
1.0
  9
$DIMGAP
 40
1.0
  9
$LUNITS
 70
     2
  9
$LUPREC
 70
     1
  9
$SKETCHINC
 40
0.1
  9
$FILLETRAD
 40
2.0
  9
$AUNITS
 70
     0
  9
$AUPREC
 70
     0
  9
$MENU
  1
C:\R13\WIN\SUPPORT\ACAD-I
  9
$ELEVATION
 40
0.0
  9
$PELEVATION
 40
0.0
  9
$THICKNESS
 40
0.0
  9
$LIMCHECK
 70
     0
  9
$BLIPMODE
 70
     0
  9
$CHAMFERA
 40
0.0
  9
$CHAMFERB
 40
0.0
  9
$SKPOLY
 70
     0
  9
$TDCREATE
 40
2450834.7095229169
  9
$TDUPDATE
 40
2457178.4193353821
  9
$TDINDWG
 40
0.1122956597
  9
$TDUSRTIMER
 40
2456694.2491502892
  9
$USRTIMER
 70
     1
  9
$ANGBASE
 50
0.0
  9
$ANGDIR
 70
     0
  9
$PDMODE
 70
     0
  9
$PDSIZE
 40
0.0
  9
$PLINEWID
 40
0.0
  9
$COORDS
 70
     1
  9
$SPLFRAME
 70
     0
  9
$SPLINETYPE
 70
     6
  9
$SPLINESEGS
 70
     8
  9
$ATTDIA
 70
     0
  9
$ATTREQ
 70
     1
  9
$HANDLING
 70
     1
  9
$HANDSEED
  5
1A7F
  9
$SURFTAB1
 70
     6
  9
$SURFTAB2
 70
     6
  9
$SURFTYPE
 70
     6
  9
$SURFU
 70
     6
  9
$SURFV
 70
     6
  9
$UCSNAME
  2

  9
$UCSORG
 10
0.0
 20
0.0
 30
0.0
  9
$UCSXDIR
 10
1.0
 20
0.0
 30
0.0
  9
$UCSYDIR
 10
0.0
 20
1.0
 30
0.0
  9
$PUCSNAME
  2

  9
$PUCSORG
 10
0.0
 20
0.0
 30
0.0
  9
$PUCSXDIR
 10
1.0
 20
0.0
 30
0.0
  9
$PUCSYDIR
 10
0.0
 20
1.0
 30
0.0
  9
$USERI1
 70
     4
  9
$USERI2
 70
     1
  9
$USERI3
 70
     0
  9
$USERI4
 70
     0
  9
$USERI5
 70
     0
  9
$USERR1
 40
1.0
  9
$USERR2
 40
3.0
  9
$USERR3
 40
3.0
  9
$USERR4
 40
3.0
  9
$USERR5
 40
10.0
  9
$WORLDVIEW
 70
     1
  9
$SHADEDGE
 70
     3
  9
$SHADEDIF
 70
    70
  9
$TILEMODE
 70
     1
  9
$MAXACTVP
 70
    16
  9
$PLIMCHECK
 70
     0
  9
$PEXTMIN
 10
1.0000000000000000E+020
 20
1.0000000000000000E+020
 30
1.0000000000000000E+020
  9
$PEXTMAX
 10
-1.0000000000000000E+020
 20
-1.0000000000000000E+020
 30
-1.0000000000000000E+020
  9
$PLIMMIN
 10
0.0
 20
0.0
  9
$PLIMMAX
 10
0.0
 20
0.0
  9
$UNITMODE
 70
     0
  9
$VISRETAIN
 70
     0
  9
$PLINEGEN
 70
     0
  9
$PSLTSCALE
 70
     0
  0
ENDSEC
  0
SECTION
  2
TABLES
  0
TABLE
  2
VPORT
 70
     1
  0
VPORT
  2
*ACTIVE
 70
     0
 10
0.0
 20
0.0
 11
1.0
 21
1.0
 12
245.19230769230771
 22
135.0
 13
0.0
 23
0.0
 14
10.0
 24
10.0
 15
10.0
 25
10.0
 16
0.0
 26
0.0
 36
1.0
 17
0.0
 27
0.0
 37
0.0
 40
270.0
 41
1.816239316239316
 42
50.0
 43
0.0
 44
0.0
 50
0.0
 51
0.0
 71
    16
 72
   100
 73
     1
 74
     0
 75
     0
 76
     0
 77
     0
 78
     0
  0
ENDTAB
  0
TABLE
  2
LTYPE
 70
     3
  0
LTYPE
  2
CONTINUOUS
 70
     0
  3
Solid Line
 72
    65
 73
     0
 40
0.0
  0
LTYPE
  2
PHANTOM2
 70
     0
  3
___ _ _ ___ _ _ ___ _ _ ___ _ _
 72
    65
 73
     6
 40
1.25
 49
0.625
 49
-0.125
 49
0.125
 49
-0.125
 49
0.125
 49
-0.125
  0
LTYPE
  2
CENTER
 70
     0
  3
____ _ ____ _ ____ _ ____ _ ____ _ ____ _ ____
 72
    65
 73
     4
 40
2.0
 49
1.25
 49
-0.25
 49
0.25
 49
-0.25
  0
ENDTAB
  0
TABLE
  2
LAYER
 70
     3
  0
LAYER
  2
0
 70
     0
 62
     7
  6
CONTINUOUS
  0
LAYER
  2
1
 70
     0
 62
     1
  6
CENTER
  0
LAYER
  2
3
 70
     0
 62
     3
  6
CONTINUOUS
  0
ENDTAB
  0
TABLE
  2
STYLE
 70
     2
  0
STYLE
  2
STANDARD
 70
     0
 40
0.0
 41
1.0
 50
0.0
 71
     0
 42
0.2
  3
SIMPLEX
  4
BIGFONT
  0
STYLE
  2
STANDARD1
 70
     0
 40
0.0
 41
1.0
 50
0.0
 71
     0
 42
3.0
  3
txt
  4

  0
ENDTAB
  0
TABLE
  2
VIEW
 70
     0
  0
ENDTAB
  0
TABLE
  2
UCS
 70
     0
  0
ENDTAB
  0
TABLE
  2
APPID
 70
    32
  0
APPID
  2
ACAD
 70
     0
  0
APPID
  2
ACADANNOTATIVE
 70
     0
  0
APPID
  2
GENIUS_GENOREF_13
 70
     0
  0
APPID
  2
GENIUS_GENOENT_13
 70
     0
  0
APPID
  2
GENIUS_GENBH_13
 70
     0
  0
APPID
  2
GENIUS_GENOBJ_13
 70
     0
  0
APPID
  2
GENIUS_GENODEF_13
 70
     0
  0
APPID
  2
GENIUS_GENOLIS_13
 70
     0
  0
APPID
  2
GENIUS_GENOBJ-NBEHI-BHF_13
 70
     0
  0
APPID
  2
GENIUS_GENOBJ-NBEHI-BHB_13
 70
     0
  0
APPID
  2
GENIUS_GENOBJ-F-PART_13
 70
     0
  0
APPID
  2
GENIUS_GEFSTDP_13
 70
     0
  0
APPID
  2
GENIUS_GENOBJ-N-RSSYM_13
 70
     0
  0
APPID
  2
GENIUS_GENSYMENT_13
 70
     0
  0
APPID
  2
GENIUS_GENOBJ-N-TIT_13
 70
     0
  0
APPID
  2
GENIUS_GENTITLE_13
 70
     0
  0
APPID
  2
GENIUS_GENZVEED_13
 70
     0
  0
APPID
  2
GENIUS_GENOBJ-N-LEADER_13
 70
     0
  0
APPID
  2
GENIUS_GENOBJ-N-FIL_13
 70
     0
  0
APPID
  2
GENIUS_GENOBJ-N-SEC_13
 70
     0
  0
APPID
  2
GENIUS_GENOBJ-N-CRS_13
 70
     0
  0
APPID
  2
GENIUS_GENOBJ-N-ZOO_13
 70
     0
  0
APPID
  2
GENIUS_GENZOO_13
 70
     0
  0
APPID
  2
GENIUS_GENOBJ-F-TOL_13
 70
     0
  0
APPID
  2
GENIUS_GENFIL_13
 70
     0
  0
APPID
  2
GENIUS_GENOBJ-N-CHA_13
 70
     0
  0
APPID
  2
ACAD_MLEADERVER
 70
     0
  0
APPID
  2
ACAD_EXEMPT_FROM_CAD_STAND
 70
     0
  0
APPID
  2
ACAD_NAV_VCDISPLAY
 70
     0
  0
APPID
  2
ACAD_EXEMPT_FROM_CAD_STANDARDS
 70
     0
  0
APPID
  2
ACAD_DSTYLE_DIMJAG
 70
     0
  0
APPID
  2
ACAD_DSTYLE_DIMTALN
 70
     0
  0
ENDTAB
  0
TABLE
  2
DIMSTYLE
 70
     1
  0
DIMSTYLE
  2
STANDARD
 70
     0
  3

  4

  5

  6

  7

 40
1.0
 41
0.18
 42
0.0625
 43
0.38
 44
0.18
 45
0.0
 46
0.0
 47
0.0
 48
0.0
140
0.18
141
0.09
142
0.0
143
25.399999999999999
144
1.0
145
0.0
146
1.0
147
0.09
 71
     0
 72
     0
 73
     1
 74
     1
 75
     0
 76
     0
 77
     0
 78
     0
170
     0
171
     2
172
     0
173
     0
174
     0
175
     0
176
     0
177
     0
178
     0
  0
ENDTAB
  0
ENDSEC
  0
SECTION
  2
BLOCKS
  0
BLOCK
  8
0
  2
$MODEL_SPACE
 70
     0
 10
0.0
 20
0.0
 30
0.0
  3
$MODEL_SPACE
  1

  0
ENDBLK
  5
E10
  8
0
  0
BLOCK
 67
     1
  8
0
  2
$PAPER_SPACE
 70
     0
 10
0.0
 20
0.0
 30
0.0
  3
$PAPER_SPACE
  1

  0
ENDBLK
  5
E0C
 67
     1
  8
0
  0
ENDSEC
  0
SECTION
  2
ENTITIES
  0
TEXT
  5
E90
  8
0
 62
     3
 10
0.0
 20
0.0
 30
0.0
 40
10.0
  1
ELP40-M10X70
  7
STANDARD1
  0
LINE
  5
1448
  8
1
 10
130.0
 20
125.5
 30
0.0
 11
130.0
 21
36.999999999999993
 31
0.0
  0
LINE
  5
1449
  8
0
 10
125.0
 20
121.5799999999999
 30
0.0
 11
125.0
 21
52.999999999999993
 31
0.0
  0
LINE
  5
144A
  8
0
 10
135.0
 20
52.999999999999993
 30
0.0
 11
135.0
 21
121.5799999999999
 31
0.0
  0
LINE
  5
144B
  8
0
 10
125.92
 20
122.5
 30
0.0
 11
125.0
 21
121.5799999999999
 31
0.0
  0
LINE
  5
144C
  8
0
 10
135.0
 20
121.5799999999999
 30
0.0
 11
134.08000000000001
 21
122.5
 31
0.0
  0
LINE
  5
144D
  8
0
 10
135.0
 20
121.5799999999999
 30
0.0
 11
125.0
 21
121.5799999999999
 31
0.0
  0
LINE
  5
144E
  8
0
 10
134.08000000000001
 20
122.5
 30
0.0
 11
125.92
 21
122.5
 31
0.0
  0
LINE
  5
14C3
  8
1
 10
60.0
 20
125.5
 30
0.0
 11
60.0
 21
37.0
 31
0.0
  0
LINE
  5
14C7
  8
0
 10
64.080000000000013
 20
122.5
 30
0.0
 11
55.920000000000023
 21
122.5
 31
0.0
  0
LINE
  5
14C8
  8
0
 10
55.920000000000023
 20
122.5
 30
0.0
 11
55.0
 21
121.58
 31
0.0
  0
LINE
  5
14C9
  8
0
 10
65.0
 20
121.58
 30
0.0
 11
64.080000000000013
 21
122.5
 31
0.0
  0
LINE
  5
14CA
  8
0
 10
65.0
 20
121.58
 30
0.0
 11
55.0
 21
121.58
 31
0.0
  0
LINE
  5
14CB
  8
0
 10
55.0
 20
121.58
 30
0.0
 11
55.0
 21
52.999999999999993
 31
0.0
  0
LINE
  5
14CC
  8
0
 10
65.0
 20
52.999999999999993
 30
0.0
 11
65.0
 21
121.58
 31
0.0
  0
LINE
  5
151F
  8
1
 10
36.999999999999979
 20
167.5
 30
0.0
 11
83.000000000000014
 21
167.5
 31
0.0
  0
LINE
  5
1520
  8
1
 10
60.0
 20
144.5
 30
0.0
 11
60.0
 21
190.5
 31
0.0
  0
LINE
  5
1522
  8
0
 10
64.907477288111863
 20
176.0
 30
0.0
 11
55.092522711888208
 21
176.0
 31
0.0
  0
LINE
  5
1523
  8
0
 10
69.81495457622367
 20
167.5
 30
0.0
 11
64.907477288111863
 21
176.0
 31
0.0
  0
LINE
  5
1524
  8
0
 10
55.092522711888208
 20
176.0
 30
0.0
 11
50.185045423776401
 21
167.5
 31
0.0
  0
LINE
  5
1525
  8
0
 10
50.185045423776401
 20
167.5
 30
0.0
 11
55.092522711888222
 21
159.0
 31
0.0
  0
LINE
  5
1526
  8
0
 10
55.092522711888222
 20
159.0
 30
0.0
 11
64.907477288111863
 21
159.0
 31
0.0
  0
LINE
  5
1528
  8
0
 10
64.907477288111863
 20
159.0
 30
0.0
 11
69.81495457622367
 21
167.5
 31
0.0
  0
CIRCLE
  5
1529
  8
0
 10
60.000000000000028
 20
167.5
 30
0.0
 40
5.0
  0
CIRCLE
  5
152B
  8
0
 10
60.0
 20
167.5
 30
0.0
 40
20.000000000000021
  0
CIRCLE
  5
152C
  8
0
 10
60.000000000000007
 20
167.5
 30
0.0
 40
8.4999999999999911
  0
CIRCLE
  5
15A9
  8
3
 10
60.0
 20
167.5
 30
0.0
 40
4.1879999999999988
  0
LINE
  5
15AA
  8
3
 10
64.188000000000073
 20
52.999999999999993
 30
0.0
 11
64.188000000000073
 21
122.3919999999999
 31
0.0
  0
LINE
  5
15AB
  8
3
 10
55.811999999999912
 20
52.999999999999993
 30
0.0
 11
55.811999999999912
 21
122.3919999999999
 31
0.0
  0
LINE
  5
15AC
  8
3
 10
134.1880000000001
 20
52.999999999999993
 30
0.0
 11
134.1880000000001
 21
122.3919999999999
 31
0.0
  0
LINE
  5
15AD
  8
3
 10
125.8119999999999
 20
52.999999999999993
 30
0.0
 11
125.8119999999999
 21
122.3919999999999
 31
0.0
  0
LINE
  5
16FB
  8
0
 10
138.5
 20
47.830338717125841
 30
0.0
 11
138.5
 21
53.0
 31
0.0
  0
LINE
  5
16FC
  8
0
 10
138.5
 20
53.0
 30
0.0
 11
121.5
 21
53.0
 31
0.0
  0
LINE
  5
16FD
  8
0
 10
121.5
 20
53.0
 30
0.0
 11
121.5
 21
47.830338717125841
 31
0.0
  0
POLYLINE
  5
16FE
  8
0
 66
     1
 10
0.0
 20
0.0
 30
0.0
 70
     8
  0
VERTEX
  5
16FF
  8
0
 10
125.75
 20
53.0
 30
0.0
 70
    32
  0
VERTEX
  5
1700
  8
0
 10
126.8132310007995
 20
52.976247591287859
 30
0.0
 70
    32
  0
VERTEX
  5
1701
  8
0
 10
127.875
 20
52.907000060924361
 30
0.0
 70
    32
  0
VERTEX
  5
1702
  8
0
 10
128.9391308150731
 20
52.795426959874817
 30
0.0
 70
    32
  0
VERTEX
  5
1703
  8
0
 10
130.0
 20
52.647658983217262
 30
0.0
 70
    32
  0
SEQEND
  5
1704
  8
0
  0
POLYLINE
  5
1705
  8
0
 66
     1
 10
0.0
 20
0.0
 30
0.0
 70
     8
  0
VERTEX
  5
1706
  8
0
 10
121.5
 20
52.647658983217262
 30
0.0
 70
    32
  0
VERTEX
  5
1707
  8
0
 10
122.5561052616209
 20
52.794841180344243
 30
0.0
 70
    32
  0
VERTEX
  5
1708
  8
0
 10
123.61544542779551
 20
52.906178459100481
 30
0.0
 70
    32
  0
VERTEX
  5
1709
  8
0
 10
124.6819823424441
 20
52.976033474923163
 30
0.0
 70
    32
  0
VERTEX
  5
170A
  8
0
 10
125.75
 20
53.0
 30
0.0
 70
    32
  0
SEQEND
  5
170B
  8
0
  0
POLYLINE
  5
170C
  8
0
 66
     1
 10
0.0
 20
0.0
 30
0.0
 70
     8
  0
VERTEX
  5
170D
  8
0
 10
134.25
 20
53.0
 30
0.0
 70
    32
  0
VERTEX
  5
170E
  8
0
 10
135.3132310007995
 20
52.976247591287859
 30
0.0
 70
    32
  0
VERTEX
  5
170F
  8
0
 10
136.375
 20
52.907000060924361
 30
0.0
 70
    32
  0
VERTEX
  5
1710
  8
0
 10
137.4391308150731
 20
52.795426959874817
 30
0.0
 70
    32
  0
VERTEX
  5
1711
  8
0
 10
138.5
 20
52.647658983217262
 30
0.0
 70
    32
  0
SEQEND
  5
1712
  8
0
  0
POLYLINE
  5
1713
  8
0
 66
     1
 10
0.0
 20
0.0
 30
0.0
 70
     8
  0
VERTEX
  5
1714
  8
0
 10
130.0
 20
52.647658983217262
 30
0.0
 70
    32
  0
VERTEX
  5
1715
  8
0
 10
131.0561052616209
 20
52.794841180344243
 30
0.0
 70
    32
  0
VERTEX
  5
1716
  8
0
 10
132.11544542779549
 20
52.906178459100481
 30
0.0
 70
    32
  0
VERTEX
  5
1717
  8
0
 10
133.18198234244409
 20
52.976033474923121
 30
0.0
 70
    32
  0
VERTEX
  5
1718
  8
0
 10
134.25
 20
53.0
 30
0.0
 70
    32
  0
SEQEND
  5
1719
  8
0
  0
LINE
  5
171A
  8
0
 10
130.0
 20
52.647658983217262
 30
0.0
 11
130.0
 21
47.830338717125841
 31
0.0
  0
POLYLINE
  5
171B
  8
0
 66
     1
 10
0.0
 20
0.0
 30
0.0
 70
     8
  0
VERTEX
  5
171C
  8
0
 10
138.5
 20
47.830338717125841
 30
0.0
 70
    32
  0
VERTEX
  5
171D
  8
0
 10
137.39479870844929
 20
48.160406099599918
 30
0.0
 70
    32
  0
VERTEX
  5
171E
  8
0
 10
136.27378528039361
 20
48.407442780401233
 30
0.0
 70
    32
  0
VERTEX
  5
171F
  8
0
 10
135.11405607265351
 20
48.555287974171733
 30
0.0
 70
    32
  0
VERTEX
  5
1720
  8
0
 10
133.94778233687461
 20
48.585393948025448
 30
0.0
 70
    32
  0
VERTEX
  5
1721
  8
0
 10
132.95580612108839
 20
48.514013078657321
 30
0.0
 70
    32
  0
VERTEX
  5
1722
  8
0
 10
131.97077749749749
 20
48.359675544884048
 30
0.0
 70
    32
  0
VERTEX
  5
1723
  8
0
 10
130.97907522365051
 20
48.126847243574638
 30
0.0
 70
    32
  0
VERTEX
  5
1724
  8
0
 10
130.0
 20
47.830338717125841
 30
0.0
 70
    32
  0
SEQEND
  5
1725
  8
0
  0
POLYLINE
  5
1726
  8
0
 66
     1
 10
0.0
 20
0.0
 30
0.0
 70
     8
  0
VERTEX
  5
1727
  8
0
 10
130.0
 20
47.830338717125841
 30
0.0
 70
    32
  0
VERTEX
  5
1728
  8
0
 10
128.89479870844929
 20
48.160406099599918
 30
0.0
 70
    32
  0
VERTEX
  5
1729
  8
0
 10
127.7737852803936
 20
48.407442780401233
 30
0.0
 70
    32
  0
VERTEX
  5
172A
  8
0
 10
126.6140560726535
 20
48.555287974171733
 30
0.0
 70
    32
  0
VERTEX
  5
172B
  8
0
 10
125.4477823368746
 20
48.585393948025448
 30
0.0
 70
    32
  0
VERTEX
  5
172C
  8
0
 10
124.4558061210884
 20
48.514013078657321
 30
0.0
 70
    32
  0
VERTEX
  5
172D
  8
0
 10
123.47077749749749
 20
48.359675544884048
 30
0.0
 70
    32
  0
VERTEX
  5
172E
  8
0
 10
122.4790752236506
 20
48.126847243574638
 30
0.0
 70
    32
  0
VERTEX
  5
172F
  8
0
 10
121.5
 20
47.830338717125841
 30
0.0
 70
    32
  0
SEQEND
  5
1730
  8
0
  0
LINE
  5
1731
  8
0
 10
121.5
 20
48.589528095680691
 30
0.0
 11
110.25
 21
42.094337567297387
 31
0.0
  0
LINE
  5
1732
  8
0
 10
149.75
 20
42.094337567297387
 30
0.0
 11
138.5
 21
48.589528095680691
 31
0.0
  0
LINE
  5
1733
  8
0
 10
110.0
 20
41.661324865405192
 30
0.0
 11
110.0
 21
40.0
 31
0.0
  0
LINE
  5
1734
  8
0
 10
150.0
 20
40.0
 30
0.0
 11
150.0
 21
41.661324865405192
 31
0.0
  0
LINE
  5
1735
  8
0
 10
150.0
 20
40.0
 30
0.0
 11
110.0
 21
40.0
 31
0.0
  0
ARC
  5
1736
  8
0
 10
110.5
 20
41.661324865405192
 30
0.0
 40
0.5000000000000029
 50
120.0
 51
180.0
  0
ARC
  5
1737
  8
0
 10
149.5
 20
41.661324865405192
 30
0.0
 40
0.5000000000000036
 50
0.0
 51
59.999999999999972
  0
LINE
  5
1738
  8
0
 10
149.75
 20
42.094337567297387
 30
0.0
 11
110.25
 21
42.094337567297387
 31
0.0
  0
LINE
  5
1739
  8
0
 10
150.0
 20
41.661324865405192
 30
0.0
 11
110.0
 21
41.661324865405192
 31
0.0
  0
LINE
  5
173A
  8
0
 10
69.81495457622367
 20
52.647658983217262
 30
0.0
 11
68.5
 21
53.0
 31
0.0
  0
LINE
  5
173B
  8
0
 10
68.5
 20
53.0
 30
0.0
 11
51.5
 21
53.0
 31
0.0
  0
LINE
  5
173C
  8
0
 10
51.5
 20
53.0
 30
0.0
 11
50.18504542377633
 21
52.647658983217262
 31
0.0
  0
POLYLINE
  5
173D
  8
0
 66
     1
 10
0.0
 20
0.0
 30
0.0
 70
     8
  0
VERTEX
  5
173E
  8
0
 10
50.18504542377633
 20
52.647658983217262
 30
0.0
 70
    32
  0
VERTEX
  5
173F
  8
0
 10
50.794523924911402
 20
52.794802596097519
 30
0.0
 70
    32
  0
VERTEX
  5
1740
  8
0
 10
51.406398410970091
 20
52.906178459100481
 30
0.0
 70
    32
  0
VERTEX
  5
1741
  8
0
 10
52.021731919459228
 20
52.976119883790027
 30
0.0
 70
    32
  0
VERTEX
  5
1742
  8
0
 10
52.638784067832262
 20
53.0
 30
0.0
 70
    32
  0
SEQEND
  5
1743
  8
0
  0
LINE
  5
1744
  8
0
 10
50.18504542377633
 20
52.647658983217262
 30
0.0
 11
50.18504542377633
 21
47.830338717125841
 31
0.0
  0
LINE
  5
1745
  8
0
 10
69.81495457622367
 20
52.647658983217262
 30
0.0
 11
69.81495457622367
 21
47.830338717125841
 31
0.0
  0
POLYLINE
  5
1746
  8
0
 66
     1
 10
0.0
 20
0.0
 30
0.0
 70
     8
  0
VERTEX
  5
1747
  8
0
 10
67.361215932167738
 20
53.0
 30
0.0
 70
    32
  0
VERTEX
  5
1748
  8
0
 10
67.974650593181707
 20
52.976397627273172
 30
0.0
 70
    32
  0
VERTEX
  5
1749
  8
0
 10
68.588085254195676
 20
52.907000060924361
 30
0.0
 70
    32
  0
VERTEX
  5
174A
  8
0
 10
69.202195165274816
 20
52.79550198761649
 30
0.0
 70
    32
  0
VERTEX
  5
174B
  8
0
 10
69.81495457622367
 20
52.647658983217262
 30
0.0
 70
    32
  0
SEQEND
  5
174C
  8
0
  0
LINE
  5
174D
  8
0
 10
64.907477288111807
 20
52.647658983217262
 30
0.0
 11
64.907477288111807
 21
47.830338717125841
 31
0.0
  0
LINE
  5
174E
  8
0
 10
55.092522711888193
 20
52.647658983217262
 30
0.0
 11
55.092522711888193
 21
47.830338717125841
 31
0.0
  0
POLYLINE
  5
174F
  8
0
 66
     1
 10
0.0
 20
0.0
 30
0.0
 70
     8
  0
VERTEX
  5
1750
  8
0
 10
52.638784067832262
 20
53.0
 30
0.0
 70
    32
  0
VERTEX
  5
1751
  8
0
 10
53.252218728846231
 20
52.976397627273172
 30
0.0
 70
    32
  0
VERTEX
  5
1752
  8
0
 10
53.865653389860249
 20
52.907000060924361
 30
0.0
 70
    32
  0
VERTEX
  5
1753
  8
0
 10
54.479763300939403
 20
52.79550198761649
 30
0.0
 70
    32
  0
VERTEX
  5
1754
  8
0
 10
55.092522711888193
 20
52.647658983217262
 30
0.0
 70
    32
  0
SEQEND
  5
1755
  8
0
  0
POLYLINE
  5
1756
  8
0
 66
     1
 10
0.0
 20
0.0
 30
0.0
 70
     8
  0
VERTEX
  5
1757
  8
0
 10
55.092522711888193
 20
52.647658983217262
 30
0.0
 70
    32
  0
VERTEX
  5
1758
  8
0
 10
56.311479714158217
 20
52.794802596097519
 30
0.0
 70
    32
  0
VERTEX
  5
1759
  8
0
 10
57.535228686275623
 20
52.906178459100481
 30
0.0
 70
    32
  0
VERTEX
  5
175A
  8
0
 10
58.765895703253868
 20
52.976119883790027
 30
0.0
 70
    32
  0
VERTEX
  5
175B
  8
0
 10
60.0
 20
53.0
 30
0.0
 70
    32
  0
SEQEND
  5
175C
  8
0
  0
POLYLINE
  5
175D
  8
0
 66
     1
 10
0.0
 20
0.0
 30
0.0
 70
     8
  0
VERTEX
  5
175E
  8
0
 10
60.0
 20
53.0
 30
0.0
 70
    32
  0
VERTEX
  5
175F
  8
0
 10
61.841535878002617
 20
52.947160934528142
 30
0.0
 70
    32
  0
VERTEX
  5
1760
  8
0
 10
63.683071756005241
 20
52.795383401473678
 30
0.0
 70
    32
  0
VERTEX
  5
1761
  8
0
 10
64.907477288111807
 20
52.647658983217262
 30
0.0
 70
    32
  0
SEQEND
  5
1762
  8
0
  0
POLYLINE
  5
1763
  8
0
 66
     1
 10
0.0
 20
0.0
 30
0.0
 70
     8
  0
VERTEX
  5
1764
  8
0
 10
64.907477288111807
 20
52.647658983217262
 30
0.0
 70
    32
  0
VERTEX
  5
1765
  8
0
 10
65.516955789246822
 20
52.794802596097519
 30
0.0
 70
    32
  0
VERTEX
  5
1766
  8
0
 10
66.128830275305518
 20
52.906178459100481
 30
0.0
 70
    32
  0
VERTEX
  5
1767
  8
0
 10
66.744163783794647
 20
52.976119883790027
 30
0.0
 70
    32
  0
VERTEX
  5
1768
  8
0
 10
67.361215932167738
 20
53.0
 30
0.0
 70
    32
  0
SEQEND
  5
1769
  8
0
  0
POLYLINE
  5
176A
  8
0
 66
     1
 10
0.0
 20
0.0
 30
0.0
 70
     8
  0
VERTEX
  5
176B
  8
0
 10
69.81495457622367
 20
47.830338717125841
 30
0.0
 70
    32
  0
VERTEX
  5
176C
  8
0
 10
69.178212682476484
 20
48.159842942865403
 30
0.0
 70
    32
  0
VERTEX
  5
176D
  8
0
 10
68.529648908584988
 20
48.407442780401233
 30
0.0
 70
    32
  0
VERTEX
  5
176E
  8
0
 10
67.86270946814858
 20
48.555481223963483
 30
0.0
 70
    32
  0
VERTEX
  5
176F
  8
0
 10
67.186730483008375
 20
48.585393948025448
 30
0.0
 70
    32
  0
VERTEX
  5
1770
  8
0
 10
66.615520678582641
 20
48.514561350158772
 30
0.0
 70
    32
  0
VERTEX
  5
1771
  8
0
 10
66.045306206804867
 20
48.359675544884048
 30
0.0
 70
    32
  0
VERTEX
  5
1772
  8
0
 10
65.473636158975978
 20
48.12728069809242
 30
0.0
 70
    32
  0
VERTEX
  5
1773
  8
0
 10
64.907477288111807
 20
47.830338717125841
 30
0.0
 70
    32
  0
SEQEND
  5
1774
  8
0
  0
POLYLINE
  5
1775
  8
0
 66
     1
 10
0.0
 20
0.0
 30
0.0
 70
     8
  0
VERTEX
  5
1776
  8
0
 10
64.907477288111807
 20
47.830338717125841
 30
0.0
 70
    32
  0
VERTEX
  5
1777
  8
0
 10
63.5145470106483
 20
48.186574117876432
 30
0.0
 70
    32
  0
VERTEX
  5
1778
  8
0
 10
62.299243708175879
 20
48.412943132682642
 30
0.0
 70
    32
  0
VERTEX
  5
1779
  8
0
 10
61.071041190335052
 20
48.550722967290397
 30
0.0
 70
    32
  0
VERTEX
  5
177A
  8
0
 10
59.804793935683279
 20
48.587747982185533
 30
0.0
 70
    32
  0
VERTEX
  5
177B
  8
0
 10
58.539906141820722
 20
48.517652210447856
 30
0.0
 70
    32
  0
VERTEX
  5
177C
  8
0
 10
57.670767281452243
 20
48.40855634803961
 30
0.0
 70
    32
  0
VERTEX
  5
177D
  8
0
 10
56.808300160233209
 20
48.254965454300446
 30
0.0
 70
    32
  0
VERTEX
  5
177E
  8
0
 10
55.946158109885282
 20
48.059985002314733
 30
0.0
 70
    32
  0
VERTEX
  5
177F
  8
0
 10
55.092522711888193
 20
47.830338717125841
 30
0.0
 70
    32
  0
SEQEND
  5
1780
  8
0
  0
POLYLINE
  5
1781
  8
0
 66
     1
 10
0.0
 20
0.0
 30
0.0
 70
     8
  0
VERTEX
  5
1782
  8
0
 10
55.092522711888193
 20
47.830338717125841
 30
0.0
 70
    32
  0
VERTEX
  5
1783
  8
0
 10
54.455780818141022
 20
48.159842942865403
 30
0.0
 70
    32
  0
VERTEX
  5
1784
  8
0
 10
53.807217044249562
 20
48.407442780401233
 30
0.0
 70
    32
  0
VERTEX
  5
1785
  8
0
 10
53.140277603813111
 20
48.555481223963483
 30
0.0
 70
    32
  0
VERTEX
  5
1786
  8
0
 10
52.464298618672949
 20
48.585393948025448
 30
0.0
 70
    32
  0
VERTEX
  5
1787
  8
0
 10
51.893088814247221
 20
48.514561350158772
 30
0.0
 70
    32
  0
VERTEX
  5
1788
  8
0
 10
51.32287434246944
 20
48.359675544884048
 30
0.0
 70
    32
  0
VERTEX
  5
1789
  8
0
 10
50.751204294640559
 20
48.12728069809242
 30
0.0
 70
    32
  0
VERTEX
  5
178A
  8
0
 10
50.18504542377633
 20
47.830338717125841
 30
0.0
 70
    32
  0
SEQEND
  5
178B
  8
0
  0
LINE
  5
178C
  8
0
 10
50.18504542377633
 20
47.830338717125841
 30
0.0
 11
40.25
 21
42.094337567297387
 31
0.0
  0
LINE
  5
178D
  8
0
 10
79.75
 20
42.094337567297387
 30
0.0
 11
69.814954576223613
 21
47.830338717125869
 31
0.0
  0
LINE
  5
178E
  8
0
 10
80.0
 20
40.0
 30
0.0
 11
40.0
 21
40.0
 31
0.0
  0
LINE
  5
178F
  8
0
 10
40.0
 20
41.661324865405192
 30
0.0
 11
40.0
 21
40.0
 31
0.0
  0
LINE
  5
1790
  8
0
 10
80.0
 20
40.0
 30
0.0
 11
80.0
 21
41.661324865405192
 31
0.0
  0
LINE
  5
1791
  8
0
 10
79.75
 20
42.094337567297387
 30
0.0
 11
40.25
 21
42.094337567297387
 31
0.0
  0
LINE
  5
1792
  8
0
 10
80.0
 20
41.661324865405192
 30
0.0
 11
40.0
 21
41.661324865405192
 31
0.0
  0
ARC
  5
1793
  8
0
 10
40.499999999999993
 20
41.661324865405192
 30
0.0
 40
0.5000000000000029
 50
120.0
 51
180.0
  0
ARC
  5
1794
  8
0
 10
79.5
 20
41.661324865405192
 30
0.0
 40
0.5000000000000036
 50
0.0
 51
59.999999999998103
  0
ENDSEC
  0
EOF
