  0
SECTION
  2
HEADER
  9
$ACADVER
  1
AC1009
  9
$INSBASE
 10
0.0
 20
0.0
 30
0.0
  9
$EXTMIN
 10
0.0
 20
-2.960436562073669
 30
0.0
  9
$EXTMAX
 10
130.0
 20
151.0
 30
0.0
  9
$LIMMIN
 10
0.0
 20
0.0
  9
$LIMMAX
 10
375.0
 20
270.0
  9
$ORTHOMODE
 70
     1
  9
$REGENMODE
 70
     1
  9
$FILLMODE
 70
     1
  9
$QTEXTMODE
 70
     0
  9
$MIRRTEXT
 70
     0
  9
$DRAGMODE
 70
     2
  9
$LTSCALE
 40
5.0
  9
$OSMODE
 70
    37
  9
$ATTMODE
 70
     1
  9
$TEXTSIZE
 40
0.2
  9
$TRACEWID
 40
0.05
  9
$TEXTSTYLE
  7
STANDARD
  9
$CLAYER
  8
0
  9
$CELTYPE
  6
BYLAYER
  9
$CECOLOR
 62
   256
  9
$DIMSCALE
 40
1.0
  9
$DIMASZ
 40
3.0
  9
$DIMEXO
 40
1.0
  9
$DIMDLI
 40
6.0
  9
$DIMRND
 40
0.0
  9
$DIMDLE
 40
0.0
  9
$DIMEXE
 40
1.0
  9
$DIMTP
 40
495.0
  9
$DIMTM
 40
0.0
  9
$DIMTXT
 40
3.0
  9
$DIMCEN
 40
0.0
  9
$DIMTSZ
 40
0.0
  9
$DIMTOL
 70
     0
  9
$DIMLIM
 70
     0
  9
$DIMTIH
 70
     0
  9
$DIMTOH
 70
     0
  9
$DIMSE1
 70
     0
  9
$DIMSE2
 70
     0
  9
$DIMTAD
 70
     1
  9
$DIMZIN
 70
     0
  9
$DIMBLK
  1

  9
$DIMASO
 70
     0
  9
$DIMSHO
 70
     0
  9
$DIMPOST
  1

  9
$DIMAPOST
  1

  9
$DIMALT
 70
     0
  9
$DIMALTD
 70
     2
  9
$DIMALTF
 40
25.399999999999999
  9
$DIMLFAC
 40
1.0
  9
$DIMTOFL
 70
     1
  9
$DIMTVP
 40
0.0
  9
$DIMTIX
 70
     1
  9
$DIMSOXD
 70
     0
  9
$DIMSAH
 70
     0
  9
$DIMBLK1
  1

  9
$DIMBLK2
  1

  9
$DIMSTYLE
  2
STANDARD
  9
$DIMCLRD
 70
     0
  9
$DIMCLRE
 70
     0
  9
$DIMCLRT
 70
     4
  9
$DIMTFAC
 40
1.0
  9
$DIMGAP
 40
1.0
  9
$LUNITS
 70
     2
  9
$LUPREC
 70
     1
  9
$SKETCHINC
 40
0.1
  9
$FILLETRAD
 40
2.0
  9
$AUNITS
 70
     0
  9
$AUPREC
 70
     1
  9
$MENU
  1
C:\R13\WIN\SUPPORT\ACAD-I
  9
$ELEVATION
 40
0.0
  9
$PELEVATION
 40
0.0
  9
$THICKNESS
 40
0.0
  9
$LIMCHECK
 70
     0
  9
$BLIPMODE
 70
     0
  9
$CHAMFERA
 40
0.0
  9
$CHAMFERB
 40
0.0
  9
$SKPOLY
 70
     0
  9
$TDCREATE
 40
2450834.7095229169
  9
$TDUPDATE
 40
2457164.386956586
  9
$TDINDWG
 40
0.1383364352
  9
$TDUSRTIMER
 40
2456694.2904019211
  9
$USRTIMER
 70
     1
  9
$ANGBASE
 50
0.0
  9
$ANGDIR
 70
     0
  9
$PDMODE
 70
     0
  9
$PDSIZE
 40
0.0
  9
$PLINEWID
 40
0.0
  9
$COORDS
 70
     1
  9
$SPLFRAME
 70
     0
  9
$SPLINETYPE
 70
     6
  9
$SPLINESEGS
 70
     8
  9
$ATTDIA
 70
     0
  9
$ATTREQ
 70
     1
  9
$HANDLING
 70
     1
  9
$HANDSEED
  5
1B4D
  9
$SURFTAB1
 70
     6
  9
$SURFTAB2
 70
     6
  9
$SURFTYPE
 70
     6
  9
$SURFU
 70
     6
  9
$SURFV
 70
     6
  9
$UCSNAME
  2

  9
$UCSORG
 10
0.0
 20
0.0
 30
0.0
  9
$UCSXDIR
 10
1.0
 20
0.0
 30
0.0
  9
$UCSYDIR
 10
0.0
 20
1.0
 30
0.0
  9
$PUCSNAME
  2

  9
$PUCSORG
 10
0.0
 20
0.0
 30
0.0
  9
$PUCSXDIR
 10
1.0
 20
0.0
 30
0.0
  9
$PUCSYDIR
 10
0.0
 20
1.0
 30
0.0
  9
$USERI1
 70
     4
  9
$USERI2
 70
     1
  9
$USERI3
 70
     0
  9
$USERI4
 70
     0
  9
$USERI5
 70
     0
  9
$USERR1
 40
1.0
  9
$USERR2
 40
3.0
  9
$USERR3
 40
3.0
  9
$USERR4
 40
3.0
  9
$USERR5
 40
10.0
  9
$WORLDVIEW
 70
     1
  9
$SHADEDGE
 70
     3
  9
$SHADEDIF
 70
    70
  9
$TILEMODE
 70
     1
  9
$MAXACTVP
 70
    16
  9
$PLIMCHECK
 70
     0
  9
$PEXTMIN
 10
1.0000000000000000E+020
 20
1.0000000000000000E+020
 30
1.0000000000000000E+020
  9
$PEXTMAX
 10
-1.0000000000000000E+020
 20
-1.0000000000000000E+020
 30
-1.0000000000000000E+020
  9
$PLIMMIN
 10
0.0
 20
0.0
  9
$PLIMMAX
 10
0.0
 20
0.0
  9
$UNITMODE
 70
     0
  9
$VISRETAIN
 70
     0
  9
$PLINEGEN
 70
     0
  9
$PSLTSCALE
 70
     0
  0
ENDSEC
  0
SECTION
  2
TABLES
  0
TABLE
  2
VPORT
 70
     1
  0
VPORT
  2
*ACTIVE
 70
     0
 10
0.0
 20
0.0
 11
1.0
 21
1.0
 12
227.0342915868072
 22
125.0
 13
0.0
 23
0.0
 14
10.0
 24
10.0
 15
10.0
 25
10.0
 16
0.0
 26
0.0
 36
1.0
 17
0.0
 27
0.0
 37
0.0
 40
250.03767018649299
 41
1.816239316239316
 42
50.0
 43
0.0
 44
0.0
 50
0.0
 51
0.0
 71
    16
 72
   100
 73
     1
 74
     0
 75
     0
 76
     0
 77
     0
 78
     0
  0
ENDTAB
  0
TABLE
  2
LTYPE
 70
     3
  0
LTYPE
  2
CONTINUOUS
 70
     0
  3
Solid Line
 72
    65
 73
     0
 40
0.0
  0
LTYPE
  2
PHANTOM2
 70
     0
  3
___ _ _ ___ _ _ ___ _ _ ___ _ _
 72
    65
 73
     6
 40
1.25
 49
0.625
 49
-0.125
 49
0.125
 49
-0.125
 49
0.125
 49
-0.125
  0
LTYPE
  2
CENTER
 70
     0
  3
____ _ ____ _ ____ _ ____ _ ____ _ ____ _ ____
 72
    65
 73
     4
 40
2.0
 49
1.25
 49
-0.25
 49
0.25
 49
-0.25
  0
ENDTAB
  0
TABLE
  2
LAYER
 70
     3
  0
LAYER
  2
0
 70
     0
 62
     7
  6
CONTINUOUS
  0
LAYER
  2
1
 70
     0
 62
     1
  6
CENTER
  0
LAYER
  2
3
 70
     0
 62
     3
  6
CONTINUOUS
  0
ENDTAB
  0
TABLE
  2
STYLE
 70
     2
  0
STYLE
  2
STANDARD
 70
     0
 40
0.0
 41
1.0
 50
0.0
 71
     0
 42
0.2
  3
SIMPLEX
  4
BIGFONT
  0
STYLE
  2
STANDARD1
 70
     0
 40
0.0
 41
1.0
 50
0.0
 71
     0
 42
3.0
  3
txt
  4

  0
ENDTAB
  0
TABLE
  2
VIEW
 70
     0
  0
ENDTAB
  0
TABLE
  2
UCS
 70
     0
  0
ENDTAB
  0
TABLE
  2
APPID
 70
    32
  0
APPID
  2
ACAD
 70
     0
  0
APPID
  2
ACADANNOTATIVE
 70
     0
  0
APPID
  2
GENIUS_GENOREF_13
 70
     0
  0
APPID
  2
GENIUS_GENOENT_13
 70
     0
  0
APPID
  2
GENIUS_GENBH_13
 70
     0
  0
APPID
  2
GENIUS_GENOBJ_13
 70
     0
  0
APPID
  2
GENIUS_GENODEF_13
 70
     0
  0
APPID
  2
GENIUS_GENOLIS_13
 70
     0
  0
APPID
  2
GENIUS_GENOBJ-NBEHI-BHF_13
 70
     0
  0
APPID
  2
GENIUS_GENOBJ-NBEHI-BHB_13
 70
     0
  0
APPID
  2
GENIUS_GENOBJ-F-PART_13
 70
     0
  0
APPID
  2
GENIUS_GEFSTDP_13
 70
     0
  0
APPID
  2
GENIUS_GENOBJ-N-RSSYM_13
 70
     0
  0
APPID
  2
GENIUS_GENSYMENT_13
 70
     0
  0
APPID
  2
GENIUS_GENOBJ-N-TIT_13
 70
     0
  0
APPID
  2
GENIUS_GENTITLE_13
 70
     0
  0
APPID
  2
GENIUS_GENZVEED_13
 70
     0
  0
APPID
  2
GENIUS_GENOBJ-N-LEADER_13
 70
     0
  0
APPID
  2
GENIUS_GENOBJ-N-FIL_13
 70
     0
  0
APPID
  2
GENIUS_GENOBJ-N-SEC_13
 70
     0
  0
APPID
  2
GENIUS_GENOBJ-N-CRS_13
 70
     0
  0
APPID
  2
GENIUS_GENOBJ-N-ZOO_13
 70
     0
  0
APPID
  2
GENIUS_GENZOO_13
 70
     0
  0
APPID
  2
GENIUS_GENOBJ-F-TOL_13
 70
     0
  0
APPID
  2
GENIUS_GENFIL_13
 70
     0
  0
APPID
  2
GENIUS_GENOBJ-N-CHA_13
 70
     0
  0
APPID
  2
ACAD_MLEADERVER
 70
     0
  0
APPID
  2
ACAD_EXEMPT_FROM_CAD_STAND
 70
     0
  0
APPID
  2
ACAD_NAV_VCDISPLAY
 70
     0
  0
APPID
  2
ACAD_EXEMPT_FROM_CAD_STANDARDS
 70
     0
  0
APPID
  2
ACAD_DSTYLE_DIMJAG
 70
     0
  0
APPID
  2
ACAD_DSTYLE_DIMTALN
 70
     0
  0
ENDTAB
  0
TABLE
  2
DIMSTYLE
 70
     1
  0
DIMSTYLE
  2
STANDARD
 70
     0
  3

  4

  5

  6

  7

 40
1.0
 41
0.18
 42
0.0625
 43
0.38
 44
0.18
 45
0.0
 46
0.0
 47
0.0
 48
0.0
140
0.18
141
0.09
142
0.0
143
25.399999999999999
144
1.0
145
0.0
146
1.0
147
0.09
 71
     0
 72
     0
 73
     1
 74
     1
 75
     0
 76
     0
 77
     0
 78
     0
170
     0
171
     2
172
     0
173
     0
174
     0
175
     0
176
     0
177
     0
178
     0
  0
ENDTAB
  0
ENDSEC
  0
SECTION
  2
BLOCKS
  0
BLOCK
  8
0
  2
$MODEL_SPACE
 70
     0
 10
0.0
 20
0.0
 30
0.0
  3
$MODEL_SPACE
  1

  0
ENDBLK
  5
E10
  8
0
  0
BLOCK
 67
     1
  8
0
  2
$PAPER_SPACE
 70
     0
 10
0.0
 20
0.0
 30
0.0
  3
$PAPER_SPACE
  1

  0
ENDBLK
  5
E0C
 67
     1
  8
0
  0
ENDSEC
  0
SECTION
  2
ENTITIES
  0
TEXT
  5
E90
  8
0
 62
     3
 10
0.0
 20
0.0
 30
0.0
 40
10.0
  1
ELP30-M10X21
  7
STANDARD1
  0
LINE
  5
1710
  8
1
 10
114.9999999999999
 20
85.999999999999943
 30
0.0
 11
115.0
 21
46.999999999999972
 31
0.0
  0
LINE
  5
1711
  8
0
 10
110.0
 20
82.079999999999984
 30
0.0
 11
110.0
 21
62.0
 31
0.0
  0
LINE
  5
1712
  8
0
 10
120.0
 20
62.0
 30
0.0
 11
120.0
 21
82.079999999999984
 31
0.0
  0
LINE
  5
1713
  8
0
 10
120.0
 20
82.079999999999984
 30
0.0
 11
110.0
 21
82.079999999999984
 31
0.0
  0
LINE
  5
1714
  8
0
 10
119.08
 20
83.0
 30
0.0
 11
110.92
 21
83.0
 31
0.0
  0
LINE
  5
1715
  8
0
 10
110.92
 20
83.0
 30
0.0
 11
110.0
 21
82.079999999999984
 31
0.0
  0
LINE
  5
1716
  8
0
 10
120.0
 20
82.079999999999984
 30
0.0
 11
119.08
 21
83.0
 31
0.0
  0
LINE
  5
1717
  8
0
 10
106.5
 20
62.0
 30
0.0
 11
106.5
 21
54.793587371177694
 31
0.0
  0
LINE
  5
1718
  8
0
 10
123.5
 20
62.0
 30
0.0
 11
106.5
 21
62.0
 31
0.0
  0
LINE
  5
1719
  8
0
 10
123.5
 20
54.793587371177694
 30
0.0
 11
123.5
 21
62.0
 31
0.0
  0
POLYLINE
  5
171A
  8
0
 66
     1
 10
0.0
 20
0.0
 30
0.0
  0
VERTEX
  5
1ACD
  8
0
 10
110.75
 20
62.0
 30
0.0
  0
VERTEX
  5
1ACE
  8
0
 10
111.8125
 20
61.976397627273172
 30
0.0
  0
VERTEX
  5
1ACF
  8
0
 10
112.875
 20
61.907000060924361
 30
0.0
  0
VERTEX
  5
1AD0
  8
0
 10
113.9386695674206
 20
61.79550198761649
 30
0.0
  0
VERTEX
  5
1AD1
  8
0
 10
115.0
 20
61.647658983217241
 30
0.0
  0
SEQEND
  5
1AD2
  8
0
  0
POLYLINE
  5
171B
  8
0
 66
     1
 10
0.0
 20
0.0
 30
0.0
  0
VERTEX
  5
1AD3
  8
0
 10
106.5
 20
61.647658983217241
 30
0.0
  0
VERTEX
  5
1AD4
  8
0
 10
107.5556477300867
 20
61.794802596097497
 30
0.0
  0
VERTEX
  5
1AD5
  8
0
 10
108.61544542779551
 20
61.906178459100488
 30
0.0
  0
VERTEX
  5
1AD6
  8
0
 10
109.6812343280983
 20
61.976119883790027
 30
0.0
  0
VERTEX
  5
1AD7
  8
0
 10
110.75
 20
62.0
 30
0.0
  0
SEQEND
  5
1AD8
  8
0
  0
POLYLINE
  5
171C
  8
0
 66
     1
 10
0.0
 20
0.0
 30
0.0
  0
VERTEX
  5
1AD9
  8
0
 10
119.25
 20
62.0
 30
0.0
  0
VERTEX
  5
1ADA
  8
0
 10
120.3125
 20
61.976397627273172
 30
0.0
  0
VERTEX
  5
1ADB
  8
0
 10
121.375
 20
61.907000060924361
 30
0.0
  0
VERTEX
  5
1ADC
  8
0
 10
122.4386695674207
 20
61.79550198761649
 30
0.0
  0
VERTEX
  5
1ADD
  8
0
 10
123.5
 20
61.647658983217241
 30
0.0
  0
SEQEND
  5
1ADE
  8
0
  0
POLYLINE
  5
171D
  8
0
 66
     1
 10
0.0
 20
0.0
 30
0.0
  0
VERTEX
  5
1ADF
  8
0
 10
115.0
 20
61.647658983217241
 30
0.0
  0
VERTEX
  5
1AE0
  8
0
 10
116.0556477300868
 20
61.794802596097497
 30
0.0
  0
VERTEX
  5
1AE1
  8
0
 10
117.11544542779551
 20
61.906178459100488
 30
0.0
  0
VERTEX
  5
1AE2
  8
0
 10
118.1812343280983
 20
61.976119883790027
 30
0.0
  0
VERTEX
  5
1AE3
  8
0
 10
119.25
 20
62.0
 30
0.0
  0
SEQEND
  5
1AE4
  8
0
  0
LINE
  5
171E
  8
0
 10
115.0
 20
61.647658983217241
 30
0.0
 11
115.0
 21
54.793587371177694
 31
0.0
  0
POLYLINE
  5
171F
  8
0
 66
     1
 10
0.0
 20
0.0
 30
0.0
  0
VERTEX
  5
1AE5
  8
0
 10
123.5
 20
54.793587371177694
 30
0.0
  0
VERTEX
  5
1AE6
  8
0
 10
122.76513935825589
 20
55.021934945879131
 30
0.0
  0
VERTEX
  5
1AE7
  8
0
 10
122.0227011545864
 20
55.216148927905287
 30
0.0
  0
VERTEX
  5
1AE8
  8
0
 10
121.2737852803936
 20
55.370691434453072
 30
0.0
  0
VERTEX
  5
1AE9
  8
0
 10
120.5019998536407
 20
55.481877472908877
 30
0.0
  0
VERTEX
  5
1AEA
  8
0
 10
119.7253851218843
 20
55.542113647992039
 30
0.0
  0
VERTEX
  5
1AEB
  8
0
 10
118.9477823368745
 20
55.548642602077329
 30
0.0
  0
VERTEX
  5
1AEC
  8
0
 10
118.2860493198678
 20
55.510679508168828
 30
0.0
  0
VERTEX
  5
1AED
  8
0
 10
117.6263348769974
 20
55.434626550093412
 30
0.0
  0
VERTEX
  5
1AEE
  8
0
 10
116.97077749749749
 20
55.322924198935929
 30
0.0
  0
VERTEX
  5
1AEF
  8
0
 10
115.9790752236505
 20
55.090095897626497
 30
0.0
  0
VERTEX
  5
1AF0
  8
0
 10
115.0
 20
54.793587371177694
 30
0.0
  0
SEQEND
  5
1AF1
  8
0
  0
POLYLINE
  5
1720
  8
0
 66
     1
 10
0.0
 20
0.0
 30
0.0
  0
VERTEX
  5
1AF2
  8
0
 10
115.0
 20
54.793587371177694
 30
0.0
  0
VERTEX
  5
1AF3
  8
0
 10
114.26513935825589
 20
55.021934945879131
 30
0.0
  0
VERTEX
  5
1AF4
  8
0
 10
113.5227011545864
 20
55.216148927905287
 30
0.0
  0
VERTEX
  5
1AF5
  8
0
 10
112.7737852803937
 20
55.370691434453072
 30
0.0
  0
VERTEX
  5
1AF6
  8
0
 10
112.0019998536407
 20
55.481877472908877
 30
0.0
  0
VERTEX
  5
1AF7
  8
0
 10
111.2253851218843
 20
55.542113647992039
 30
0.0
  0
VERTEX
  5
1AF8
  8
0
 10
110.4477823368746
 20
55.548642602077329
 30
0.0
  0
VERTEX
  5
1AF9
  8
0
 10
109.7860493198678
 20
55.510679508168828
 30
0.0
  0
VERTEX
  5
1AFA
  8
0
 10
109.1263348769974
 20
55.434626550093412
 30
0.0
  0
VERTEX
  5
1AFB
  8
0
 10
108.47077749749749
 20
55.322924198935929
 30
0.0
  0
VERTEX
  5
1AFC
  8
0
 10
107.4790752236505
 20
55.090095897626497
 30
0.0
  0
VERTEX
  5
1AFD
  8
0
 10
106.5
 20
54.793587371177694
 30
0.0
  0
SEQEND
  5
1AFE
  8
0
  0
LINE
  5
1721
  8
0
 10
106.5
 20
55.552776749732573
 30
0.0
 11
100.1875
 21
51.908253175473021
 31
0.0
  0
LINE
  5
1722
  8
0
 10
129.8125
 20
51.908253175473021
 30
0.0
 11
123.5
 21
55.552776749732573
 31
0.0
  0
LINE
  5
1723
  8
0
 10
130.0
 20
50.0
 30
0.0
 11
100.0
 21
50.0
 31
0.0
  0
LINE
  5
1724
  8
0
 10
100.0
 20
51.583493654641813
 30
0.0
 11
100.0
 21
50.0
 31
0.0
  0
LINE
  5
1725
  8
0
 10
130.0
 20
50.0
 30
0.0
 11
130.0
 21
51.583493654641813
 31
0.0
  0
LINE
  5
1726
  8
0
 10
129.8125
 20
51.908253175473021
 30
0.0
 11
100.1875
 21
51.908253175473021
 31
0.0
  0
LINE
  5
1727
  8
0
 10
130.0
 20
51.583493654641813
 30
0.0
 11
100.0
 21
51.583493654641813
 31
0.0
  0
ARC
  5
1728
  8
0
 10
100.375
 20
51.583493649053871
 30
0.0
 40
0.3749999999999997
 50
120.0000000000001
 51
179.99999879258041
  0
ARC
  5
1729
  8
0
 10
129.625
 20
51.583493649053871
 30
0.0
 40
0.3750000000000001
 50
0.0000012074195722
 51
59.999999999999012
  0
LINE
  5
172A
  8
3
 10
110.92
 20
83.0
 30
0.0
 11
110.92
 21
62.0
 31
0.0
  0
LINE
  5
172D
  8
3
 10
119.08
 20
83.0
 30
0.0
 11
119.08
 21
62.0
 31
0.0
  0
LINE
  5
1734
  8
1
 10
50.0
 20
85.999999999999943
 30
0.0
 11
50.0
 21
46.999999999999972
 31
0.0
  0
LINE
  5
1735
  8
0
 10
58.5
 20
62.0
 30
0.0
 11
41.5
 21
62.0
 31
0.0
  0
LINE
  5
1736
  8
0
 10
41.5
 20
62.0
 30
0.0
 11
40.185045423776359
 21
61.647658983217241
 31
0.0
  0
LINE
  5
1737
  8
0
 10
59.814954576223641
 20
61.647658983217241
 30
0.0
 11
58.5
 21
62.0
 31
0.0
  0
LINE
  5
1738
  8
0
 10
45.920000000000002
 20
83.0
 30
0.0
 11
45.0
 21
82.079999999999984
 31
0.0
  0
LINE
  5
1739
  8
0
 10
55.0
 20
82.079999999999984
 30
0.0
 11
54.079999999999998
 21
83.0
 31
0.0
  0
LINE
  5
173A
  8
0
 10
54.079999999999998
 20
83.0
 30
0.0
 11
45.920000000000002
 21
83.0
 31
0.0
  0
LINE
  5
173B
  8
0
 10
45.0
 20
82.079999999999984
 30
0.0
 11
45.0
 21
62.0
 31
0.0
  0
LINE
  5
173C
  8
0
 10
55.0
 20
62.0
 30
0.0
 11
55.0
 21
82.079999999999984
 31
0.0
  0
LINE
  5
173D
  8
0
 10
55.0
 20
82.079999999999984
 30
0.0
 11
45.0
 21
82.079999999999984
 31
0.0
  0
LINE
  5
173E
  8
0
 10
59.814954576223641
 20
61.647658983217241
 30
0.0
 11
59.814954576223641
 21
54.793587371177694
 31
0.0
  0
POLYLINE
  5
173F
  8
0
 66
     1
 10
0.0
 20
0.0
 30
0.0
  0
VERTEX
  5
1AFF
  8
0
 10
57.361215932167717
 20
62.0
 30
0.0
  0
VERTEX
  5
1B00
  8
0
 10
57.9746505931817
 20
61.976397627273172
 30
0.0
  0
VERTEX
  5
1B01
  8
0
 10
58.588823663698939
 20
61.906890279549138
 30
0.0
  0
VERTEX
  5
1B02
  8
0
 10
59.202563865767608
 20
61.795423444022852
 30
0.0
  0
VERTEX
  5
1B03
  8
0
 10
59.814954576223641
 20
61.647658983217241
 30
0.0
  0
SEQEND
  5
1B04
  8
0
  0
LINE
  5
1740
  8
0
 10
54.907477288111821
 20
61.647658983217241
 30
0.0
 11
54.907477288111821
 21
54.793587371177694
 31
0.0
  0
LINE
  5
1741
  8
0
 10
45.092522711888179
 20
61.647658983217241
 30
0.0
 11
45.092522711888179
 21
54.793587371177694
 31
0.0
  0
POLYLINE
  5
1742
  8
0
 66
     1
 10
0.0
 20
0.0
 30
0.0
  0
VERTEX
  5
1B05
  8
0
 10
40.185045423776359
 20
61.647658983217241
 30
0.0
  0
VERTEX
  5
1B06
  8
0
 10
40.79483245331042
 20
61.794868409742101
 30
0.0
  0
VERTEX
  5
1B07
  8
0
 10
41.407018091170912
 20
61.906270923699822
 30
0.0
  0
VERTEX
  5
1B08
  8
0
 10
42.021731919459192
 20
61.976119883790027
 30
0.0
  0
VERTEX
  5
1B09
  8
0
 10
42.638784067832269
 20
62.0
 30
0.0
  0
SEQEND
  5
1B0A
  8
0
  0
LINE
  5
1743
  8
0
 10
40.185045423776359
 20
61.647658983217241
 30
0.0
 11
40.185045423776359
 21
54.793587371177694
 31
0.0
  0
POLYLINE
  5
1744
  8
0
 66
     1
 10
0.0
 20
0.0
 30
0.0
  0
VERTEX
  5
1B0B
  8
0
 10
42.638784067832269
 20
62.0
 30
0.0
  0
VERTEX
  5
1B0C
  8
0
 10
43.252218728846252
 20
61.976397627273172
 30
0.0
  0
VERTEX
  5
1B0D
  8
0
 10
43.866391799363477
 20
61.906890279549138
 30
0.0
  0
VERTEX
  5
1B0E
  8
0
 10
44.479763300939361
 20
61.79550198761649
 30
0.0
  0
VERTEX
  5
1B0F
  8
0
 10
45.092522711888179
 20
61.647658983217241
 30
0.0
  0
SEQEND
  5
1B10
  8
0
  0
POLYLINE
  5
1745
  8
0
 66
     1
 10
0.0
 20
0.0
 30
0.0
  0
VERTEX
  5
1B11
  8
0
 10
45.092522711888179
 20
61.647658983217241
 30
0.0
  0
VERTEX
  5
1B12
  8
0
 10
46.316928243994752
 20
61.795383401473657
 30
0.0
  0
VERTEX
  5
1B13
  8
0
 10
47.233872042856447
 20
61.882434109664302
 30
0.0
  0
VERTEX
  5
1B14
  8
0
 10
48.15322575899674
 20
61.946863330787153
 30
0.0
  0
VERTEX
  5
1B15
  8
0
 10
49.075864956112262
 20
61.986578635371423
 30
0.0
  0
VERTEX
  5
1B16
  8
0
 10
50.0
 20
62.0
 30
0.0
  0
SEQEND
  5
1B17
  8
0
  0
POLYLINE
  5
1746
  8
0
 66
     1
 10
0.0
 20
0.0
 30
0.0
  0
VERTEX
  5
1B18
  8
0
 10
50.0
 20
62.0
 30
0.0
  0
VERTEX
  5
1B19
  8
0
 10
51.226869322027952
 20
61.976397627273172
 30
0.0
  0
VERTEX
  5
1B1A
  8
0
 10
52.453738644055903
 20
61.907000060924361
 30
0.0
  0
VERTEX
  5
1B1B
  8
0
 10
53.681958466214198
 20
61.79550198761649
 30
0.0
  0
VERTEX
  5
1B1C
  8
0
 10
54.907477288111821
 20
61.647658983217241
 30
0.0
  0
SEQEND
  5
1B1D
  8
0
  0
POLYLINE
  5
1747
  8
0
 66
     1
 10
0.0
 20
0.0
 30
0.0
  0
VERTEX
  5
1B1E
  8
0
 10
54.907477288111821
 20
61.647658983217241
 30
0.0
  0
VERTEX
  5
1B1F
  8
0
 10
55.516955789246829
 20
61.794802596097497
 30
0.0
  0
VERTEX
  5
1B20
  8
0
 10
56.129449955506381
 20
61.906270923699822
 30
0.0
  0
VERTEX
  5
1B21
  8
0
 10
56.744163783794647
 20
61.976119883790027
 30
0.0
  0
VERTEX
  5
1B22
  8
0
 10
57.361215932167717
 20
62.0
 30
0.0
  0
SEQEND
  5
1B23
  8
0
  0
POLYLINE
  5
1748
  8
0
 66
     1
 10
0.0
 20
0.0
 30
0.0
  0
VERTEX
  5
1B24
  8
0
 10
54.907477288111821
 20
54.793587371177694
 30
0.0
  0
VERTEX
  5
1B25
  8
0
 10
54.029450298256762
 20
55.029278996285022
 30
0.0
  0
VERTEX
  5
1B26
  8
0
 10
53.140882354670779
 20
55.228455686547989
 30
0.0
  0
VERTEX
  5
1B27
  8
0
 10
52.237984912056412
 20
55.385526574995019
 30
0.0
  0
VERTEX
  5
1B28
  8
0
 10
51.325259807121633
 20
55.493487364700059
 30
0.0
  0
VERTEX
  5
1B29
  8
0
 10
50.70706851952874
 20
55.535800143712493
 30
0.0
  0
VERTEX
  5
1B2A
  8
0
 10
50.087664780336702
 20
55.552515756527441
 30
0.0
  0
VERTEX
  5
1B2B
  8
0
 10
49.463764024469278
 20
55.542992404042423
 30
0.0
  0
VERTEX
  5
1B2C
  8
0
 10
48.840802646227687
 20
55.507351235615083
 30
0.0
  0
VERTEX
  5
1B2D
  8
0
 10
48.207284048471656
 20
55.444796278213452
 30
0.0
  0
VERTEX
  5
1B2E
  8
0
 10
47.576714948679133
 20
55.357238248465357
 30
0.0
  0
VERTEX
  5
1B2F
  8
0
 10
46.946275379274638
 20
55.245676195760893
 30
0.0
  0
VERTEX
  5
1B30
  8
0
 10
46.320002031841859
 20
55.112594579550262
 30
0.0
  0
VERTEX
  5
1B31
  8
0
 10
45.092522711888179
 20
54.793587371177694
 30
0.0
  0
SEQEND
  5
1B32
  8
0
  0
POLYLINE
  5
1749
  8
0
 66
     1
 10
0.0
 20
0.0
 30
0.0
  0
VERTEX
  5
1B33
  8
0
 10
45.092522711888179
 20
54.793587371177694
 30
0.0
  0
VERTEX
  5
1B34
  8
0
 10
44.455780818141022
 20
55.123091596917277
 30
0.0
  0
VERTEX
  5
1B35
  8
0
 10
44.132803052382187
 20
55.25838351194114
 30
0.0
  0
VERTEX
  5
1B36
  8
0
 10
43.807217044249562
 20
55.370691434453072
 30
0.0
  0
VERTEX
  5
1B37
  8
0
 10
43.474819907452321
 20
55.458726814401643
 30
0.0
  0
VERTEX
  5
1B38
  8
0
 10
43.140277603813111
 20
55.518729878015343
 30
0.0
  0
VERTEX
  5
1B39
  8
0
 10
42.802810320802521
 20
55.549123195677332
 30
0.0
  0
VERTEX
  5
1B3A
  8
0
 10
42.464298618672949
 20
55.548642602077329
 30
0.0
  0
VERTEX
  5
1B3B
  8
0
 10
41.893088814247221
 20
55.477810004210653
 30
0.0
  0
VERTEX
  5
1B3C
  8
0
 10
41.322874342469419
 20
55.322924198935929
 30
0.0
  0
VERTEX
  5
1B3D
  8
0
 10
40.751204294640523
 20
55.090529352144301
 30
0.0
  0
VERTEX
  5
1B3E
  8
0
 10
40.185045423776359
 20
54.793587371177694
 30
0.0
  0
SEQEND
  5
1B3F
  8
0
  0
POLYLINE
  5
174A
  8
0
 66
     1
 10
0.0
 20
0.0
 30
0.0
  0
VERTEX
  5
1B40
  8
0
 10
59.814954576223641
 20
54.793587371177694
 30
0.0
  0
VERTEX
  5
1B41
  8
0
 10
59.17821268247647
 20
55.123091596917277
 30
0.0
  0
VERTEX
  5
1B42
  8
0
 10
58.855234916717663
 20
55.25838351194114
 30
0.0
  0
VERTEX
  5
1B43
  8
0
 10
58.52964890858501
 20
55.370691434453072
 30
0.0
  0
VERTEX
  5
1B44
  8
0
 10
58.197251771787791
 20
55.458726814401643
 30
0.0
  0
VERTEX
  5
1B45
  8
0
 10
57.86270946814858
 20
55.518729878015343
 30
0.0
  0
VERTEX
  5
1B46
  8
0
 10
57.525242185137976
 20
55.549123195677332
 30
0.0
  0
VERTEX
  5
1B47
  8
0
 10
57.186730483008397
 20
55.548642602077329
 30
0.0
  0
VERTEX
  5
1B48
  8
0
 10
56.615520678582662
 20
55.477810004210653
 30
0.0
  0
VERTEX
  5
1B49
  8
0
 10
56.045306206804867
 20
55.322924198935929
 30
0.0
  0
VERTEX
  5
1B4A
  8
0
 10
55.473636158975978
 20
55.090529352144301
 30
0.0
  0
VERTEX
  5
1B4B
  8
0
 10
54.907477288111821
 20
54.793587371177694
 30
0.0
  0
SEQEND
  5
1B4C
  8
0
  0
LINE
  5
174B
  8
0
 10
40.185045423776359
 20
54.793587371177694
 30
0.0
 11
35.1875
 21
51.908253175473021
 31
0.0
  0
LINE
  5
174C
  8
0
 10
64.8125
 20
51.908253175473021
 30
0.0
 11
59.814954576223641
 21
54.793587371177694
 31
0.0
  0
LINE
  5
174D
  8
0
 10
35.0
 20
51.583493654641813
 30
0.0
 11
35.0
 21
50.0
 31
0.0
  0
LINE
  5
174E
  8
0
 10
65.0
 20
50.0
 30
0.0
 11
65.0
 21
51.583493654641813
 31
0.0
  0
LINE
  5
174F
  8
0
 10
65.0
 20
50.0
 30
0.0
 11
35.0
 21
50.0
 31
0.0
  0
ARC
  5
1750
  8
0
 10
35.375
 20
51.583493649053871
 30
0.0
 40
0.3749999999999997
 50
120.0000000000001
 51
179.99999879258041
  0
ARC
  5
1751
  8
0
 10
64.625
 20
51.583493649053871
 30
0.0
 40
0.3750000000000001
 50
0.0000012074195722
 51
59.999999999999012
  0
LINE
  5
1752
  8
0
 10
64.8125
 20
51.908253175473021
 30
0.0
 11
35.1875
 21
51.908253175473021
 31
0.0
  0
LINE
  5
1753
  8
0
 10
65.0
 20
51.583493654641813
 30
0.0
 11
35.0
 21
51.583493654641813
 31
0.0
  0
LINE
  5
1754
  8
3
 10
45.920000000000002
 20
83.0
 30
0.0
 11
45.920000000000002
 21
62.0
 31
0.0
  0
LINE
  5
1757
  8
3
 10
54.079999999999998
 20
83.0
 30
0.0
 11
54.079999999999998
 21
62.0
 31
0.0
  0
LINE
  5
1759
  8
1
 10
50.0
 20
115.0
 30
0.0
 11
50.0
 21
151.0
 31
0.0
  0
LINE
  5
175A
  8
1
 10
68.0
 20
133.0
 30
0.0
 11
32.0
 21
133.0
 31
0.0
  0
CIRCLE
  5
175B
  8
0
 10
50.0
 20
133.0
 30
0.0
 40
15.0
  0
LINE
  5
175D
  8
0
 10
45.092522711888193
 20
141.5
 30
0.0
 11
40.18504542377633
 21
133.0
 31
0.0
  0
LINE
  5
175E
  8
0
 10
54.907477288111807
 20
141.5
 30
0.0
 11
45.092522711888193
 21
141.5
 31
0.0
  0
LINE
  5
175F
  8
0
 10
40.18504542377633
 20
133.0
 30
0.0
 11
45.092522711888193
 21
124.5
 31
0.0
  0
LINE
  5
1760
  8
0
 10
45.092522711888193
 20
124.5
 30
0.0
 11
54.907477288111807
 21
124.5
 31
0.0
  0
LINE
  5
1761
  8
0
 10
54.907477288111807
 20
124.5
 30
0.0
 11
59.81495457622367
 21
133.0
 31
0.0
  0
LINE
  5
1763
  8
0
 10
59.81495457622367
 20
133.0
 30
0.0
 11
54.907477288111807
 21
141.5
 31
0.0
  0
CIRCLE
  5
1764
  8
0
 10
50.0
 20
133.0
 30
0.0
 40
5.0
  0
CIRCLE
  5
1767
  8
0
 10
50.0
 20
133.0
 30
0.0
 40
8.4999999999999982
  0
CIRCLE
  5
1768
  8
3
 10
50.0
 20
133.0
 30
0.0
 40
4.0799999999999841
  0
ENDSEC
  0
EOF
