  0
SECTION
  2
HEADER
  9
$ACADVER
  1
AC1009
  9
$INSBASE
 10
0.0
 20
0.0
 30
0.0
  9
$EXTMIN
 10
0.0
 20
-2.960436562073669
 30
0.0
  9
$EXTMAX
 10
94.670284457218514
 20
154.48285530821909
 30
0.0
  9
$LIMMIN
 10
0.0
 20
0.0
  9
$LIMMAX
 10
375.0
 20
270.0
  9
$ORTHOMODE
 70
     1
  9
$REGENMODE
 70
     1
  9
$FILLMODE
 70
     1
  9
$QTEXTMODE
 70
     0
  9
$MIRRTEXT
 70
     0
  9
$DRAGMODE
 70
     2
  9
$LTSCALE
 40
6.0
  9
$OSMODE
 70
    37
  9
$ATTMODE
 70
     1
  9
$TEXTSIZE
 40
0.2
  9
$TRACEWID
 40
0.05
  9
$TEXTSTYLE
  7
STANDARD
  9
$CLAYER
  8
0
  9
$CELTYPE
  6
BYLAYER
  9
$CECOLOR
 62
   256
  9
$DIMSCALE
 40
1.0
  9
$DIMASZ
 40
3.0
  9
$DIMEXO
 40
1.0
  9
$DIMDLI
 40
6.0
  9
$DIMRND
 40
0.0
  9
$DIMDLE
 40
0.0
  9
$DIMEXE
 40
1.0
  9
$DIMTP
 40
495.0
  9
$DIMTM
 40
0.0
  9
$DIMTXT
 40
3.0
  9
$DIMCEN
 40
0.0
  9
$DIMTSZ
 40
0.0
  9
$DIMTOL
 70
     0
  9
$DIMLIM
 70
     0
  9
$DIMTIH
 70
     0
  9
$DIMTOH
 70
     0
  9
$DIMSE1
 70
     0
  9
$DIMSE2
 70
     0
  9
$DIMTAD
 70
     1
  9
$DIMZIN
 70
     0
  9
$DIMBLK
  1

  9
$DIMASO
 70
     0
  9
$DIMSHO
 70
     0
  9
$DIMPOST
  1

  9
$DIMAPOST
  1

  9
$DIMALT
 70
     0
  9
$DIMALTD
 70
     2
  9
$DIMALTF
 40
25.399999999999999
  9
$DIMLFAC
 40
1.0
  9
$DIMTOFL
 70
     1
  9
$DIMTVP
 40
0.0
  9
$DIMTIX
 70
     1
  9
$DIMSOXD
 70
     0
  9
$DIMSAH
 70
     0
  9
$DIMBLK1
  1

  9
$DIMBLK2
  1

  9
$DIMSTYLE
  2
STANDARD
  9
$DIMCLRD
 70
     0
  9
$DIMCLRE
 70
     0
  9
$DIMCLRT
 70
     4
  9
$DIMTFAC
 40
1.0
  9
$DIMGAP
 40
1.0
  9
$LUNITS
 70
     2
  9
$LUPREC
 70
     4
  9
$SKETCHINC
 40
0.1
  9
$FILLETRAD
 40
2.0
  9
$AUNITS
 70
     0
  9
$AUPREC
 70
     0
  9
$MENU
  1
C:\R13\WIN\SUPPORT\ACAD-I
  9
$ELEVATION
 40
0.0
  9
$PELEVATION
 40
0.0
  9
$THICKNESS
 40
0.0
  9
$LIMCHECK
 70
     0
  9
$BLIPMODE
 70
     0
  9
$CHAMFERA
 40
0.0
  9
$CHAMFERB
 40
0.0
  9
$SKPOLY
 70
     0
  9
$TDCREATE
 40
2450834.7095229169
  9
$TDUPDATE
 40
2456806.4331639581
  9
$TDINDWG
 40
0.0960576042
  9
$TDUSRTIMER
 40
2456694.2370817009
  9
$USRTIMER
 70
     1
  9
$ANGBASE
 50
0.0
  9
$ANGDIR
 70
     0
  9
$PDMODE
 70
     0
  9
$PDSIZE
 40
0.0
  9
$PLINEWID
 40
0.0
  9
$COORDS
 70
     1
  9
$SPLFRAME
 70
     0
  9
$SPLINETYPE
 70
     6
  9
$SPLINESEGS
 70
     8
  9
$ATTDIA
 70
     0
  9
$ATTREQ
 70
     1
  9
$HANDLING
 70
     1
  9
$HANDSEED
  5
1359
  9
$SURFTAB1
 70
     6
  9
$SURFTAB2
 70
     6
  9
$SURFTYPE
 70
     6
  9
$SURFU
 70
     6
  9
$SURFV
 70
     6
  9
$UCSNAME
  2

  9
$UCSORG
 10
0.0
 20
0.0
 30
0.0
  9
$UCSXDIR
 10
1.0
 20
0.0
 30
0.0
  9
$UCSYDIR
 10
0.0
 20
1.0
 30
0.0
  9
$PUCSNAME
  2

  9
$PUCSORG
 10
0.0
 20
0.0
 30
0.0
  9
$PUCSXDIR
 10
1.0
 20
0.0
 30
0.0
  9
$PUCSYDIR
 10
0.0
 20
1.0
 30
0.0
  9
$USERI1
 70
     4
  9
$USERI2
 70
     1
  9
$USERI3
 70
     0
  9
$USERI4
 70
     0
  9
$USERI5
 70
     0
  9
$USERR1
 40
1.0
  9
$USERR2
 40
3.0
  9
$USERR3
 40
3.0
  9
$USERR4
 40
3.0
  9
$USERR5
 40
10.0
  9
$WORLDVIEW
 70
     1
  9
$SHADEDGE
 70
     3
  9
$SHADEDIF
 70
    70
  9
$TILEMODE
 70
     1
  9
$MAXACTVP
 70
    16
  9
$PLIMCHECK
 70
     0
  9
$PEXTMIN
 10
1.0000000000000000E+020
 20
1.0000000000000000E+020
 30
1.0000000000000000E+020
  9
$PEXTMAX
 10
-1.0000000000000000E+020
 20
-1.0000000000000000E+020
 30
-1.0000000000000000E+020
  9
$PLIMMIN
 10
0.0
 20
0.0
  9
$PLIMMAX
 10
0.0
 20
0.0
  9
$UNITMODE
 70
     0
  9
$VISRETAIN
 70
     0
  9
$PLINEGEN
 70
     0
  9
$PSLTSCALE
 70
     0
  0
ENDSEC
  0
SECTION
  2
TABLES
  0
TABLE
  2
VPORT
 70
     1
  0
VPORT
  2
*ACTIVE
 70
     0
 10
0.0
 20
0.0
 11
1.0
 21
1.0
 12
288.45869105157487
 22
133.51897435202409
 13
0.0
 23
0.0
 14
10.0
 24
10.0
 15
10.0
 25
10.0
 16
0.0
 26
0.0
 36
1.0
 17
0.0
 27
0.0
 37
0.0
 40
275.32535909938002
 41
2.6019575856443709
 42
50.0
 43
0.0
 44
0.0
 50
0.0
 51
0.0
 71
    16
 72
   100
 73
     1
 74
     0
 75
     0
 76
     0
 77
     0
 78
     0
  0
ENDTAB
  0
TABLE
  2
LTYPE
 70
     3
  0
LTYPE
  2
CONTINUOUS
 70
     0
  3
Solid Line
 72
    65
 73
     0
 40
0.0
  0
LTYPE
  2
PHANTOM2
 70
     0
  3
___ _ _ ___ _ _ ___ _ _ ___ _ _
 72
    65
 73
     6
 40
1.25
 49
0.625
 49
-0.125
 49
0.125
 49
-0.125
 49
0.125
 49
-0.125
  0
LTYPE
  2
CENTER
 70
     0
  3
____ _ ____ _ ____ _ ____ _ ____ _ ____ _ ____
 72
    65
 73
     4
 40
2.0
 49
1.25
 49
-0.25
 49
0.25
 49
-0.25
  0
ENDTAB
  0
TABLE
  2
LAYER
 70
     3
  0
LAYER
  2
0
 70
     0
 62
     7
  6
CONTINUOUS
  0
LAYER
  2
1
 70
     0
 62
     1
  6
CENTER
  0
LAYER
  2
3
 70
     0
 62
     3
  6
CONTINUOUS
  0
ENDTAB
  0
TABLE
  2
STYLE
 70
     2
  0
STYLE
  2
STANDARD
 70
     0
 40
0.0
 41
1.0
 50
0.0
 71
     0
 42
0.2
  3
SIMPLEX
  4
BIGFONT
  0
STYLE
  2
STANDARD1
 70
     0
 40
0.0
 41
1.0
 50
0.0
 71
     0
 42
3.0
  3
txt
  4

  0
ENDTAB
  0
TABLE
  2
VIEW
 70
     0
  0
ENDTAB
  0
TABLE
  2
UCS
 70
     0
  0
ENDTAB
  0
TABLE
  2
APPID
 70
    30
  0
APPID
  2
ACAD
 70
     0
  0
APPID
  2
ACADANNOTATIVE
 70
     0
  0
APPID
  2
GENIUS_GENOREF_13
 70
     0
  0
APPID
  2
GENIUS_GENOENT_13
 70
     0
  0
APPID
  2
GENIUS_GENBH_13
 70
     0
  0
APPID
  2
GENIUS_GENOBJ_13
 70
     0
  0
APPID
  2
GENIUS_GENODEF_13
 70
     0
  0
APPID
  2
GENIUS_GENOLIS_13
 70
     0
  0
APPID
  2
GENIUS_GENOBJ-NBEHI-BHF_13
 70
     0
  0
APPID
  2
GENIUS_GENOBJ-NBEHI-BHB_13
 70
     0
  0
APPID
  2
GENIUS_GENOBJ-F-PART_13
 70
     0
  0
APPID
  2
GENIUS_GEFSTDP_13
 70
     0
  0
APPID
  2
GENIUS_GENOBJ-N-RSSYM_13
 70
     0
  0
APPID
  2
GENIUS_GENSYMENT_13
 70
     0
  0
APPID
  2
GENIUS_GENOBJ-N-TIT_13
 70
     0
  0
APPID
  2
GENIUS_GENTITLE_13
 70
     0
  0
APPID
  2
GENIUS_GENZVEED_13
 70
     0
  0
APPID
  2
GENIUS_GENOBJ-N-LEADER_13
 70
     0
  0
APPID
  2
GENIUS_GENOBJ-N-FIL_13
 70
     0
  0
APPID
  2
GENIUS_GENOBJ-N-SEC_13
 70
     0
  0
APPID
  2
GENIUS_GENOBJ-N-CRS_13
 70
     0
  0
APPID
  2
GENIUS_GENOBJ-N-ZOO_13
 70
     0
  0
APPID
  2
GENIUS_GENZOO_13
 70
     0
  0
APPID
  2
GENIUS_GENOBJ-F-TOL_13
 70
     0
  0
APPID
  2
GENIUS_GENFIL_13
 70
     0
  0
APPID
  2
GENIUS_GENOBJ-N-CHA_13
 70
     0
  0
APPID
  2
ACAD_MLEADERVER
 70
     0
  0
APPID
  2
ACAD_EXEMPT_FROM_CAD_STAND
 70
     0
  0
APPID
  2
ACAD_NAV_VCDISPLAY
 70
     0
  0
APPID
  2
ACAD_EXEMPT_FROM_CAD_STANDARDS
 70
     0
  0
ENDTAB
  0
TABLE
  2
DIMSTYLE
 70
     1
  0
DIMSTYLE
  2
STANDARD
 70
     0
  3

  4

  5

  6

  7

 40
1.0
 41
0.18
 42
0.0625
 43
0.38
 44
0.18
 45
0.0
 46
0.0
 47
0.0
 48
0.0
140
0.18
141
0.09
142
0.0
143
25.399999999999999
144
1.0
145
0.0
146
1.0
147
0.09
 71
     0
 72
     0
 73
     1
 74
     1
 75
     0
 76
     0
 77
     0
 78
     0
170
     0
171
     2
172
     0
173
     0
174
     0
175
     0
176
     0
177
     0
178
     0
  0
ENDTAB
  0
ENDSEC
  0
SECTION
  2
BLOCKS
  0
BLOCK
  8
0
  2
$MODEL_SPACE
 70
     0
 10
0.0
 20
0.0
 30
0.0
  3
$MODEL_SPACE
  1

  0
ENDBLK
  5
E10
  8
0
  0
BLOCK
 67
     1
  8
0
  2
$PAPER_SPACE
 70
     0
 10
0.0
 20
0.0
 30
0.0
  3
$PAPER_SPACE
  1

  0
ENDBLK
  5
E0C
 67
     1
  8
0
  0
ENDSEC
  0
SECTION
  2
ENTITIES
  0
TEXT
  5
E90
  8
0
 62
     3
 10
0.0
 20
0.0
 30
0.0
 40
10.0
  1
ELP25-M8X72
  7
STANDARD1
  0
LINE
  5
10C4
  8
1
 10
82.170284457218514
 20
118.27654595890409
 30
0.0
 11
82.170284457218514
 21
29.276545958904101
 31
0.0
  0
LINE
  5
10C5
  8
0
 10
78.170284457218514
 20
114.5095459589041
 30
0.0
 11
78.170284457218514
 21
43.276545958904101
 31
0.0
  0
LINE
  5
10C6
  8
0
 10
86.170284457218514
 20
43.276545958904101
 30
0.0
 11
86.170284457218514
 21
114.5095459589041
 31
0.0
  0
LINE
  5
10C7
  8
0
 10
78.93728445721851
 20
115.27654595890409
 30
0.0
 11
78.170284457218514
 21
114.5095459589041
 31
0.0
  0
LINE
  5
10C8
  8
0
 10
86.170284457218514
 20
114.5095459589041
 30
0.0
 11
85.403284457218518
 21
115.27654595890409
 31
0.0
  0
LINE
  5
10CB
  8
0
 10
88.670284457218514
 20
36.810090990441097
 30
0.0
 11
88.670284457218514
 21
43.276545958904101
 31
0.0
  0
LINE
  5
10CC
  8
0
 10
88.670284457218514
 20
43.276545958904101
 30
0.0
 11
75.670284457218514
 21
43.276545958904101
 31
0.0
  0
LINE
  5
10CD
  8
0
 10
75.670284457218514
 20
43.276545958904101
 30
0.0
 11
75.670284457218514
 21
36.810090990441097
 31
0.0
  0
POLYLINE
  5
10CE
  8
0
 66
     1
 10
0.0
 20
0.0
 30
0.0
  0
VERTEX
  5
12AA
  8
0
 10
85.420284457218514
 20
43.276545958904101
 30
0.0
  0
VERTEX
  5
12AB
  8
0
 10
86.233343457829875
 20
43.258382352241867
 30
0.0
  0
VERTEX
  5
12AC
  8
0
 10
87.045284457218514
 20
43.20542835843451
 30
0.0
  0
VERTEX
  5
12AD
  8
0
 10
87.859031551097956
 20
43.120107751749543
 30
0.0
  0
VERTEX
  5
12AE
  8
0
 10
88.670284457218514
 20
43.007108710776137
 30
0.0
  0
SEQEND
  5
12AF
  8
0
  0
LINE
  5
10CF
  8
0
 10
82.170284457218514
 20
43.007108710776137
 30
0.0
 11
82.170284457218514
 21
36.810090990441097
 31
0.0
  0
POLYLINE
  5
10D0
  8
0
 66
     1
 10
0.0
 20
0.0
 30
0.0
  0
VERTEX
  5
12B0
  8
0
 10
75.670284457218514
 20
43.007108710776137
 30
0.0
  0
VERTEX
  5
12B1
  8
0
 10
76.477894363163927
 20
43.119659802696752
 30
0.0
  0
VERTEX
  5
12B2
  8
0
 10
77.287978019650382
 20
43.20480007468683
 30
0.0
  0
VERTEX
  5
12B3
  8
0
 10
78.103565072028715
 20
43.25821861619827
 30
0.0
  0
VERTEX
  5
12B4
  8
0
 10
78.920284457218514
 20
43.276545958904101
 30
0.0
  0
SEQEND
  5
12B5
  8
0
  0
POLYLINE
  5
10D1
  8
0
 66
     1
 10
0.0
 20
0.0
 30
0.0
  0
VERTEX
  5
12B6
  8
0
 10
78.920284457218514
 20
43.276545958904101
 30
0.0
  0
VERTEX
  5
12B7
  8
0
 10
79.733343457829875
 20
43.258382352241867
 30
0.0
  0
VERTEX
  5
12B8
  8
0
 10
80.545284457218514
 20
43.20542835843451
 30
0.0
  0
VERTEX
  5
12B9
  8
0
 10
81.359031551097956
 20
43.120107751749543
 30
0.0
  0
VERTEX
  5
12BA
  8
0
 10
82.170284457218514
 20
43.007108710776137
 30
0.0
  0
SEQEND
  5
12BB
  8
0
  0
POLYLINE
  5
10D2
  8
0
 66
     1
 10
0.0
 20
0.0
 30
0.0
  0
VERTEX
  5
12BC
  8
0
 10
82.170284457218514
 20
43.007108710776137
 30
0.0
  0
VERTEX
  5
12BD
  8
0
 10
82.977894363163927
 20
43.119659802696752
 30
0.0
  0
VERTEX
  5
12BE
  8
0
 10
83.787978019650382
 20
43.20480007468683
 30
0.0
  0
VERTEX
  5
12BF
  8
0
 10
84.603565072028715
 20
43.25821861619827
 30
0.0
  0
VERTEX
  5
12C0
  8
0
 10
85.420284457218514
 20
43.276545958904101
 30
0.0
  0
SEQEND
  5
12C1
  8
0
  0
POLYLINE
  5
10D3
  8
0
 66
     1
 10
0.0
 20
0.0
 30
0.0
  0
VERTEX
  5
12C2
  8
0
 10
88.670284457218514
 20
36.810090990441097
 30
0.0
  0
VERTEX
  5
12C3
  8
0
 10
87.825139129509409
 20
37.062493209650277
 30
0.0
  0
VERTEX
  5
12C4
  8
0
 10
86.967902393215013
 20
37.251402782448992
 30
0.0
  0
VERTEX
  5
12C5
  8
0
 10
86.377719965374524
 20
37.336427830605722
 30
0.0
  0
VERTEX
  5
12C6
  8
0
 10
85.783844555488145
 20
37.38249215306309
 30
0.0
  0
VERTEX
  5
12C7
  8
0
 10
85.189213477867767
 20
37.387487169081993
 30
0.0
  0
VERTEX
  5
12C8
  8
0
 10
84.430634429030164
 20
37.332903975489792
 30
0.0
  0
VERTEX
  5
12C9
  8
0
 10
83.677368236896541
 20
37.214881650746037
 30
0.0
  0
VERTEX
  5
12CA
  8
0
 10
82.918998245690943
 20
37.036835295302012
 30
0.0
  0
VERTEX
  5
12CB
  8
0
 10
82.170284457218514
 20
36.810090990441097
 30
0.0
  0
SEQEND
  5
12CC
  8
0
  0
POLYLINE
  5
10D4
  8
0
 66
     1
 10
0.0
 20
0.0
 30
0.0
  0
VERTEX
  5
12CD
  8
0
 10
82.170284457218514
 20
36.810090990441097
 30
0.0
  0
VERTEX
  5
12CE
  8
0
 10
81.325139129509395
 20
37.062493209650277
 30
0.0
  0
VERTEX
  5
12CF
  8
0
 10
80.467902393214999
 20
37.251402782448992
 30
0.0
  0
VERTEX
  5
12D0
  8
0
 10
79.877719965374524
 20
37.336427830605722
 30
0.0
  0
VERTEX
  5
12D1
  8
0
 10
79.283844555488116
 20
37.38249215306309
 30
0.0
  0
VERTEX
  5
12D2
  8
0
 10
78.689213477867781
 20
37.387487169082
 30
0.0
  0
VERTEX
  5
12D3
  8
0
 10
77.930634429030164
 20
37.332903975489792
 30
0.0
  0
VERTEX
  5
12D4
  8
0
 10
77.177368236896541
 20
37.214881650746037
 30
0.0
  0
VERTEX
  5
12D5
  8
0
 10
76.418998245690943
 20
37.036835295302012
 30
0.0
  0
VERTEX
  5
12D6
  8
0
 10
75.670284457218514
 20
36.810090990441097
 30
0.0
  0
SEQEND
  5
12D7
  8
0
  0
LINE
  5
10D5
  8
0
 10
75.670284457218514
 20
37.390647574041857
 30
0.0
 11
69.826534457218514
 21
34.016756938464987
 31
0.0
  0
LINE
  5
10D6
  8
0
 10
94.514034457218514
 20
34.016756938464987
 30
0.0
 11
88.670284457218514
 21
37.390647574041857
 31
0.0
  0
LINE
  5
10D7
  8
0
 10
69.670284457218514
 20
33.746123999782348
 30
0.0
 11
69.670284457218514
 21
32.276545958904109
 31
0.0
  0
LINE
  5
10D8
  8
0
 10
94.670284457218514
 20
32.276545958904109
 30
0.0
 11
94.670284457218514
 21
33.746123999782348
 31
0.0
  0
LINE
  5
10D9
  8
0
 10
94.670284457218514
 20
32.276545958904109
 30
0.0
 11
69.670284457218514
 21
32.276545958904109
 31
0.0
  0
ARC
  5
10DA
  8
0
 10
69.982784457218514
 20
33.746123999782348
 30
0.0
 40
0.3125000000000071
 50
119.9999999999992
 51
180.0
  0
ARC
  5
10DB
  8
0
 10
94.357784457218514
 20
33.746123999782348
 30
0.0
 40
0.3125000000000071
 50
0.0
 51
60.00000000000076
  0
LINE
  5
10DC
  8
0
 10
94.514034457218514
 20
34.016756938464987
 30
0.0
 11
69.826534457218514
 21
34.016756938464987
 31
0.0
  0
LINE
  5
10DD
  8
0
 10
94.670284457218514
 20
33.746123999782348
 30
0.0
 11
69.670284457218514
 21
33.746123999782348
 31
0.0
  0
LINE
  5
113D
  8
1
 10
34.062604339424162
 20
118.27654595890409
 30
0.0
 11
34.062604339424162
 21
29.276545958904101
 31
0.0
  0
LINE
  5
113E
  8
0
 10
41.56815783888927
 20
43.00710871077613
 30
0.0
 11
40.562604339424148
 21
43.276545958904101
 31
0.0
  0
LINE
  5
113F
  8
0
 10
40.562604339424148
 20
43.276545958904101
 30
0.0
 11
27.562604339424151
 21
43.276545958904101
 31
0.0
  0
LINE
  5
1140
  8
0
 10
27.562604339424151
 20
43.276545958904101
 30
0.0
 11
26.557050839959029
 21
43.00710871077613
 31
0.0
  0
LINE
  5
1142
  8
0
 10
30.829604339424151
 20
115.27654595890409
 30
0.0
 11
30.062604339424151
 21
114.5095459589041
 31
0.0
  0
LINE
  5
1143
  8
0
 10
38.062604339424162
 20
114.5095459589041
 30
0.0
 11
37.295604339424159
 21
115.27654595890409
 31
0.0
  0
LINE
  5
1145
  8
0
 10
30.062604339424151
 20
114.5095459589041
 30
0.0
 11
30.062604339424151
 21
43.276545958904101
 31
0.0
  0
LINE
  5
1146
  8
0
 10
38.062604339424162
 20
43.276545958904101
 30
0.0
 11
38.062604339424162
 21
114.509545958904
 31
0.0
  0
LINE
  5
1147
  8
0
 10
41.56815783888927
 20
43.00710871077613
 30
0.0
 11
41.56815783888927
 21
36.81009099044109
 31
0.0
  0
POLYLINE
  5
1148
  8
0
 66
     1
 10
0.0
 20
0.0
 30
0.0
  0
VERTEX
  5
12D8
  8
0
 10
39.691769464022997
 20
43.276545958904101
 30
0.0
  0
VERTEX
  5
12D9
  8
0
 10
40.160866557739581
 20
43.258497085642411
 30
0.0
  0
VERTEX
  5
12DA
  8
0
 10
40.629963651456137
 20
43.205428358434503
 30
0.0
  0
VERTEX
  5
12DB
  8
0
 10
41.099577112869611
 20
43.12016512590494
 30
0.0
  0
VERTEX
  5
12DC
  8
0
 10
41.56815783888927
 20
43.00710871077613
 30
0.0
  0
SEQEND
  5
12DD
  8
0
  0
POLYLINE
  5
1149
  8
0
 66
     1
 10
0.0
 20
0.0
 30
0.0
  0
VERTEX
  5
12DE
  8
0
 10
37.815381089156723
 20
43.00710871077613
 30
0.0
  0
VERTEX
  5
12DF
  8
0
 10
38.28145288414234
 20
43.119630297096322
 30
0.0
  0
VERTEX
  5
12E0
  8
0
 10
38.749830775987839
 20
43.204870782909829
 30
0.0
  0
VERTEX
  5
12E1
  8
0
 10
39.219906056443591
 20
43.258284693567063
 30
0.0
  0
VERTEX
  5
12E2
  8
0
 10
39.691769464022997
 20
43.276545958904101
 30
0.0
  0
SEQEND
  5
12E3
  8
0
  0
LINE
  5
114A
  8
0
 10
37.815381089156723
 20
43.00710871077613
 30
0.0
 11
37.815381089156723
 21
36.81009099044109
 31
0.0
  0
POLYLINE
  5
114B
  8
0
 66
     1
 10
0.0
 20
0.0
 30
0.0
  0
VERTEX
  5
12E4
  8
0
 10
34.062604339424162
 20
43.276545958904101
 30
0.0
  0
VERTEX
  5
12E5
  8
0
 10
34.766720998660453
 20
43.26635699887224
 30
0.0
  0
VERTEX
  5
12E6
  8
0
 10
35.470837657896737
 20
43.23613961471974
 30
0.0
  0
VERTEX
  5
12E7
  8
0
 10
36.879070976369349
 20
43.120074442383988
 30
0.0
  0
VERTEX
  5
12E8
  8
0
 10
37.815381089156723
 20
43.00710871077613
 30
0.0
  0
SEQEND
  5
12E9
  8
0
  0
POLYLINE
  5
114C
  8
0
 66
     1
 10
0.0
 20
0.0
 30
0.0
  0
VERTEX
  5
12EA
  8
0
 10
30.30982758969159
 20
43.00710871077613
 30
0.0
  0
VERTEX
  5
12EB
  8
0
 10
31.241971179662791
 20
43.119630297096322
 30
0.0
  0
VERTEX
  5
12EC
  8
0
 10
32.177779217164328
 20
43.204800074686823
 30
0.0
  0
VERTEX
  5
12ED
  8
0
 10
33.118877524265343
 20
43.258284693567063
 30
0.0
  0
VERTEX
  5
12EE
  8
0
 10
34.062604339424162
 20
43.276545958904101
 30
0.0
  0
SEQEND
  5
12EF
  8
0
  0
LINE
  5
114D
  8
0
 10
30.30982758969159
 20
43.00710871077613
 30
0.0
 11
30.30982758969159
 21
36.81009099044109
 31
0.0
  0
POLYLINE
  5
114E
  8
0
 66
     1
 10
0.0
 20
0.0
 30
0.0
  0
VERTEX
  5
12F0
  8
0
 10
28.43343921482532
 20
43.276545958904101
 30
0.0
  0
VERTEX
  5
12F1
  8
0
 10
28.902536308541869
 20
43.258497085642411
 30
0.0
  0
VERTEX
  5
12F2
  8
0
 10
29.37163340225846
 20
43.205428358434503
 30
0.0
  0
VERTEX
  5
12F3
  8
0
 10
29.841246863671898
 20
43.12016512590494
 30
0.0
  0
VERTEX
  5
12F4
  8
0
 10
30.30982758969159
 20
43.00710871077613
 30
0.0
  0
SEQEND
  5
12F5
  8
0
  0
POLYLINE
  5
114F
  8
0
 66
     1
 10
0.0
 20
0.0
 30
0.0
  0
VERTEX
  5
12F6
  8
0
 10
26.557050839959029
 20
43.00710871077613
 30
0.0
  0
VERTEX
  5
12F7
  8
0
 10
27.257084647267021
 20
43.165966835441672
 30
0.0
  0
VERTEX
  5
12F8
  8
0
 10
27.609030858365369
 20
43.221365151113091
 30
0.0
  0
VERTEX
  5
12F9
  8
0
 10
27.961575807245879
 20
43.258284693567063
 30
0.0
  0
VERTEX
  5
12FA
  8
0
 10
28.43343921482532
 20
43.276545958904101
 30
0.0
  0
SEQEND
  5
12FB
  8
0
  0
LINE
  5
1150
  8
0
 10
26.557050839959029
 20
43.00710871077613
 30
0.0
 11
26.557050839959029
 21
36.81009099044109
 31
0.0
  0
POLYLINE
  5
1151
  8
0
 66
     1
 10
0.0
 20
0.0
 30
0.0
  0
VERTEX
  5
12FC
  8
0
 10
41.56815783888927
 20
36.81009099044109
 30
0.0
  0
VERTEX
  5
12FD
  8
0
 10
41.081242497334038
 20
37.062062572218373
 30
0.0
  0
VERTEX
  5
12FE
  8
0
 10
40.58528709597325
 20
37.251402782448977
 30
0.0
  0
VERTEX
  5
12FF
  8
0
 10
40.330875585735747
 20
37.318754406367511
 30
0.0
  0
VERTEX
  5
1300
  8
0
 10
40.075280084958983
 20
37.364609624891422
 30
0.0
  0
VERTEX
  5
1301
  8
0
 10
39.81694964478902
 20
37.387834260941069
 30
0.0
  0
VERTEX
  5
1302
  8
0
 10
39.558360571892933
 20
37.387487169081993
 30
0.0
  0
VERTEX
  5
1303
  8
0
 10
39.121547925209569
 20
37.333323257166221
 30
0.0
  0
VERTEX
  5
1304
  8
0
 10
38.685496315045157
 20
37.21488165074603
 30
0.0
  0
VERTEX
  5
1305
  8
0
 10
38.248331450985887
 20
37.037166774215777
 30
0.0
  0
VERTEX
  5
1306
  8
0
 10
37.815381089156723
 20
36.81009099044109
 30
0.0
  0
SEQEND
  5
1307
  8
0
  0
POLYLINE
  5
1152
  8
0
 66
     1
 10
0.0
 20
0.0
 30
0.0
  0
VERTEX
  5
1308
  8
0
 10
37.815381089156723
 20
36.81009099044109
 30
0.0
  0
VERTEX
  5
1309
  8
0
 10
36.956620268610671
 20
37.035491826828817
 30
0.0
  0
VERTEX
  5
130A
  8
0
 10
36.021684413880251
 20
37.223900766923379
 30
0.0
  0
VERTEX
  5
130B
  8
0
 10
35.07111713751803
 20
37.345745292931191
 30
0.0
  0
VERTEX
  5
130C
  8
0
 10
34.58417499827172
 20
37.378562236161713
 30
0.0
  0
VERTEX
  5
130D
  8
0
 10
34.096283695404139
 20
37.390597198391958
 30
0.0
  0
VERTEX
  5
130E
  8
0
 10
33.604700056471223
 20
37.381322830383539
 30
0.0
  0
VERTEX
  5
130F
  8
0
 10
33.113965203479978
 20
37.350891475740667
 30
0.0
  0
VERTEX
  5
1310
  8
0
 10
32.4083180406463
 20
37.271014946383133
 30
0.0
  0
VERTEX
  5
1311
  8
0
 10
31.705966657648389
 20
37.1516101512807
 30
0.0
  0
VERTEX
  5
1312
  8
0
 10
31.004886257869401
 20
36.996150525793119
 30
0.0
  0
VERTEX
  5
1313
  8
0
 10
30.30982758969159
 20
36.81009099044109
 30
0.0
  0
SEQEND
  5
1314
  8
0
  0
POLYLINE
  5
1153
  8
0
 66
     1
 10
0.0
 20
0.0
 30
0.0
  0
VERTEX
  5
1315
  8
0
 10
30.30982758969159
 20
36.81009099044109
 30
0.0
  0
VERTEX
  5
1316
  8
0
 10
29.822912248136362
 20
37.062062572218373
 30
0.0
  0
VERTEX
  5
1317
  8
0
 10
29.32695684677558
 20
37.251402782448977
 30
0.0
  0
VERTEX
  5
1318
  8
0
 10
29.07254533653807
 20
37.318754406367511
 30
0.0
  0
VERTEX
  5
1319
  8
0
 10
28.816949835761282
 20
37.364609624891422
 30
0.0
  0
VERTEX
  5
131A
  8
0
 10
28.558619395591329
 20
37.387834260941069
 30
0.0
  0
VERTEX
  5
131B
  8
0
 10
28.30003032269525
 20
37.387487169081979
 30
0.0
  0
VERTEX
  5
131C
  8
0
 10
27.863217676011889
 20
37.333323257166221
 30
0.0
  0
VERTEX
  5
131D
  8
0
 10
27.427166065847452
 20
37.21488165074603
 30
0.0
  0
VERTEX
  5
131E
  8
0
 10
26.9900012017882
 20
37.037166774215777
 30
0.0
  0
VERTEX
  5
131F
  8
0
 10
26.557050839959029
 20
36.81009099044109
 30
0.0
  0
SEQEND
  5
1320
  8
0
  0
LINE
  5
1154
  8
0
 10
26.557050839959029
 20
36.81009099044109
 30
0.0
 11
21.718854339424151
 21
34.016756938464979
 31
0.0
  0
LINE
  5
1155
  8
0
 10
46.406354339424148
 20
34.016756938464979
 30
0.0
 11
41.56815783888927
 21
36.81009099044109
 31
0.0
  0
LINE
  5
1156
  8
0
 10
46.562604339424148
 20
32.276545958904101
 30
0.0
 11
21.562604339424151
 21
32.276545958904101
 31
0.0
  0
LINE
  5
1157
  8
0
 10
21.562604339424151
 20
33.746123999782341
 30
0.0
 11
21.562604339424151
 21
32.276545958904101
 31
0.0
  0
LINE
  5
1158
  8
0
 10
46.562604339424148
 20
32.276545958904101
 30
0.0
 11
46.562604339424148
 21
33.746123999782341
 31
0.0
  0
LINE
  5
1159
  8
0
 10
46.406354339424148
 20
34.016756938464979
 30
0.0
 11
21.718854339424151
 21
34.016756938464979
 31
0.0
  0
LINE
  5
115A
  8
0
 10
46.562604339424148
 20
33.746123999782341
 30
0.0
 11
21.562604339424151
 21
33.746123999782341
 31
0.0
  0
ARC
  5
115B
  8
0
 10
21.875104339424151
 20
33.746123999782341
 30
0.0
 40
0.3125000000000071
 50
119.9999999999992
 51
180.0
  0
ARC
  5
115C
  8
0
 10
46.250104339424148
 20
33.746123999782341
 30
0.0
 40
0.3125000000000071
 50
0.0
 51
60.00000000000076
  0
LINE
  5
1199
  8
1
 10
18.562604339424151
 20
138.98285530821909
 30
0.0
 11
49.562604339424148
 21
138.98285530821909
 31
0.0
  0
LINE
  5
119A
  8
1
 10
34.062604339424162
 20
123.4828553082191
 30
0.0
 11
34.062604339424162
 21
154.48285530821909
 31
0.0
  0
LINE
  5
119C
  8
0
 10
37.815381089156737
 20
145.4828553082192
 30
0.0
 11
30.30982758969159
 21
145.4828553082192
 31
0.0
  0
LINE
  5
119D
  8
0
 10
41.568157838889292
 20
138.98285530821909
 30
0.0
 11
37.815381089156737
 21
145.4828553082192
 31
0.0
  0
LINE
  5
119E
  8
0
 10
30.30982758969159
 20
145.4828553082192
 30
0.0
 11
26.557050839959029
 21
138.98285530821909
 31
0.0
  0
LINE
  5
119F
  8
0
 10
26.557050839959029
 20
138.98285530821909
 30
0.0
 11
30.30982758969159
 21
132.48285530821909
 31
0.0
  0
LINE
  5
11A0
  8
0
 10
30.30982758969159
 20
132.48285530821909
 30
0.0
 11
37.815381089156737
 21
132.48285530821909
 31
0.0
  0
LINE
  5
11A2
  8
0
 10
37.815381089156737
 20
132.48285530821909
 30
0.0
 11
41.568157838889292
 21
138.98285530821909
 31
0.0
  0
CIRCLE
  5
11A3
  8
0
 10
34.062604339424162
 20
138.98285530821909
 30
0.0
 40
4.0
  0
CIRCLE
  5
11A5
  8
0
 10
34.062604339424162
 20
138.98285530821909
 30
0.0
 40
12.5
  0
CIRCLE
  5
11A6
  8
0
 10
34.062604339424162
 20
138.98285530821909
 30
0.0
 40
6.4999999999999858
  0
LINE
  5
11C6
  8
0
 10
37.295604339424159
 20
115.27654595890409
 30
0.0
 11
30.829604339424151
 21
115.27654595890409
 31
0.0
  0
LINE
  5
11C7
  8
0
 10
85.403284457218518
 20
115.27654595890409
 30
0.0
 11
78.93728445721851
 21
115.27654595890409
 31
0.0
  0
LINE
  5
11C8
  8
0
 10
38.062604339424162
 20
114.5095459589041
 30
0.0
 11
30.062604339424151
 21
114.5095459589041
 31
0.0
  0
LINE
  5
11C9
  8
0
 10
86.170284457218514
 20
114.5095459589041
 30
0.0
 11
78.170284457218514
 21
114.5095459589041
 31
0.0
  0
CIRCLE
  5
123A
  8
3
 10
34.062604339424162
 20
138.98285530821909
 30
0.0
 40
3.3235000000000001
  0
LINE
  5
1241
  8
3
 10
37.386104339424257
 20
43.276545958904101
 30
0.0
 11
37.386104339424257
 21
115.186045958904
 31
0.0
  0
LINE
  5
1242
  8
3
 10
30.739104339424049
 20
43.276545958904101
 30
0.0
 11
30.739104339424049
 21
115.186045958904
 31
0.0
  0
LINE
  5
1243
  8
3
 10
85.493784457218624
 20
43.276545958904101
 30
0.0
 11
85.493784457218624
 21
115.186045958904
 31
0.0
  0
LINE
  5
1244
  8
3
 10
78.846784457218405
 20
43.276545958904101
 30
0.0
 11
78.846784457218405
 21
115.186045958904
 31
0.0
  0
ENDSEC
  0
EOF
