  0
SECTION
  2
HEADER
  9
$ACADVER
  1
AC1009
  9
$INSBASE
 10
0.0
 20
0.0
 30
0.0
  9
$EXTMIN
 10
0.0
 20
-2.960436562073669
 30
0.0
  9
$EXTMAX
 10
218.23245899163069
 20
213.83906329369239
 30
0.0
  9
$LIMMIN
 10
0.0
 20
0.0
  9
$LIMMAX
 10
385.0
 20
270.0
  9
$ORTHOMODE
 70
     0
  9
$REGENMODE
 70
     1
  9
$FILLMODE
 70
     1
  9
$QTEXTMODE
 70
     0
  9
$MIRRTEXT
 70
     0
  9
$DRAGMODE
 70
     2
  9
$LTSCALE
 40
10.0
  9
$OSMODE
 70
  3071
  9
$ATTMODE
 70
     1
  9
$TEXTSIZE
 40
0.2
  9
$TRACEWID
 40
0.05
  9
$TEXTSTYLE
  7
STANDARD
  9
$CLAYER
  8
0
  9
$CELTYPE
  6
BYLAYER
  9
$CECOLOR
 62
   256
  9
$DIMSCALE
 40
1.0
  9
$DIMASZ
 40
3.0
  9
$DIMEXO
 40
0.0625
  9
$DIMDLI
 40
0.38
  9
$DIMRND
 40
0.0
  9
$DIMDLE
 40
0.0
  9
$DIMEXE
 40
0.18
  9
$DIMTP
 40
0.0
  9
$DIMTM
 40
0.0
  9
$DIMTXT
 40
3.0
  9
$DIMCEN
 40
0.09
  9
$DIMTSZ
 40
0.0
  9
$DIMTOL
 70
     0
  9
$DIMLIM
 70
     0
  9
$DIMTIH
 70
     1
  9
$DIMTOH
 70
     1
  9
$DIMSE1
 70
     0
  9
$DIMSE2
 70
     0
  9
$DIMTAD
 70
     0
  9
$DIMZIN
 70
     0
  9
$DIMBLK
  1

  9
$DIMASO
 70
     1
  9
$DIMSHO
 70
     1
  9
$DIMPOST
  1

  9
$DIMAPOST
  1

  9
$DIMALT
 70
     0
  9
$DIMALTD
 70
     2
  9
$DIMALTF
 40
25.399999999999999
  9
$DIMLFAC
 40
1.0
  9
$DIMTOFL
 70
     0
  9
$DIMTVP
 40
0.0
  9
$DIMTIX
 70
     0
  9
$DIMSOXD
 70
     0
  9
$DIMSAH
 70
     0
  9
$DIMBLK1
  1

  9
$DIMBLK2
  1

  9
$DIMSTYLE
  2
STANDARD
  9
$DIMCLRD
 70
     0
  9
$DIMCLRE
 70
     0
  9
$DIMCLRT
 70
     0
  9
$DIMTFAC
 40
1.0
  9
$DIMGAP
 40
0.09
  9
$LUNITS
 70
     2
  9
$LUPREC
 70
     4
  9
$SKETCHINC
 40
0.1
  9
$FILLETRAD
 40
0.0
  9
$AUNITS
 70
     0
  9
$AUPREC
 70
     0
  9
$MENU
  1
E:\r13\win\SUPPORT\ACAD
  9
$ELEVATION
 40
0.0
  9
$PELEVATION
 40
0.0
  9
$THICKNESS
 40
0.0
  9
$LIMCHECK
 70
     0
  9
$BLIPMODE
 70
     0
  9
$CHAMFERA
 40
0.0
  9
$CHAMFERB
 40
0.0
  9
$SKPOLY
 70
     0
  9
$TDCREATE
 40
2450361.7095834492
  9
$TDUPDATE
 40
2456598.67883868
  9
$TDINDWG
 40
0.0091309722
  9
$TDUSRTIMER
 40
0.0091309722
  9
$USRTIMER
 70
     1
  9
$ANGBASE
 50
0.0
  9
$ANGDIR
 70
     0
  9
$PDMODE
 70
     0
  9
$PDSIZE
 40
0.0
  9
$PLINEWID
 40
0.0
  9
$COORDS
 70
     1
  9
$SPLFRAME
 70
     0
  9
$SPLINETYPE
 70
     6
  9
$SPLINESEGS
 70
     8
  9
$ATTDIA
 70
     0
  9
$ATTREQ
 70
     1
  9
$HANDLING
 70
     1
  9
$HANDSEED
  5
35B
  9
$SURFTAB1
 70
     6
  9
$SURFTAB2
 70
     6
  9
$SURFTYPE
 70
     6
  9
$SURFU
 70
     6
  9
$SURFV
 70
     6
  9
$UCSNAME
  2

  9
$UCSORG
 10
0.0
 20
0.0
 30
0.0
  9
$UCSXDIR
 10
1.0
 20
0.0
 30
0.0
  9
$UCSYDIR
 10
0.0
 20
1.0
 30
0.0
  9
$PUCSNAME
  2

  9
$PUCSORG
 10
0.0
 20
0.0
 30
0.0
  9
$PUCSXDIR
 10
1.0
 20
0.0
 30
0.0
  9
$PUCSYDIR
 10
0.0
 20
1.0
 30
0.0
  9
$USERI1
 70
     3
  9
$USERI2
 70
     1
  9
$USERI3
 70
     1
  9
$USERI4
 70
     0
  9
$USERI5
 70
     0
  9
$USERR1
 40
1.0
  9
$USERR2
 40
3.0
  9
$USERR3
 40
3.0
  9
$USERR4
 40
3.0
  9
$USERR5
 40
10.0
  9
$WORLDVIEW
 70
     1
  9
$SHADEDGE
 70
     3
  9
$SHADEDIF
 70
    70
  9
$TILEMODE
 70
     1
  9
$MAXACTVP
 70
    16
  9
$PLIMCHECK
 70
     0
  9
$PEXTMIN
 10
1.0000000000000000E+020
 20
1.0000000000000000E+020
 30
1.0000000000000000E+020
  9
$PEXTMAX
 10
-1.0000000000000000E+020
 20
-1.0000000000000000E+020
 30
-1.0000000000000000E+020
  9
$PLIMMIN
 10
0.0
 20
0.0
  9
$PLIMMAX
 10
12.0
 20
9.0
  9
$UNITMODE
 70
     0
  9
$VISRETAIN
 70
     0
  9
$PLINEGEN
 70
     0
  9
$PSLTSCALE
 70
     0
  0
ENDSEC
  0
SECTION
  2
TABLES
  0
TABLE
  2
VPORT
 70
     1
  0
VPORT
  2
*ACTIVE
 70
     0
 10
0.0
 20
0.0
 11
1.0
 21
1.0
 12
192.49412581440311
 22
169.9063198933564
 13
0.0
 23
0.0
 14
5.0
 24
5.0
 15
0.0
 25
0.0
 16
0.0
 26
0.0
 36
1.0
 17
0.0
 27
0.0
 37
0.0
 40
348.89937369551939
 41
1.831871345029239
 42
50.0
 43
0.0
 44
0.0
 50
0.0
 51
0.0
 71
     0
 72
   100
 73
     1
 74
     0
 75
     0
 76
     0
 77
     0
 78
     1
  0
ENDTAB
  0
TABLE
  2
LTYPE
 70
     4
  0
LTYPE
  2
CONTINUOUS
 70
     0
  3
Solid Line
 72
    65
 73
     0
 40
0.0
  0
LTYPE
  2
CENTER
 70
     0
  3
____ _ ____ _ ____ _ ____ _ ____ _ ____ _ ____
 72
    65
 73
     4
 40
2.0
 49
1.25
 49
-0.25
 49
0.25
 49
-0.25
  0
LTYPE
  2
HIDDEN
 70
     0
  3
_ _ _ _ _ _ _ _ _ _ _ _ _ _ _ _ _ _ _ _ _ _ _
 72
    65
 73
     2
 40
0.375
 49
0.25
 49
-0.125
  0
LTYPE
  2
PHANTOM2
 70
     0
  3
___ _ _ ___ _ _ ___ _ _ ___ _ _
 72
    65
 73
     6
 40
1.25
 49
0.625
 49
-0.125
 49
0.125
 49
-0.125
 49
0.125
 49
-0.125
  0
ENDTAB
  0
TABLE
  2
LAYER
 70
     4
  0
LAYER
  2
0
 70
     0
 62
     7
  6
CONTINUOUS
  0
LAYER
  2
1
 70
     0
 62
     1
  6
CENTER
  0
LAYER
  2
2
 70
     0
 62
     2
  6
HIDDEN
  0
LAYER
  2
3
 70
     0
 62
     3
  6
CONTINUOUS
  0
ENDTAB
  0
TABLE
  2
STYLE
 70
     2
  0
STYLE
  2
STANDARD
 70
     0
 40
0.0
 41
1.0
 50
0.0
 71
     0
 42
0.2
  3
SIMPLEX
  4
BIGFONT
  0
STYLE
  2
STANDARD1
 70
     0
 40
0.0
 41
1.0
 50
0.0
 71
     0
 42
3.0
  3
txt
  4

  0
ENDTAB
  0
TABLE
  2
VIEW
 70
     0
  0
ENDTAB
  0
TABLE
  2
UCS
 70
     0
  0
ENDTAB
  0
TABLE
  2
APPID
 70
     5
  0
APPID
  2
ACAD
 70
     0
  0
APPID
  2
GENIUS_GENFIL_13
 70
     0
  0
APPID
  2
GENIUS_GENOREF_13
 70
     0
  0
APPID
  2
ACAD_MLEADERVER
 70
     0
  0
APPID
  2
ACAD_NAV_VCDISPLAY
 70
     0
  0
ENDTAB
  0
TABLE
  2
DIMSTYLE
 70
     1
  0
DIMSTYLE
  2
STANDARD
 70
     0
  3

  4

  5

  6

  7

 40
1.0
 41
0.18
 42
0.0625
 43
0.38
 44
0.18
 45
0.0
 46
0.0
 47
0.0
 48
0.0
140
0.18
141
0.09
142
0.0
143
25.399999999999999
144
1.0
145
0.0
146
1.0
147
0.09
 71
     0
 72
     0
 73
     1
 74
     1
 75
     0
 76
     0
 77
     0
 78
     0
170
     0
171
     2
172
     0
173
     0
174
     0
175
     0
176
     0
177
     0
178
     0
  0
ENDTAB
  0
ENDSEC
  0
SECTION
  2
BLOCKS
  0
BLOCK
  8
0
  2
$MODEL_SPACE
 70
     0
 10
0.0
 20
0.0
 30
0.0
  3
$MODEL_SPACE
  1

  0
ENDBLK
  5
D9
  8
0
  0
BLOCK
 67
     1
  8
0
  2
$PAPER_SPACE
 70
     0
 10
0.0
 20
0.0
 30
0.0
  3
$PAPER_SPACE
  1

  0
ENDBLK
  5
D7
 67
     1
  8
0
  0
ENDSEC
  0
SECTION
  2
ENTITIES
  0
CIRCLE
  5
13E
  8
3
 10
190.73248149163061
 20
186.33908579369239
 30
0.0
 40
19.224866851541108
  0
CIRCLE
  5
13F
  8
0
 10
190.73248149163061
 20
186.33908579369239
 30
0.0
 40
22.4999775
  0
ARC
  5
141
  8
2
 10
190.73248149163061
 20
201.0186540965793
 30
0.0
 40
82.5
 50
256.26415798307221
 51
270.0
  0
LINE
  5
142
  8
0
 10
213.23245899163089
 20
118.2780903113386
 30
0.0
 11
168.23250399163049
 21
118.2780903113385
 31
0.0
  0
LINE
  5
143
  8
0
 10
213.2319191162884
 20
117.4809481613384
 30
0.0
 11
168.23304386697299
 21
117.4809481613385
 31
0.0
  0
LINE
  5
145
  8
3
 10
178.44268562828461
 20
106.412751278019
 30
0.0
 11
181.44616156305071
 21
106.412751278019
 31
0.0
  0
LINE
  5
147
  8
0
 10
170.83250399163049
 20
120.8780903113385
 30
0.0
 11
210.63245899163081
 21
120.8780903113385
 31
0.0
  0
ARC
  5
149
  8
0
 10
191.0083647186201
 20
107.5099773575959
 30
0.0
 40
21.907742994831381
 50
160.45465193260631
 51
180.74439551529341
  0
ARC
  5
14A
  8
0
 10
145.01182955791791
 20
95.592432386645896
 30
0.0
 40
35.173281502336451
 50
18.4546042156718
 51
33.953777401726541
  0
ARC
  5
14C
  8
0
 10
171.14968895592909
 20
106.88696151668751
 30
0.0
 40
2.0089265625000001
 50
184.85681450403919
 51
270.0
  0
ARC
  5
14D
  8
0
 10
177.03540308409021
 20
106.27916465752941
 30
0.0
 40
1.413608695632514
 50
277.6187336315063
 51
18.4546042156718
  0
ARC
  5
14E
  8
0
 10
172.3852251805848
 20
113.9831422536637
 30
0.0
 40
2.195975950622191
 50
34.836086069745861
 51
157.05394697745299
  0
LINE
  5
14F
  8
0
 10
168.83248149163069
 20
118.2780903113385
 30
0.0
 11
168.83248149163069
 21
117.4809481613385
 31
0.0
  0
ARC
  5
150
  8
0
 10
170.83250399163049
 20
118.2780903113385
 30
0.0
 40
2.6000000000000001
 50
90.0
 51
180.0
  0
LINE
  5
151
  8
1
 10
190.73248149163061
 20
125.8780903113385
 30
0.0
 11
190.73248149163061
 21
59.878058079187539
 31
0.0
  0
ARC
  5
152
  8
0
 10
190.456598264641
 20
107.509977357596
 30
0.0
 40
21.907742994831381
 50
359.25560448470662
 51
19.545348067393672
  0
ARC
  5
154
  8
0
 10
236.45313342534291
 20
95.592432386645044
 30
0.0
 40
35.173281502336451
 50
146.0462225982676
 51
161.54539578432821
  0
ARC
  5
155
  8
0
 10
160.34952690541871
 20
84.654819888805093
 30
0.0
 40
45.274640526529261
 50
29.155619406956649
 51
41.54343020206904
  0
ARC
  5
157
  8
0
 10
221.11543607784191
 20
84.654819888804454
 30
0.0
 40
45.274640526529261
 50
138.9742289005047
 51
150.8443805930433
  0
CIRCLE
  5
159
  8
0
 10
187.48248149163061
 20
186.33908579369239
 30
0.0
 40
0.975
  0
CIRCLE
  5
15A
  8
0
 10
184.23248149163061
 20
186.33908579369239
 30
0.0
 40
0.975
  0
CIRCLE
  5
15B
  8
0
 10
193.98248149163061
 20
186.33908579369239
 30
0.0
 40
0.975
  0
CIRCLE
  5
15C
  8
0
 10
190.73248149163061
 20
186.33908579369239
 30
0.0
 40
0.975
  0
CIRCLE
  5
15D
  8
0
 10
197.23248149163061
 20
186.33908579369239
 30
0.0
 40
0.975
  0
ARC
  5
15E
  8
0
 10
210.31527402733201
 20
106.88696151668719
 30
0.0
 40
2.0089265625000001
 50
270.0
 51
355.14318549596078
  0
ARC
  5
15F
  8
0
 10
210.31527402733229
 20
106.88696151668709
 30
0.0
 40
2.0089265625000001
 50
270.0
 51
355.14318549597391
  0
LINE
  5
160
  8
3
 10
187.49948149163069
 20
65.361058079187487
 30
0.0
 11
187.49948149163069
 21
94.878058079187554
 31
0.0
1001
GENIUS_GENOREF_13
1005
0
1005
0
  0
LINE
  5
161
  8
3
 10
193.96548149163061
 20
65.361058079187501
 30
0.0
 11
193.96548149163061
 21
94.878058079187554
 31
0.0
1001
GENIUS_GENOREF_13
1005
0
1005
0
  0
LINE
  5
162
  8
0
 10
186.73248149163061
 20
94.878058079187554
 30
0.0
 11
186.73248149163061
 21
66.128058079187568
 31
0.0
1001
GENIUS_GENOREF_13
1005
0
1005
0
  0
LINE
  5
163
  8
0
 10
194.73248149163061
 20
94.878058079187554
 30
0.0
 11
194.73248149163061
 21
66.128058079187525
 31
0.0
1001
GENIUS_GENOREF_13
1005
0
1005
0
  0
LINE
  5
164
  8
0
 10
186.73248149163061
 20
66.128058079187554
 30
0.0
 11
187.98248149163061
 21
64.878058079187554
 31
0.0
  0
LINE
  5
165
  8
0
 10
194.73248149163061
 20
66.128058079187554
 30
0.0
 11
186.73248149163061
 21
66.128058079187554
 31
0.0
  0
LINE
  5
166
  8
0
 10
194.73248149163061
 20
66.128058079187554
 30
0.0
 11
193.48248149163061
 21
64.878058079187554
 31
0.0
  0
LINE
  5
167
  8
0
 10
193.48248149163061
 20
64.878058079187554
 30
0.0
 11
187.98248149163061
 21
64.878058079187554
 31
0.0
1001
GENIUS_GENOREF_13
1005
0
1005
0
  0
LINE
  5
168
  8
0
 10
201.23248149163049
 20
95.5780580791875
 30
0.0
 11
180.23248149163069
 21
95.578058079187585
 31
0.0
  0
LINE
  5
169
  8
0
 10
171.14968895592909
 20
104.8780349541879
 30
0.0
 11
210.39947714388339
 21
104.8780349541872
 31
0.0
  0
LINE
  5
16A
  8
0
 10
200.5324814916307
 20
94.878058079187497
 30
0.0
 11
180.93248149163051
 21
94.878058079187596
 31
0.0
1001
GENIUS_GENOREF_13
1005
0
  0
ARC
  5
171
  8
0
 10
182.60564622098261
 20
106.08339089168381
 30
0.0
 40
1.2053559374999989
 50
148.5733561080547
 51
270.0
  0
LINE
  5
172
  8
0
 10
201.2324814916303
 20
103.9405349541874
 30
0.0
 11
201.23248149163021
 21
95.57875807918748
 31
0.0
  0
LINE
  5
173
  8
0
 10
201.23248149163081
 20
103.9405349541875
 30
0.0
 11
201.23248149163069
 21
95.578758079187651
 31
0.0
  0
LINE
  5
175
  8
0
 10
201.23248149163069
 20
95.578058079187656
 30
0.0
 11
200.5324814916307
 21
94.878058079187497
 31
0.0
  0
ARC
  5
176
  8
0
 10
204.4295598991709
 20
106.27916465752919
 30
0.0
 40
1.413608695632514
 50
161.54539578432821
 51
262.38126636849381
  0
LINE
  5
177
  8
0
 10
202.1667461017685
 20
104.8780349541875
 30
0.0
 11
210.31527402733229
 21
104.8780349541871
 31
0.0
  0
ARC
  5
179
  8
0
 10
198.85931676227841
 20
106.08339089168371
 30
0.0
 40
1.2053559374999989
 50
270.0
 51
31.42664389194524
  0
LINE
  5
17B
  8
3
 10
203.0222773549765
 20
106.4127512780188
 30
0.0
 11
200.01880142021039
 21
106.4127512780188
 31
0.0
  0
ARC
  5
17C
  8
0
 10
202.16998149163081
 20
103.9405349541875
 30
0.0
 40
0.9375
 50
90.0
 51
180.0
  0
ARC
  5
180
  8
0
 10
210.63245899163081
 20
118.2780903113385
 30
0.0
 40
2.6000000000000001
 50
0.0
 51
90.0
  0
ARC
  5
181
  8
2
 10
190.73248149163061
 20
201.0186540965793
 30
0.0
 40
82.5
 50
270.0
 51
283.73584201692779
  0
ARC
  5
182
  8
0
 10
190.73248149162939
 20
111.33243257949179
 30
0.0
 40
4.845602405476507
 50
89.999999999986969
 51
141.13447055919099
  0
ARC
  5
183
  8
0
 10
190.7324814916318
 20
111.33243257949179
 30
0.0
 40
4.845602405476507
 50
43.70367186077177
 51
90.000000000013031
  0
ARC
  5
184
  8
0
 10
209.07973780267639
 20
113.9831422536633
 30
0.0
 40
2.195975950622191
 50
22.946053022546991
 51
145.16391393025179
  0
LINE
  5
185
  8
0
 10
212.63248149163061
 20
118.2780903113381
 30
0.0
 11
212.63248149163061
 21
117.48094816133811
 31
0.0
  0
LINE
  5
186
  8
1
 10
190.73248149163061
 20
213.83906329369239
 30
0.0
 11
190.73248149163061
 21
158.83910829369239
 31
0.0
  0
LINE
  5
187
  8
1
 10
218.23245899163069
 20
186.33908579369239
 30
0.0
 11
163.23250399163061
 21
186.33908579369239
 31
0.0
  0
LINE
  5
18A
  8
0
 10
180.23248149163069
 20
95.578058079187656
 30
0.0
 11
180.9324814916306
 21
94.878058079187497
 31
0.0
  0
LINE
  5
18B
  8
0
 10
180.23248149163049
 20
103.9405349541875
 30
0.0
 11
180.23248149163069
 21
95.578758079187651
 31
0.0
  0
LINE
  5
18C
  8
0
 10
180.23248149163101
 20
103.9405349541874
 30
0.0
 11
180.23248149163109
 21
95.57875807918748
 31
0.0
  0
ARC
  5
18D
  8
0
 10
179.29498149163049
 20
103.9405349541875
 30
0.0
 40
0.9375
 50
0.000000000000007
 51
90.0
  0
LINE
  5
18E
  8
0
 10
169.14797565641601
 20
106.7168738920039
 30
0.0
 11
168.23304386697299
 21
117.4809481613385
 31
0.0
  0
LINE
  5
18F
  8
0
 10
213.2319191162884
 20
117.4809481613384
 30
0.0
 11
212.31698732684501
 21
106.7168738920036
 31
0.0
  0
TEXT
  5
2C5
  8
0
 62
     3
 10
0.0
 20
0.0
 30
0.0
 40
10.0
  1
ELK45AX30
  7
STANDARD1
  0
ENDSEC
  0
EOF
