  0
SECTION
  2
HEADER
  9
$ACADVER
  1
AC1009
  9
$INSBASE
 10
0.0
 20
0.0
 30
0.0
  9
$EXTMIN
 10
0.0
 20
-2.960436562073669
 30
0.0
  9
$EXTMAX
 10
240.6780946672506
 20
220.65964188817361
 30
0.0
  9
$LIMMIN
 10
0.0
 20
0.0
  9
$LIMMAX
 10
375.0
 20
270.0
  9
$ORTHOMODE
 70
     1
  9
$REGENMODE
 70
     1
  9
$FILLMODE
 70
     1
  9
$QTEXTMODE
 70
     0
  9
$MIRRTEXT
 70
     0
  9
$DRAGMODE
 70
     2
  9
$LTSCALE
 40
5.0
  9
$OSMODE
 70
  3071
  9
$ATTMODE
 70
     1
  9
$TEXTSIZE
 40
0.2
  9
$TRACEWID
 40
0.05
  9
$TEXTSTYLE
  7
STANDARD
  9
$CLAYER
  8
0
  9
$CELTYPE
  6
BYLAYER
  9
$CECOLOR
 62
   256
  9
$DIMSCALE
 40
1.0
  9
$DIMASZ
 40
3.0
  9
$DIMEXO
 40
0.0625
  9
$DIMDLI
 40
0.38
  9
$DIMRND
 40
0.0
  9
$DIMDLE
 40
0.0
  9
$DIMEXE
 40
0.18
  9
$DIMTP
 40
0.0
  9
$DIMTM
 40
0.0
  9
$DIMTXT
 40
3.0
  9
$DIMCEN
 40
0.09
  9
$DIMTSZ
 40
0.0
  9
$DIMTOL
 70
     0
  9
$DIMLIM
 70
     0
  9
$DIMTIH
 70
     1
  9
$DIMTOH
 70
     1
  9
$DIMSE1
 70
     0
  9
$DIMSE2
 70
     0
  9
$DIMTAD
 70
     0
  9
$DIMZIN
 70
     0
  9
$DIMBLK
  1

  9
$DIMASO
 70
     1
  9
$DIMSHO
 70
     1
  9
$DIMPOST
  1

  9
$DIMAPOST
  1

  9
$DIMALT
 70
     0
  9
$DIMALTD
 70
     2
  9
$DIMALTF
 40
25.399999999999999
  9
$DIMLFAC
 40
1.0
  9
$DIMTOFL
 70
     0
  9
$DIMTVP
 40
0.0
  9
$DIMTIX
 70
     0
  9
$DIMSOXD
 70
     0
  9
$DIMSAH
 70
     0
  9
$DIMBLK1
  1

  9
$DIMBLK2
  1

  9
$DIMSTYLE
  2
STANDARD
  9
$DIMCLRD
 70
     0
  9
$DIMCLRE
 70
     0
  9
$DIMCLRT
 70
     0
  9
$DIMTFAC
 40
1.0
  9
$DIMGAP
 40
0.09
  9
$LUNITS
 70
     2
  9
$LUPREC
 70
     4
  9
$SKETCHINC
 40
0.1
  9
$FILLETRAD
 40
10.0
  9
$AUNITS
 70
     0
  9
$AUPREC
 70
     0
  9
$MENU
  1
E:\r13\win\SUPPORT\ACAD
  9
$ELEVATION
 40
0.0
  9
$PELEVATION
 40
0.0
  9
$THICKNESS
 40
0.0
  9
$LIMCHECK
 70
     0
  9
$BLIPMODE
 70
     0
  9
$CHAMFERA
 40
0.0
  9
$CHAMFERB
 40
0.0
  9
$SKPOLY
 70
     0
  9
$TDCREATE
 40
2450372.5377547452
  9
$TDUPDATE
 40
2456598.6785783218
  9
$TDINDWG
 40
0.2904106944
  9
$TDUSRTIMER
 40
0.2904106944
  9
$USRTIMER
 70
     1
  9
$ANGBASE
 50
0.0
  9
$ANGDIR
 70
     0
  9
$PDMODE
 70
     0
  9
$PDSIZE
 40
0.0
  9
$PLINEWID
 40
0.0
  9
$COORDS
 70
     1
  9
$SPLFRAME
 70
     0
  9
$SPLINETYPE
 70
     6
  9
$SPLINESEGS
 70
     8
  9
$ATTDIA
 70
     0
  9
$ATTREQ
 70
     1
  9
$HANDLING
 70
     1
  9
$HANDSEED
  5
844
  9
$SURFTAB1
 70
     6
  9
$SURFTAB2
 70
     6
  9
$SURFTYPE
 70
     6
  9
$SURFU
 70
     6
  9
$SURFV
 70
     6
  9
$UCSNAME
  2

  9
$UCSORG
 10
0.0
 20
0.0
 30
0.0
  9
$UCSXDIR
 10
1.0
 20
0.0
 30
0.0
  9
$UCSYDIR
 10
0.0
 20
1.0
 30
0.0
  9
$PUCSNAME
  2

  9
$PUCSORG
 10
0.0
 20
0.0
 30
0.0
  9
$PUCSXDIR
 10
1.0
 20
0.0
 30
0.0
  9
$PUCSYDIR
 10
0.0
 20
1.0
 30
0.0
  9
$USERI1
 70
     3
  9
$USERI2
 70
     1
  9
$USERI3
 70
     1
  9
$USERI4
 70
     0
  9
$USERI5
 70
     0
  9
$USERR1
 40
1.0
  9
$USERR2
 40
3.0
  9
$USERR3
 40
3.0
  9
$USERR4
 40
3.0
  9
$USERR5
 40
10.0
  9
$WORLDVIEW
 70
     1
  9
$SHADEDGE
 70
     3
  9
$SHADEDIF
 70
    70
  9
$TILEMODE
 70
     1
  9
$MAXACTVP
 70
    16
  9
$PLIMCHECK
 70
     0
  9
$PEXTMIN
 10
1.0000000000000000E+020
 20
1.0000000000000000E+020
 30
1.0000000000000000E+020
  9
$PEXTMAX
 10
-1.0000000000000000E+020
 20
-1.0000000000000000E+020
 30
-1.0000000000000000E+020
  9
$PLIMMIN
 10
0.0
 20
0.0
  9
$PLIMMAX
 10
12.0
 20
9.0
  9
$UNITMODE
 70
     0
  9
$VISRETAIN
 70
     0
  9
$PLINEGEN
 70
     0
  9
$PSLTSCALE
 70
     0
  0
ENDSEC
  0
SECTION
  2
TABLES
  0
TABLE
  2
VPORT
 70
     1
  0
VPORT
  2
*ACTIVE
 70
     0
 10
0.0
 20
0.0
 11
1.0
 21
1.0
 12
187.49427839065231
 22
169.9063198933564
 13
0.0
 23
0.0
 14
10.0
 24
10.0
 15
10.0
 25
10.0
 16
0.0
 26
0.0
 36
1.0
 17
0.0
 27
0.0
 37
0.0
 40
348.89937369551939
 41
1.831871345029239
 42
50.0
 43
0.0
 44
0.0
 50
0.0
 51
0.0
 71
     0
 72
   100
 73
     1
 74
     0
 75
     0
 76
     0
 77
     0
 78
     0
  0
ENDTAB
  0
TABLE
  2
LTYPE
 70
     3
  0
LTYPE
  2
CONTINUOUS
 70
     0
  3
Solid Line
 72
    65
 73
     0
 40
0.0
  0
LTYPE
  2
CENTER
 70
     0
  3
____ _ ____ _ ____ _ ____ _ ____ _ ____ _ ____
 72
    65
 73
     4
 40
2.0
 49
1.25
 49
-0.25
 49
0.25
 49
-0.25
  0
LTYPE
  2
PHANTOM2
 70
     0
  3
___ _ _ ___ _ _ ___ _ _ ___ _ _
 72
    65
 73
     6
 40
1.25
 49
0.625
 49
-0.125
 49
0.125
 49
-0.125
 49
0.125
 49
-0.125
  0
ENDTAB
  0
TABLE
  2
LAYER
 70
     3
  0
LAYER
  2
0
 70
     0
 62
     7
  6
CONTINUOUS
  0
LAYER
  2
1
 70
     0
 62
     1
  6
CENTER
  0
LAYER
  2
3
 70
     0
 62
     3
  6
CONTINUOUS
  0
ENDTAB
  0
TABLE
  2
STYLE
 70
     2
  0
STYLE
  2
STANDARD
 70
     0
 40
0.0
 41
1.0
 50
0.0
 71
     0
 42
0.2
  3
SIMPLEX
  4
BIGFONT
  0
STYLE
  2
STANDARD1
 70
     0
 40
0.0
 41
1.0
 50
0.0
 71
     0
 42
3.0
  3
txt
  4

  0
ENDTAB
  0
TABLE
  2
VIEW
 70
     0
  0
ENDTAB
  0
TABLE
  2
UCS
 70
     0
  0
ENDTAB
  0
TABLE
  2
APPID
 70
     7
  0
APPID
  2
ACAD
 70
     0
  0
APPID
  2
GENIUS_GENODEF_13
 70
     0
  0
APPID
  2
GENIUS_GENFIL_13
 70
     0
  0
APPID
  2
GENIUS_GENOBJ-N-CHA_13
 70
     0
  0
APPID
  2
GENIUS_GENOREF_13
 70
     0
  0
APPID
  2
ACAD_MLEADERVER
 70
     0
  0
APPID
  2
ACAD_NAV_VCDISPLAY
 70
     0
  0
ENDTAB
  0
TABLE
  2
DIMSTYLE
 70
     1
  0
DIMSTYLE
  2
STANDARD
 70
     0
  3

  4

  5

  6

  7

 40
1.0
 41
0.18
 42
0.0625
 43
0.38
 44
0.18
 45
0.0
 46
0.0
 47
0.0
 48
0.0
140
0.18
141
0.09
142
0.0
143
25.399999999999999
144
1.0
145
0.0
146
1.0
147
0.09
 71
     0
 72
     0
 73
     1
 74
     1
 75
     0
 76
     0
 77
     0
 78
     0
170
     0
171
     2
172
     0
173
     0
174
     0
175
     0
176
     0
177
     0
178
     0
  0
ENDTAB
  0
ENDSEC
  0
SECTION
  2
BLOCKS
  0
BLOCK
  8
0
  2
$MODEL_SPACE
 70
     0
 10
0.0
 20
0.0
 30
0.0
  3
$MODEL_SPACE
  1

  0
ENDBLK
  5
1FE
  8
0
  0
BLOCK
 67
     1
  8
0
  2
$PAPER_SPACE
 70
     0
 10
0.0
 20
0.0
 30
0.0
  3
$PAPER_SPACE
  1

  0
ENDBLK
  5
1FC
 67
     1
  8
0
  0
ENDSEC
  0
SECTION
  2
ENTITIES
  0
CIRCLE
  5
508
  8
3
 10
156.6780946672506
 20
204.15964188817361
 30
0.0
 40
7.0
  0
ARC
  5
512
  8
0
 10
169.8669216428554
 20
227.25964188817369
 30
0.0
 40
15.1
 50
240.14519874317139
 51
270.0
  0
ARC
  5
539
  8
3
 10
145.23092984262709
 20
204.15964188817361
 30
0.0
 40
20.848630204285762
 50
341.20588377926413
 51
18.794116220735852
  0
CIRCLE
  5
53D
  8
0
 10
177.40414354504091
 20
204.15964188817361
 30
0.0
 40
1.125
  0
CIRCLE
  5
53E
  8
0
 10
170.80865924711469
 20
204.15964188817361
 30
0.0
 40
1.125
  0
CIRCLE
  5
53F
  8
0
 10
174.10136992075971
 20
204.15964188817361
 30
0.0
 40
1.125
  0
CIRCLE
  5
540
  8
0
 10
184.04846888252021
 20
204.15964188817361
 30
0.0
 40
1.125
  0
CIRCLE
  5
541
  8
0
 10
180.75817040162099
 20
204.15964188817361
 30
0.0
 40
1.125
  0
ARC
  5
557
  8
0
 10
156.6780946672506
 20
204.15964188817361
 30
0.0
 40
11.5
 50
60.104247680945697
 51
299.89575231905428
  0
ARC
  5
55B
  8
0
 10
227.6780946672506
 20
204.1596418881737
 30
0.0
 40
8.0
 50
270.0
 51
90.0
  0
LINE
  5
55C
  8
0
 10
227.6780946672506
 20
212.1596418881737
 30
0.0
 11
169.8669216428554
 21
212.1596418881737
 31
0.0
  0
LINE
  5
55F
  8
0
 10
227.6780946672506
 20
196.1596418881735
 30
0.0
 11
169.8669216428554
 21
196.1596418881735
 31
0.0
  0
ARC
  5
560
  8
0
 10
169.8669216428554
 20
181.0596418881735
 30
0.0
 40
15.1
 50
90.000000000000028
 51
119.85480125682849
  0
LINE
  5
561
  8
3
 10
227.6780946672506
 20
210.1596418881737
 30
0.0
 11
169.8669216428554
 21
210.1596418881737
 31
0.0
  0
ARC
  5
562
  8
3
 10
227.6780946672506
 20
204.1596418881737
 30
0.0
 40
6.0
 50
270.0
 51
90.0
  0
LINE
  5
563
  8
3
 10
227.6780946672506
 20
198.1596418881735
 30
0.0
 11
169.8669216428554
 21
198.1596418881735
 31
0.0
  0
ARC
  5
564
  8
3
 10
169.8669216428554
 20
181.0596418881735
 30
0.0
 40
17.100000000000001
 50
90.000000000000028
 51
119.85480125682849
  0
ARC
  5
566
  8
3
 10
156.6780946672506
 20
204.15964188817361
 30
0.0
 40
9.5
 50
60.104247680945697
 51
299.89575231905428
  0
ARC
  5
567
  8
3
 10
169.8669216428554
 20
227.25964188817369
 30
0.0
 40
17.100000000000001
 50
240.14519874317139
 51
270.0
  0
LINE
  5
568
  8
1
 10
156.6780946672506
 20
220.65964188817361
 30
0.0
 11
156.6780946672506
 21
187.65964188817361
 31
0.0
  0
LINE
  5
569
  8
1
 10
240.6780946672506
 20
204.1596418881737
 30
0.0
 11
140.1780946672506
 21
204.15964188817361
 31
0.0
  0
ARC
  5
5F7
  8
0
 10
157.4860946672506
 20
144.20807933376631
 30
0.0
 40
10.605
 50
265.6303726948658
 51
317.965290316954
  0
LINE
  5
5F9
  8
0
 10
167.71991231250581
 20
104.1339050870462
 30
0.0
 11
145.63627702199531
 21
104.1339050870462
 31
0.0
  0
LINE
  5
5FD
  8
1
 10
156.6780946672506
 20
138.6339050870462
 30
0.0
 11
156.6780946672506
 21
68.933905087046242
 31
0.0
  0
ARC
  5
5FE
  8
0
 10
147.17806082096621
 20
131.6339050870462
 30
0.0
 40
2.0
 50
90.0
 51
180.33333333333169
  0
LINE
  5
605
  8
0
 10
145.336282098938
 20
104.4321597676397
 30
0.0
 11
145.1780946672506
 21
131.62226962433641
 31
0.0
  0
ARC
  5
607
  8
0
 10
145.63627702199531
 20
104.4339050870462
 30
0.0
 40
0.3
 50
180.33333333333169
 51
270.0
  0
LINE
  5
60B
  8
0
 10
150.6780946672506
 20
103.9339050870462
 30
0.0
 11
150.6780946672506
 21
104.1339050870462
 31
0.0
  0
LINE
  5
60D
  8
0
 10
162.6780946672506
 20
103.9339050870462
 30
0.0
 11
162.6780946672506
 21
104.1339050870462
 31
0.0
  0
LINE
  5
60E
  8
0
 10
150.6780946672506
 20
103.9339050870462
 30
0.0
 11
162.6780946672506
 21
103.9339050870462
 31
0.0
  0
LINE
  5
61D
  8
0
 10
156.6780946672506
 20
133.6339050870462
 30
0.0
 11
147.17806082096621
 21
133.6339050870462
 31
0.0
  0
ARC
  5
62B
  8
0
 10
225.07311762826239
 20
-55.866094912953884
 30
0.0
 40
202.0
 50
90.0
 51
107.193244049844
  0
ARC
  5
62C
  8
0
 10
242.32450887923221
 20
10.318665848520929
 30
0.0
 40
131.30000000000001
 50
99.81107744717373
 51
120.59717208385101
  0
ARC
  5
630
  8
0
 10
183.20428293190599
 20
110.29677037114691
 30
0.0
 40
15.15
 50
120.59717208385101
 51
179.6666666666649
  0
ARC
  5
632
  8
0
 10
232.67811762826241
 20
143.1339050870462
 30
0.0
 40
3.0
 50
359.7758324265086
 51
90.0
  0
ARC
  5
633
  8
0
 10
230.75988100432221
 20
139.15941874762581
 30
0.0
 40
3.0255136605795601
 50
225.65280447144261
 51
308.72154229019492
  0
ARC
  5
635
  8
0
 10
227.59811762826249
 20
143.10290508704611
 30
0.0
 40
8.0800000000000001
 50
308.72154229019492
 51
0.136592723462409
  0
LINE
  5
636
  8
0
 10
232.67811762826241
 20
146.1339050870462
 30
0.0
 11
225.07311762826239
 21
146.1339050870462
 31
0.0
  0
LINE
  5
63B
  8
0
 10
168.0199072355631
 20
104.4321597676397
 30
0.0
 11
168.05453931751109
 21
110.3849090011751
 31
0.0
  0
ARC
  5
63C
  8
0
 10
167.71991231250581
 20
104.4339050870462
 30
0.0
 40
0.3
 50
270.0
 51
359.66666666666822
  0
ARC
  5
643
  8
0
 10
221.65498733836739
 20
129.8446499660831
 30
0.0
 40
10.0
 50
45.652804471442629
 51
99.811077447173517
  0
LINE
  5
68E
  8
0
 10
160.17809466725049
 20
73.933905087046185
 30
0.0
 11
153.1780946672506
 21
73.933905087046242
 31
0.0
  0
LINE
  5
68F
  8
0
 10
151.67809466725049
 20
103.9339050870462
 30
0.0
 11
151.67809466725049
 21
75.433905087046384
 31
0.0
  0
LINE
  5
690
  8
3
 10
152.4900946672505
 20
101.9339050870463
 30
0.0
 11
152.4900946672505
 21
74.621905087046372
 31
0.0
  0
LINE
  5
691
  8
3
 10
160.86609466725071
 20
101.9339050870461
 30
0.0
 11
160.86609466725071
 21
74.621905087046287
 31
0.0
  0
LINE
  5
692
  8
0
 10
161.67809466725049
 20
103.9339050870462
 30
0.0
 11
161.67809466725049
 21
75.433905087046128
 31
0.0
  0
LINE
  5
693
  8
0
 10
161.6780946672506
 20
75.433905087046185
 30
0.0
 11
160.17809466725049
 21
73.933905087046185
 31
0.0
  0
LINE
  5
694
  8
0
 10
153.1780946672506
 20
73.933905087046242
 30
0.0
 11
151.6780946672506
 21
75.433905087046298
 31
0.0
  0
LINE
  5
695
  8
0
 10
161.6780946672506
 20
101.9339050870461
 30
0.0
 11
151.6780946672506
 21
101.9339050870463
 31
0.0
  0
LINE
  5
696
  8
3
 10
160.86609466725071
 20
101.9339050870461
 30
0.0
 11
161.6780946672506
 21
103.3403303427919
 31
0.0
  0
LINE
  5
697
  8
3
 10
152.4900946672505
 20
101.9339050870461
 30
0.0
 11
151.6780946672506
 21
103.3403303427919
 31
0.0
  0
LINE
  5
698
  8
0
 10
161.6780946672506
 20
75.433905087046185
 30
0.0
 11
151.6780946672506
 21
75.433905087046298
 31
0.0
  0
TEXT
  5
7B0
  8
0
 62
     3
 10
0.0
 20
0.0
 30
0.0
 40
10.0
  1
ELH78X30
  7
STANDARD1
  0
ENDSEC
  0
EOF
