  0
SECTION
  2
HEADER
  9
$ACADVER
  1
AC1009
  9
$INSBASE
 10
0.0
 20
0.0
 30
0.0
  9
$EXTMIN
 10
0.0
 20
-2.960436562073669
 30
0.0
  9
$EXTMAX
 10
292.4146564939935047
 20
222.1748450412530929
 30
0.0
  9
$LIMMIN
 10
0.0
 20
0.0
  9
$LIMMAX
 10
270.0
 20
175.0
  9
$ORTHOMODE
 70
     0
  9
$REGENMODE
 70
     1
  9
$FILLMODE
 70
     1
  9
$QTEXTMODE
 70
     0
  9
$MIRRTEXT
 70
     0
  9
$DRAGMODE
 70
     2
  9
$LTSCALE
 40
5.0
  9
$OSMODE
 70
    37
  9
$ATTMODE
 70
     1
  9
$TEXTSIZE
 40
0.2
  9
$TRACEWID
 40
0.05
  9
$TEXTSTYLE
  7
STANDARD
  9
$CLAYER
  8
0
  9
$CELTYPE
  6
BYLAYER
  9
$CECOLOR
 62
   256
  9
$DIMSCALE
 40
1.0
  9
$DIMASZ
 40
3.0
  9
$DIMEXO
 40
2.0
  9
$DIMDLI
 40
0.38
  9
$DIMRND
 40
0.0
  9
$DIMDLE
 40
0.0
  9
$DIMEXE
 40
2.0
  9
$DIMTP
 40
0.0
  9
$DIMTM
 40
0.0
  9
$DIMTXT
 40
3.0
  9
$DIMCEN
 40
0.0
  9
$DIMTSZ
 40
0.0
  9
$DIMTOL
 70
     0
  9
$DIMLIM
 70
     0
  9
$DIMTIH
 70
     0
  9
$DIMTOH
 70
     0
  9
$DIMSE1
 70
     0
  9
$DIMSE2
 70
     0
  9
$DIMTAD
 70
     1
  9
$DIMZIN
 70
     0
  9
$DIMBLK
  1

  9
$DIMASO
 70
     0
  9
$DIMSHO
 70
     0
  9
$DIMPOST
  1

  9
$DIMAPOST
  1

  9
$DIMALT
 70
     0
  9
$DIMALTD
 70
     2
  9
$DIMALTF
 40
25.3999999999999986
  9
$DIMLFAC
 40
1.0
  9
$DIMTOFL
 70
     1
  9
$DIMTVP
 40
1.6000000000000001
  9
$DIMTIX
 70
     1
  9
$DIMSOXD
 70
     0
  9
$DIMSAH
 70
     0
  9
$DIMBLK1
  1

  9
$DIMBLK2
  1

  9
$DIMSTYLE
  2
STANDARD
  9
$DIMCLRD
 70
     0
  9
$DIMCLRE
 70
     0
  9
$DIMCLRT
 70
     0
  9
$DIMTFAC
 40
1.0
  9
$DIMGAP
 40
0.09
  9
$LUNITS
 70
     2
  9
$LUPREC
 70
     4
  9
$SKETCHINC
 40
0.1
  9
$FILLETRAD
 40
0.0
  9
$AUNITS
 70
     1
  9
$AUPREC
 70
     4
  9
$MENU
  1
E:\r13\win\SUPPORT\ACAD
  9
$ELEVATION
 40
0.0
  9
$PELEVATION
 40
0.0
  9
$THICKNESS
 40
0.0
  9
$LIMCHECK
 70
     0
  9
$BLIPMODE
 70
     0
  9
$CHAMFERA
 40
0.0
  9
$CHAMFERB
 40
0.0
  9
$SKPOLY
 70
     0
  9
$TDCREATE
 40
2449839.7803587969392538
  9
$TDUPDATE
 40
2460399.4429282411001623
  9
$TDINDWG
 40
0.0707756829
  9
$TDUSRTIMER
 40
0.0707756829
  9
$USRTIMER
 70
     1
  9
$ANGBASE
 50
0.0
  9
$ANGDIR
 70
     0
  9
$PDMODE
 70
     0
  9
$PDSIZE
 40
0.0
  9
$PLINEWID
 40
0.0
  9
$COORDS
 70
     1
  9
$SPLFRAME
 70
     0
  9
$SPLINETYPE
 70
     6
  9
$SPLINESEGS
 70
     8
  9
$ATTDIA
 70
     1
  9
$ATTREQ
 70
     1
  9
$HANDLING
 70
     1
  9
$HANDSEED
  5
129F
  9
$SURFTAB1
 70
     6
  9
$SURFTAB2
 70
     6
  9
$SURFTYPE
 70
     6
  9
$SURFU
 70
     6
  9
$SURFV
 70
     6
  9
$UCSNAME
  2

  9
$UCSORG
 10
0.0
 20
0.0
 30
0.0
  9
$UCSXDIR
 10
1.0
 20
0.0
 30
0.0
  9
$UCSYDIR
 10
0.0
 20
1.0
 30
0.0
  9
$PUCSNAME
  2

  9
$PUCSORG
 10
0.0
 20
0.0
 30
0.0
  9
$PUCSXDIR
 10
1.0
 20
0.0
 30
0.0
  9
$PUCSYDIR
 10
0.0
 20
1.0
 30
0.0
  9
$USERI1
 70
     0
  9
$USERI2
 70
     1
  9
$USERI3
 70
     1
  9
$USERI4
 70
     0
  9
$USERI5
 70
     0
  9
$USERR1
 40
0.0
  9
$USERR2
 40
0.0
  9
$USERR3
 40
0.0
  9
$USERR4
 40
0.0
  9
$USERR5
 40
0.0
  9
$WORLDVIEW
 70
     1
  9
$SHADEDGE
 70
     3
  9
$SHADEDIF
 70
    70
  9
$TILEMODE
 70
     1
  9
$MAXACTVP
 70
    16
  9
$PLIMCHECK
 70
     0
  9
$PEXTMIN
 10
1.0000000000000000E+20
 20
1.0000000000000000E+20
 30
1.0000000000000000E+20
  9
$PEXTMAX
 10
-1.0000000000000000E+20
 20
-1.0000000000000000E+20
 30
-1.0000000000000000E+20
  9
$PLIMMIN
 10
0.0
 20
0.0
  9
$PLIMMAX
 10
12.0
 20
9.0
  9
$UNITMODE
 70
     0
  9
$VISRETAIN
 70
     0
  9
$PLINEGEN
 70
     0
  9
$PSLTSCALE
 70
     0
  0
ENDSEC
  0
SECTION
  2
TABLES
  0
TABLE
  2
VPORT
 70
     1
  0
VPORT
  2
*ACTIVE
 70
     0
 10
0.0
 20
0.0
 11
1.0
 21
1.0
 12
270.0800492610836727
 22
115.0
 13
0.0
 23
0.0
 14
10.0
 24
10.0
 15
10.0
 25
10.0
 16
0.0
 26
0.0
 36
1.0
 17
0.0
 27
0.0
 37
0.0
 40
230.0
 41
2.3485221674876842
 42
50.0
 43
0.0
 44
0.0
 50
0.0
 51
0.0
 71
     0
 72
   500
 73
     1
 74
     0
 75
     0
 76
     0
 77
     0
 78
     2
  0
ENDTAB
  0
TABLE
  2
LTYPE
 70
     3
  0
LTYPE
  2
CONTINUOUS
 70
     0
  3
Solid Line
 72
    65
 73
     0
 40
0.0
  0
LTYPE
  2
CENTER
 70
     0
  3
____ _ ____ _ ____ _ ____ _ ____ _ ____ _ ____
 72
    65
 73
     4
 40
2.0
 49
1.25
 49
-0.25
 49
0.25
 49
-0.25
  0
LTYPE
  2
PHANTOM2
 70
     0
  3
Phantom (.5x) ___ _ _ ___ _ _ ___ _ _ ___ _ _
 72
    65
 73
     6
 40
1.25
 49
0.625
 49
-0.125
 49
0.125
 49
-0.125
 49
0.125
 49
-0.125
  0
ENDTAB
  0
TABLE
  2
LAYER
 70
     4
  0
LAYER
  2
0
 70
     0
 62
     7
  6
CONTINUOUS
  0
LAYER
  2
1
 70
     0
 62
     1
  6
CENTER
  0
LAYER
  2
5
 70
     0
 62
     3
  6
PHANTOM2
  0
LAYER
  2
3
 70
     0
 62
     3
  6
CONTINUOUS
  0
ENDTAB
  0
TABLE
  2
STYLE
 70
     2
  0
STYLE
  2
STANDARD
 70
     0
 40
0.0
 41
1.0
 50
0.0
 71
     0
 42
0.2
  3
TXT
  4
BIGFONT
  0
STYLE
  2
STANDARD1
 70
     0
 40
0.0
 41
1.0
 50
0.0
 71
     0
 42
3.0
  3
txt
  4

  0
ENDTAB
  0
TABLE
  2
VIEW
 70
     1
  0
VIEW
  2
ALL
 70
     0
 40
179.538466448915301
 10
135.0
 20
89.7692332244576647
 41
0.0
 11
0.0
 21
0.0
 31
1.0
 12
0.0
 22
0.0
 32
0.0
 42
0.0
 43
0.0
 44
0.0
 50
0.0
 71
     0
  0
ENDTAB
  0
TABLE
  2
UCS
 70
     0
  0
ENDTAB
  0
TABLE
  2
APPID
 70
     8
  0
APPID
  2
ACAD
 70
     0
  0
APPID
  2
GENIUS_GENODEF_13
 70
     0
  0
APPID
  2
GENIUS_GENOBJ-N-FIL_13
 70
     0
  0
APPID
  2
GENIUS_GENOREF_13
 70
     0
  0
APPID
  2
ACAD_MLEADERVER
 70
     0
  0
APPID
  2
ACAD_NAV_VCDISPLAY
 70
     0
  0
APPID
  2
ACAD_EXEMPT_FROM_CAD_STANDARDS
 70
     0
  0
APPID
  2
ACAD_TC
 70
     0
  0
ENDTAB
  0
TABLE
  2
DIMSTYLE
 70
     1
  0
DIMSTYLE
  2
STANDARD
 70
     0
  3

  4

  5

  6

  7

 40
1.0
 41
0.18
 42
0.0625
 43
0.38
 44
0.18
 45
0.0
 46
0.0
 47
0.0
 48
0.0
140
0.18
141
0.09
142
0.0
143
25.3999999999999986
144
1.0
145
0.0
146
1.0
147
0.09
 71
     0
 72
     0
 73
     1
 74
     1
 75
     0
 76
     0
 77
     0
 78
     0
170
     0
171
     2
172
     0
173
     0
174
     0
175
     0
176
     0
177
     0
178
     0
  0
ENDTAB
  0
ENDSEC
  0
SECTION
  2
BLOCKS
  0
BLOCK
  8
0
  2
$MODEL_SPACE
 70
     0
 10
0.0
 20
0.0
 30
0.0
  3
$MODEL_SPACE
  1

  0
ENDBLK
  5
522
  8
0
  0
BLOCK
 67
     1
  8
0
  2
$PAPER_SPACE
 70
     0
 10
0.0
 20
0.0
 30
0.0
  3
$PAPER_SPACE
  1

  0
ENDBLK
  5
520
 67
     1
  8
0
  0
ENDSEC
  0
SECTION
  2
ENTITIES
  0
LINE
  5
C07
  8
0
 10
213.9146564939939026
 20
205.5248450412530019
 30
0.0
 11
213.9146564939939026
 21
197.179367768785113
 31
0.0
  0
LINE
  5
C08
  8
0
 10
213.9146564939939026
 20
208.8248450412532122
 30
0.0
 11
213.9146564939939026
 21
205.5248450412530019
 31
0.0
  0
LINE
  5
C09
  8
0
 10
217.4146564939939026
 20
205.5748450412532122
 30
0.0
 11
213.9146564939941015
 21
205.5748450412532975
 31
0.0
  0
LINE
  5
C0A
  8
0
 10
217.4146564939939026
 20
208.7748450412530872
 30
0.0
 11
213.9146564939941015
 21
208.7748450412530019
 31
0.0
  0
LINE
  5
C0B
  8
0
 10
211.9726593975863977
 20
197.5564540068531016
 30
0.0
 11
213.9146564939939026
 21
205.5248450412530019
 31
0.0
  0
LINE
  5
C0C
  8
0
 10
211.9726593975856872
 20
216.7932360756531978
 30
0.0
 11
213.9146564939939026
 21
208.8248450412532122
 31
0.0
  0
LINE
  5
C0D
  8
0
 10
196.4146564939941015
 20
197.174845041252695
 30
0.0
 11
213.8195564939940994
 21
197.1748450412538034
 31
0.0
  0
ARC
  5
C0E
  8
0
 10
210.3413806895860887
 20
197.6748450412528939
 30
0.0
 40
0.5
 50
193.6902157051877111
 51
270.0
  0
ARC
  5
C0F
  8
0
 10
210.3413806895860887
 20
216.6748450412532065
 30
0.0
 40
0.5
 50
90.0
 51
166.3097842948122889
  0
LINE
  5
C10
  8
0
 10
211.8796564939941049
 20
197.3654503785699887
 30
0.0
 11
211.8796564939937923
 21
216.9842397039365949
 31
0.0
  0
ARC
  5
C14
  8
0
 10
196.4146564939939026
 20
216.6748450412532065
 30
0.0
 40
0.5
 50
90.0
 51
180.0
  0
LINE
  5
C15
  8
0
 10
213.9146564939939026
 20
208.8248450412530985
 30
0.0
 11
213.9146564939939026
 21
217.1703223137209022
 31
0.0
  0
LINE
  5
C1C
  8
0
 10
214.3195564939939004
 20
217.0408450412531067
 30
0.0
 11
217.1646564939939026
 21
215.3988450412529971
 31
0.0
  0
ARC
  5
C1D
  8
0
 10
213.8195564939939004
 20
216.1748450412530929
 30
0.0
 40
1.0
 50
59.9999999999998579
 51
90.0
  0
LINE
  5
C1E
  8
0
 10
196.4146564939941015
 20
217.1748450412536044
 30
0.0
 11
213.8195564939940994
 21
217.1748450412524107
 31
0.0
  0
ARC
  5
C1F
  8
0
 10
216.9146564939939026
 20
214.9658450412530044
 30
0.0
 40
0.5
 50
0.0
 51
59.9999999999998579
  0
LINE
  5
C20
  8
0
 10
217.4146564939939026
 20
214.9658450412530044
 30
0.0
 11
217.4146564939939026
 21
199.3848450412531008
 31
0.0
  0
LINE
  5
C4B
  8
0
 10
195.9146564939939026
 20
197.6748450412530929
 30
0.0
 11
195.9146564939939026
 21
216.6748450412532065
 31
0.0
  0
LINE
  5
C4C
  8
1
 10
159.9146564939939026
 20
207.1748450412532065
 30
0.0
 11
222.4145564939938993
 21
207.1748450412532065
 31
0.0
  0
ARC
  5
C4F
  8
0
 10
216.9146564939939026
 20
199.383845041253096
 30
0.0
 40
0.5
 50
300.0000000000001137
 51
0.0
  0
ARC
  5
C50
  8
0
 10
213.8195564939939004
 20
198.1748450412530929
 30
0.0
 40
1.0
 50
270.0
 51
300.0000000000001137
  0
LINE
  5
C51
  8
0
 10
214.3195564939939004
 20
197.3088450412531074
 30
0.0
 11
217.1646564939939026
 21
198.9508450412531033
 31
0.0
  0
ARC
  5
C52
  8
0
 10
196.4146564939939026
 20
197.6748450412530929
 30
0.0
 40
0.5
 50
180.0
 51
270.0
  0
ARC
  5
C69
  8
0
 10
196.4146564939939026
 20
86.674845041253306
 30
0.0
 40
0.5
 50
90.0
 51
180.0
  0
LINE
  5
C6A
  8
0
 10
196.4146564939939026
 20
87.1748450412533202
 30
0.0
 11
213.8195564939939004
 21
87.1748450412532634
 31
0.0
  0
LINE
  5
C6B
  8
0
 10
214.3195564939939004
 20
87.0408450412532346
 30
0.0
 11
217.1646564939939026
 21
85.3988450412531961
 31
0.0
  0
ARC
  5
C6C
  8
0
 10
213.8195564939939004
 20
86.1748450412532634
 30
0.0
 40
1.0
 50
59.9999999999998579
 51
90.0
  0
ARC
  5
C6D
  8
0
 10
216.9146564939939026
 20
84.9658450412531465
 30
0.0
 40
0.5
 50
0.0
 51
59.9999999999998579
  0
LINE
  5
C70
  8
1
 10
159.9146564939939026
 20
77.1748450412532065
 30
0.0
 11
222.4145564939938993
 21
77.1748450412532065
 31
0.0
  0
LINE
  5
C71
  8
0
 10
195.9146564939939026
 20
86.674845041253306
 30
0.0
 11
195.9146564939939026
 21
67.6748450412532065
 31
0.0
  0
LINE
  5
CA1
  8
0
 10
217.4146564939939026
 20
69.3838450412533803
 30
0.0
 11
217.4146564939939026
 21
84.9648450412531844
 31
0.0
  0
ARC
  5
CA2
  8
0
 10
216.9146564939939026
 20
69.3838450412533803
 30
0.0
 40
0.5
 50
300.0000000000001137
 51
0.0
  0
LINE
  5
CA3
  8
0
 10
196.4146564939939026
 20
67.1748450412532065
 30
0.0
 11
213.8195564939939004
 21
67.1748450412532065
 31
0.0
  0
ARC
  5
CA4
  8
0
 10
213.8195564939939004
 20
68.1748450412532065
 30
0.0
 40
1.0
 50
270.0
 51
300.0000000000001137
  0
LINE
  5
CA5
  8
0
 10
214.3195564939939004
 20
67.3088450412532211
 30
0.0
 11
217.1646564939939026
 21
68.9508450412532738
 31
0.0
  0
LINE
  5
CAC
  8
0
 10
213.9145564939938993
 20
87.1703223137211012
 30
0.0
 11
213.9145564939938993
 21
67.1793677687853688
 31
0.0
  0
ARC
  5
CAD
  8
0
 10
196.4146564939939026
 20
67.6748450412532065
 30
0.0
 40
0.5
 50
180.0
 51
270.0
  0
CIRCLE
  5
CAF
  8
0
 10
272.4146564939936752
 20
137.1748450412532065
 30
0.0
 40
2.0
  0
LINE
  5
CB0
  8
0
 10
273.8253300919600974
 20
127.2748450412532009
 30
0.0
 11
277.2094453318882756
 21
127.2748450412532009
 31
0.0
  0
ARC
  5
CB3
  8
0
 10
272.4146564939936752
 20
137.1748450412532918
 30
0.0
 40
11.0000000000001101
 50
155.380022671343113
 51
24.6199773286576082
  0
LINE
  5
CB5
  8
0
 10
282.3146564939935956
 20
135.7641714432863864
 30
0.0
 11
282.3146564939935956
 21
132.3800562033576966
 31
0.0
  0
LINE
  5
CB6
  8
0
 10
262.5146564939935843
 20
135.7641714432861022
 30
0.0
 11
262.5146564939935843
 21
132.3800562033584072
 31
0.0
  0
LINE
  5
CB7
  8
0
 10
267.6198676560987906
 20
127.2748450412532009
 30
0.0
 11
271.0039828960270256
 21
127.2748450412532009
 31
0.0
  0
LINE
  5
CB8
  8
0
 10
282.1217632751801148
 20
168.8819518224399872
 30
0.0
 11
274.064656493993823
 21
157.1828450412533016
 31
0.0
  0
LINE
  5
CB9
  8
0
 10
262.7075497128070083
 20
168.8819518224399872
 30
0.0
 11
270.7646564939935843
 21
157.1828450412533016
 31
0.0
  0
LINE
  5
CBA
  8
0
 10
270.7646564939935843
 20
157.1828450412533016
 30
0.0
 11
274.064656493993823
 21
157.1828450412533016
 31
0.0
  0
LINE
  5
CBB
  8
0
 10
270.814656493993823
 20
143.4748450412531042
 30
0.0
 11
270.814656493993823
 21
151.1618450412532013
 31
0.0
  0
LINE
  5
CBC
  8
0
 10
274.0146564939935843
 20
143.4748450412531895
 30
0.0
 11
274.0146564939935843
 21
151.1618450412532013
 31
0.0
  0
LINE
  5
CBD
  8
0
 10
270.814656493993823
 20
151.1618450412532013
 30
0.0
 11
274.0146564939935843
 21
151.1618450412532013
 31
0.0
  0
ARC
  5
CBE
  8
0
 10
272.4146564939936752
 20
137.1748450412532065
 30
0.0
 40
10.0
 50
99.2068962213441381
 51
80.7931037786558761
  0
LINE
  5
CBF
  8
0
 10
268.9146564939936752
 20
133.6748450412532918
 30
0.0
 11
268.9146564939936752
 21
140.6748450412532918
 31
0.0
  0
LINE
  5
CC0
  8
0
 10
275.9146564939936752
 20
133.6748450412532918
 30
0.0
 11
268.9146564939936752
 21
133.6748450412532918
 31
0.0
  0
LINE
  5
CC1
  8
0
 10
275.9146564939936752
 20
140.6748450412532918
 30
0.0
 11
275.9146564939936752
 21
133.6748450412532918
 31
0.0
  0
LINE
  5
CC2
  8
0
 10
268.9146564939936752
 20
140.6748450412532918
 30
0.0
 11
275.9146564939936752
 21
140.6748450412532918
 31
0.0
  0
CIRCLE
  5
CC3
  8
0
 10
272.4146564939936752
 20
137.1748450412532065
 30
0.0
 40
6.5
  0
ARC
  5
CC4
  8
0
 10
272.4146564939936752
 20
137.1748450412532065
 30
0.0
 40
8.0409999999998831
 50
101.4773317858201978
 51
78.5226682141795749
  0
ARC
  5
CC5
  8
0
 10
272.4146564939936752
 20
137.1748450412532918
 30
0.0
 40
13.4999999835097597
 50
137.7945536734397081
 51
42.2054463265614714
  0
ARC
  5
CC6
  8
0
 10
272.4146564939936752
 20
137.1748450412532065
 30
0.0
 40
15.0000000000000302
 50
214.1580671887022049
 51
265.8419328113204188
  0
ARC
  5
CC7
  8
0
 10
272.4146564939936752
 20
137.1748450412532065
 30
0.0
 40
14.0
 50
224.6411143343028129
 51
255.3588856657196118
  0
ARC
  5
CC8
  8
0
 10
272.4146564939936752
 20
137.1748450412532065
 30
0.0
 40
15.0000000000000302
 50
274.1580671887514882
 51
325.841932811301092
  0
ARC
  5
CC9
  8
0
 10
272.4146564939936752
 20
137.1748450412532065
 30
0.0
 40
14.0
 50
284.6411143343810863
 51
315.3588856656775761
  0
ARC
  5
CCA
  8
0
 10
272.4146564939936752
 20
137.1748450412532065
 30
0.0
 40
14.0
 50
344.6411142494127944
 51
15.3588857505872003
  0
ARC
  5
CCB
  8
0
 10
272.4146564939936752
 20
137.1748450412532065
 30
0.0
 40
15.0000000000000302
 50
334.1580671405537259
 51
25.8419328594462705
  0
ARC
  5
CCC
  8
0
 10
272.4146564939936752
 20
137.1748450412532065
 30
0.0
 40
15.0000000000000302
 50
34.1580670923401613
 51
48.1896851042233365
  0
ARC
  5
CCD
  8
0
 10
272.4146564939936752
 20
137.1748450412532065
 30
0.0
 40
14.0
 50
164.6411142494200135
 51
195.3588857505799012
  0
ARC
  5
CCE
  8
0
 10
272.4146564939936752
 20
137.1748450412532065
 30
0.0
 40
15.0000000000000302
 50
154.1580671405588134
 51
205.8419328594411866
  0
ARC
  5
CCF
  8
0
 10
272.4146564939936752
 20
137.1748450412532065
 30
0.0
 40
15.0000000000000302
 50
131.8103148957771964
 51
145.841932907603109
  0
LINE
  5
CD0
  8
0
 10
282.4146564939936752
 20
146.9897995984364911
 30
0.0
 11
285.9146564939936752
 21
144.9690736562735935
 31
0.0
  0
LINE
  5
CD1
  8
0
 10
258.9146565049804281
 20
144.969073662623714
 30
0.0
 11
262.4146564939936752
 21
146.9897995984441934
 31
0.0
  0
LINE
  5
CD2
  8
0
 10
258.9146565049804281
 20
129.3806164071941112
 30
0.0
 11
258.9146565049804281
 21
144.9690736753128988
 31
0.0
  0
LINE
  5
CD3
  8
0
 10
272.4146564939936752
 20
121.5863877794784003
 30
0.0
 11
258.9146564939936752
 21
129.3806164135351082
 31
0.0
  0
LINE
  5
CD4
  8
0
 10
285.9146564829924273
 20
129.3806164071849878
 30
0.0
 11
272.4146564830069792
 21
121.5863877731245992
 31
0.0
  0
LINE
  5
CD5
  8
0
 10
285.9146564830069792
 20
144.969073662623714
 30
0.0
 11
285.9146564830069792
 21
129.3806163945048127
 31
0.0
  0
ARC
  5
CD6
  8
0
 10
263.4146564939936752
 20
168.1748450412532918
 30
0.0
 40
1.0
 50
90.0
 51
180.0
  0
LINE
  5
CD7
  8
0
 10
262.4146564939936752
 20
137.1748450412532065
 30
0.0
 11
262.4146564939936752
 21
168.1748450412532918
 31
0.0
  0
LINE
  5
CD8
  8
0
 10
274.064656493993823
 20
147.037780709704009
 30
0.0
 11
274.064656493993823
 21
157.1828450412533016
 31
0.0
  0
LINE
  5
CD9
  8
0
 10
270.7646564939935843
 20
157.1828450412533016
 30
0.0
 11
270.7646564939935843
 21
147.037780709704009
 31
0.0
  0
ARC
  5
CDA
  8
0
 10
268.7430564939936062
 20
119.174845041253306
 30
0.0
 40
2.0
 50
225.0
 51
270.0
  0
LINE
  5
CDB
  8
0
 10
267.3288564939936123
 20
117.7608450412531056
 30
0.0
 11
263.9146564939936752
 21
120.9748450412533032
 31
0.0
  0
ARC
  5
CDC
  8
0
 10
276.0862564939935737
 20
119.174845041253306
 30
0.0
 40
2.0
 50
270.0
 51
315.0
  0
LINE
  5
CDD
  8
0
 10
276.0862564939935737
 20
117.1748450412532065
 30
0.0
 11
268.7430564939936062
 21
117.1748450412532065
 31
0.0
  0
LINE
  5
CDE
  8
0
 10
259.4146564939936752
 20
120.9748450412533032
 30
0.0
 11
263.9146564939936752
 21
120.9748450412533032
 31
0.0
  0
LINE
  5
CDF
  8
1
 10
272.4146564939936752
 20
112.1748450412532065
 30
0.0
 11
272.4146564939936752
 21
174.1748450412532918
 31
0.0
  0
ARC
  5
CE0
  8
0
 10
281.4146564939936752
 20
168.1748450412532918
 30
0.0
 40
1.0
 50
0.0
 51
90.0
  0
ARC
  5
CE1
  8
0
 10
286.9146564939936752
 20
139.1748450412532918
 30
0.0
 40
0.5
 50
0.0
 51
52.0174919940746534
  0
LINE
  5
CE2
  8
0
 10
282.4146564939936752
 20
168.1748450412532918
 30
0.0
 11
282.4146564939936752
 21
137.1748450412532065
 31
0.0
  0
ARC
  5
CE3
  8
0
 10
285.4146564939936752
 20
122.9748450412532037
 30
0.0
 40
2.0
 50
270.0
 51
0.0
  0
LINE
  5
CE4
  8
0
 10
285.4146564939936752
 20
120.9748450412533032
 30
0.0
 11
281.0146564939935843
 21
120.9748450412533032
 31
0.0
  0
LINE
  5
CE5
  8
0
 10
287.4146564939936752
 20
139.1748450412532918
 30
0.0
 11
287.4146564939936752
 21
122.9748450412532037
 31
0.0
  0
LINE
  5
CE6
  8
1
 10
252.4146564939937036
 20
137.1748450412532065
 30
0.0
 11
292.4146564939935047
 21
137.1748450412532065
 31
0.0
  0
LINE
  5
CE7
  8
0
 10
277.5004564939935108
 20
117.7608450412531056
 30
0.0
 11
280.9146564939936752
 21
120.9748450412533032
 31
0.0
  0
LINE
  5
CE8
  8
0
 10
281.4146564939936752
 20
169.1748450412532918
 30
0.0
 11
263.4146564939936752
 21
169.1748450412532918
 31
0.0
  0
LINE
  5
CE9
  8
0
 10
257.4146564939936752
 20
139.1748450412532918
 30
0.0
 11
257.4146564939936752
 21
122.9748450412532037
 31
0.0
  0
ARC
  5
CEA
  8
0
 10
259.4146564939936752
 20
122.9748450412532037
 30
0.0
 40
2.0
 50
180.0
 51
270.0
  0
ARC
  5
CEB
  8
0
 10
257.9146564939936752
 20
139.1748450412532918
 30
0.0
 40
0.5
 50
127.9825080059095939
 51
180.0
  0
LINE
  5
CFF
  8
0
 10
78.6146565049807435
 20
143.7131934792489005
 30
0.0
 11
78.6146565049807435
 21
144.9690736816573065
 31
0.0
  0
LINE
  5
D00
  8
0
 10
91.0270323455894186
 20
152.1353622018264957
 30
0.0
 11
92.1146565049807435
 21
152.763302303028297
 31
0.0
  0
LINE
  5
D01
  8
0
 10
104.5270323346096006
 20
145.5970137638153119
 30
0.0
 11
105.6146564939940049
 21
144.9690736626178875
 31
0.0
  0
LINE
  5
D02
  8
0
 10
105.6146564830072947
 20
144.969073668968008
 30
0.0
 11
105.6146564830072947
 21
143.7131934792489005
 31
0.0
  0
LINE
  5
D03
  8
0
 10
78.6146565049807435
 20
144.969073668968008
 30
0.0
 11
79.7022806533865378
 21
145.5970137638271069
 31
0.0
  0
LINE
  5
D04
  8
0
 10
92.1146564939940475
 20
152.7633022966745955
 30
0.0
 11
93.202280642378355
 21
152.1353622018280021
 31
0.0
  0
ARC
  5
D05
  8
0
 10
106.6146564939939054
 20
139.1748450412532918
 30
0.0
 40
0.5
 50
0.0
 51
90.0
  0
ARC
  5
D06
  8
0
 10
105.1146564939939054
 20
122.9748450412532037
 30
0.0
 40
2.0
 50
270.0
 51
0.0
  0
LINE
  5
D07
  8
0
 10
107.1146564939939054
 20
139.1748450412532918
 30
0.0
 11
107.1146564939939054
 21
122.9748450412532037
 31
0.0
  0
ARC
  5
D08
  8
0
 10
92.1146564939940475
 20
137.1748450412532918
 30
0.0
 40
15.0
 50
9.1840639280260472
 51
170.8159360719739084
  0
LINE
  5
D09
  8
0
 10
83.114656493994076
 20
169.1748450412532918
 30
0.0
 11
101.1146564939940049
 21
169.1748450412532918
 31
0.0
  0
LINE
  5
D0A
  8
0
 10
87.0288564939939988
 20
117.7608450412531056
 30
0.0
 11
83.6146564939940617
 21
120.9748450412533032
 31
0.0
  0
ARC
  5
D0B
  8
0
 10
92.1146564939940475
 20
137.1748450412532918
 30
0.0
 40
8.0999999999999996
 50
180.0
 51
0.0
  0
LINE
  5
D0C
  8
1
 10
112.1146564939939054
 20
137.1748450412532065
 30
0.0
 11
72.1146564939941754
 21
137.1748450412532065
 31
0.0
  0
LINE
  5
D0D
  8
0
 10
77.1146564939940617
 20
139.1748450412532918
 30
0.0
 11
77.1146564939940617
 21
122.9748450412532037
 31
0.0
  0
LINE
  5
D0E
  8
0
 10
84.0146564939940248
 20
137.1748450412532918
 30
0.0
 11
84.0146564939940248
 21
139.3748450412533089
 31
0.0
  0
LINE
  5
D0F
  8
0
 10
79.1146564939940617
 20
120.9748450412533032
 30
0.0
 11
83.5146564939941527
 21
120.9748450412533032
 31
0.0
  0
ARC
  5
D10
  8
0
 10
79.1146564939940617
 20
122.9748450412532037
 30
0.0
 40
2.0
 50
180.0
 51
270.0
  0
LINE
  5
D11
  8
0
 10
82.1146564939940475
 20
168.1748450412532918
 30
0.0
 11
82.1146564939940475
 21
148.3548450412532986
 31
0.0
  0
LINE
  5
D12
  8
0
 10
77.6146564939940617
 20
139.6748450412532918
 30
0.0
 11
83.7146564939939708
 21
139.6748450412532918
 31
0.0
  0
ARC
  5
D13
  8
0
 10
77.6146564939940617
 20
139.1748450412532918
 30
0.0
 40
0.5
 50
90.0
 51
180.0
  0
ARC
  5
D14
  8
0
 10
83.7146564939939708
 20
139.3748450412533089
 30
0.0
 40
0.3
 50
0.0
 51
90.0
  0
ARC
  5
D15
  8
0
 10
83.114656493994076
 20
168.1748450412532918
 30
0.0
 40
1.0
 50
90.0
 51
180.0
  0
LINE
  5
D16
  8
0
 10
100.2146564939938997
 20
137.1748450412532918
 30
0.0
 11
100.2146564939938997
 21
139.3748450412533089
 31
0.0
  0
LINE
  5
D17
  8
1
 10
92.1146564939939481
 20
112.1748450412532065
 30
0.0
 11
92.1146564939939481
 21
174.1748450412532918
 31
0.0
  0
LINE
  5
D18
  8
0
 10
105.1146564939939054
 20
120.9748450412533032
 30
0.0
 11
100.6146564939940049
 21
120.9748450412533032
 31
0.0
  0
LINE
  5
D19
  8
0
 10
88.4430564939940496
 20
117.1748450412532065
 30
0.0
 11
95.7862564939940739
 21
117.1748450412532065
 31
0.0
  0
ARC
  5
D1A
  8
0
 10
88.4430564939940496
 20
119.174845041253306
 30
0.0
 40
2.0
 50
225.0
 51
270.0
  0
LINE
  5
D1B
  8
0
 10
97.2004564939940252
 20
117.7608450412531056
 30
0.0
 11
100.6146564939940049
 21
120.9748450412533032
 31
0.0
  0
ARC
  5
D1C
  8
0
 10
95.7862564939940739
 20
119.174845041253306
 30
0.0
 40
2.0
 50
270.0
 51
315.0
  0
LINE
  5
D1D
  8
0
 10
93.764656493994039
 20
169.1748450412532918
 30
0.0
 11
93.764656493994039
 21
152.0838450412533973
 31
0.0
  0
LINE
  5
D1E
  8
0
 10
90.4646564939939708
 20
152.0838450412533973
 30
0.0
 11
90.4646564939939708
 21
169.1748450412532918
 31
0.0
  0
LINE
  5
D1F
  8
0
 10
102.1146564939940049
 20
148.3548450412532986
 30
0.0
 11
102.1146564939940049
 21
168.1748450412532918
 31
0.0
  0
LINE
  5
D20
  8
0
 10
100.5146564939939964
 20
139.6748450412532918
 30
0.0
 11
106.6146564939939054
 21
139.6748450412532918
 31
0.0
  0
ARC
  5
D21
  8
0
 10
100.5146564939939964
 20
139.3748450412533089
 30
0.0
 40
0.3
 50
90.0
 51
180.0
  0
ARC
  5
D22
  8
0
 10
101.1146564939940049
 20
168.1748450412532918
 30
0.0
 40
1.0
 50
0.0
 51
90.0
  0
LINE
  5
D6A
  8
1
 10
142.4146564939939026
 20
137.1748450412532065
 30
0.0
 11
222.4145564939940982
 21
137.1748450412532918
 31
0.0
  0
ARC
  5
D6D
  8
0
 10
208.4146564939939026
 20
168.6748450412532065
 30
0.0
 40
0.5
 50
90.0
 51
179.9999919564995139
  0
ARC
  5
D6E
  8
0
 10
211.380656493993996
 20
168.6748450412532065
 30
0.0
 40
0.5
 50
0.0
 51
90.0
  0
LINE
  5
D6F
  8
0
 10
211.380656493993996
 20
169.1748450412532065
 30
0.0
 11
208.4146564939939026
 21
169.1748450412532065
 31
0.0
  0
LINE
  5
D70
  8
0
 10
196.4146564939939026
 20
147.1748450412532065
 30
0.0
 11
207.9146564939939026
 21
147.1748450412532065
 31
0.0
  0
ARC
  5
D71
  8
0
 10
196.4146564939939026
 20
146.6748450412532065
 30
0.0
 40
0.5
 50
90.0
 51
180.0
  0
ARC
  5
D72
  8
0
 10
216.9146564939939026
 20
144.9658450412532034
 30
0.0
 40
0.5
 50
0.0
 51
59.9999999999998579
  0
LINE
  5
D73
  8
0
 10
213.9146564939939026
 20
147.2748450412532009
 30
0.0
 11
217.1646564939939026
 21
145.3988450412531961
 31
0.0
  0
LINE
  5
D74
  8
0
 10
213.9146564939939026
 20
151.1618450412532013
 30
0.0
 11
217.3476564939938953
 21
145.2158450412532034
 31
0.0
  0
LINE
  5
D75
  8
0
 10
207.9146564939939026
 20
146.4838450412532893
 30
0.0
 11
207.9146564939939026
 21
168.6748450412532065
 31
0.0
  0
LINE
  5
D76
  8
0
 10
211.8726564939937873
 20
168.7618450412531956
 30
0.0
 11
213.9146564939939026
 21
157.1828450412531026
 31
0.0
  0
ARC
  5
D77
  8
0
 10
210.9146564939939026
 20
138.1408450412531863
 30
0.0
 40
0.965926
 50
193.5219999999999061
 51
346.4780000000001792
  0
ARC
  5
D78
  8
0
 10
216.9146564939939026
 20
129.383845041253295
 30
0.0
 40
0.5
 50
300.0000000000001137
 51
0.0
  0
ARC
  5
D79
  8
0
 10
213.8196564939939037
 20
128.1748450412532065
 30
0.0
 40
1.0
 50
270.0
 51
300.0000000000001137
  0
LINE
  5
D7A
  8
0
 10
214.3196564939939037
 20
127.3088450412532069
 30
0.0
 11
217.1646564939939026
 21
128.9508450412531033
 31
0.0
  0
LINE
  5
D7B
  8
0
 10
196.380656493993996
 20
127.1748450412532065
 30
0.0
 11
213.8196564939939037
 21
127.1748450412532065
 31
0.0
  0
LINE
  5
D7C
  8
0
 10
217.4146564939939026
 20
129.383845041253295
 30
0.0
 11
217.4146564939939026
 21
144.9658450412532034
 31
0.0
  0
LINE
  5
D7D
  8
0
 10
213.9146564939939026
 20
157.1828450412531026
 30
0.0
 11
213.9146564939939026
 21
147.2748450412530019
 31
0.0
  0
LINE
  5
D7E
  8
0
 10
211.880656493993996
 20
138.1408450412531863
 30
0.0
 11
211.880656493993996
 21
168.718845041253303
 31
0.0
  0
LINE
  5
D7F
  8
0
 10
209.9486564939938091
 20
138.1408450412531863
 30
0.0
 11
209.9486564939938091
 21
169.1748450412532065
 31
0.0
  0
LINE
  5
D80
  8
0
 10
211.8536564939940092
 20
137.9148450412533009
 30
0.0
 11
213.9146564939939026
 21
146.4838450412532893
 31
0.0
  0
LINE
  5
D81
  8
0
 10
209.9756564939937959
 20
137.9148450412533009
 30
0.0
 11
207.9146564939939026
 21
146.4838450412532893
 31
0.0
  0
LINE
  5
D82
  8
0
 10
195.9146564939939026
 20
146.6748450412532065
 30
0.0
 11
195.9146564939939026
 21
127.674845041253306
 31
0.0
  0
LINE
  5
D85
  8
0
 10
213.9146564939939026
 20
147.2748450412530019
 30
0.0
 11
213.9146564939939026
 21
127.1793677687853972
 31
0.0
  0
ARC
  5
D86
  8
0
 10
211.4868780033623921
 20
216.6748450412526097
 30
0.0
 40
0.5
 50
13.6966929433455409
 51
89.9999999999934914
  0
ARC
  5
D87
  8
0
 10
211.4868780033623921
 20
197.6748450412538034
 30
0.0
 40
0.5
 50
270.0000000000064801
 51
346.3033070566543756
  0
LINE
  5
D88
  8
0
 10
207.9146564939939026
 20
205.5244345201124077
 30
0.0
 11
207.9146564939939026
 21
208.8252555623938065
 31
0.0
  0
LINE
  5
D89
  8
0
 10
207.9146564939939026
 20
208.8252555623938065
 30
0.0
 11
209.8555859144632052
 21
216.793181157732306
 31
0.0
  0
LINE
  5
D8A
  8
0
 10
207.9146564939939026
 20
205.5244345201124077
 30
0.0
 11
209.8555859144632052
 21
197.5565089247739081
 31
0.0
  0
TEXT
  5
EB4
  8
0
 62
     3
 10
0.0
 20
0.0
 30
0.0
 40
10.0
  1
EL1-32
  7
STANDARD1
  0
ARC
  5
FBE
  8
0
 10
165.4146564939937889
 20
91.6748450412532065
 30
0.0
 40
0.5
 50
90.0
 51
180.0
  0
ARC
  5
FBF
  8
0
 10
170.2146564939938003
 20
91.874845041253451
 30
0.0
 40
0.3
 50
90.0
 51
180.0
  0
ARC
  5
FC0
  8
0
 10
169.4146564939937889
 20
91.6748450412532065
 30
0.0
 40
0.5
 50
0.0
 51
90.0
  0
LINE
  5
FC1
  8
0
 10
165.4146564939937889
 20
92.1748450412532634
 30
0.0
 11
169.4146564939937889
 21
92.1748450412532634
 31
0.0
  0
LINE
  5
FC2
  8
0
 10
169.9146564939937889
 20
85.6748450412529792
 30
0.0
 11
164.9146564939939879
 21
85.6748450412529792
 31
0.0
  0
LINE
  5
FC3
  8
0
 10
169.9146564939939026
 20
81.6118119059832452
 30
0.0
 11
164.9146564939939026
 21
81.6118119059832168
 31
0.0
  0
LINE
  5
FC4
  8
0
 10
169.9146564939939026
 20
72.7378781765232247
 30
0.0
 11
164.9146564939939026
 21
72.7378781765232532
 31
0.0
  0
LINE
  5
FC5
  8
0
 10
169.9146564939937889
 20
68.6748450412534908
 30
0.0
 11
164.9146564939939879
 21
68.6748450412534908
 31
0.0
  0
LINE
  5
FC6
  8
0
 10
164.9146564939939026
 20
91.6748450412532065
 30
0.0
 11
164.9146564939937889
 21
62.6748450412534908
 31
0.0
  0
LINE
  5
FC7
  8
0
 10
165.4146564939937889
 20
62.1748450412534268
 30
0.0
 11
169.4146564939937889
 21
62.1748450412534268
 31
0.0
  0
ARC
  5
FC8
  8
0
 10
169.4146564939937889
 20
62.6748450412534908
 30
0.0
 40
0.5
 50
270.0
 51
0.0
  0
LINE
  5
FC9
  8
0
 10
174.614656493993806
 20
62.1748450412532279
 30
0.0
 11
170.2146564939938003
 21
62.1748450412532279
 31
0.0
  0
ARC
  5
FCA
  8
0
 10
170.2146564939938003
 20
62.4748450412532392
 30
0.0
 40
0.3
 50
180.0
 51
270.0
  0
ARC
  5
FCB
  8
0
 10
165.4146564939937889
 20
62.6748450412534908
 30
0.0
 40
0.5
 50
180.0
 51
270.0
  0
LINE
  5
FCC
  8
0
 10
174.614656493993806
 20
92.174845041253235
 30
0.0
 11
170.2146564939938003
 21
92.174845041253235
 31
0.0
  0
LINE
  5
FCD
  8
0
 10
169.9146564939939026
 20
91.874845041253451
 30
0.0
 11
169.9146564939937889
 21
62.6748450412534908
 31
0.0
  0
LINE
  5
FCE
  8
3
 10
192.4146564939941015
 20
81.7548450412532048
 30
0.0
 11
189.0646564939939935
 21
79.8950874654955783
 31
0.0
  0
LINE
  5
FCF
  8
3
 10
183.5646564939937946
 20
76.8417541321621655
 30
0.0
 11
180.0456564939939028
 21
74.8881759503440776
 31
0.0
  0
LINE
  5
FD0
  8
3
 10
179.0456564939939028
 20
74.3330244351925558
 30
0.0
 11
175.9146564939939026
 21
72.5948450412532083
 31
0.0
  0
LINE
  5
FD1
  8
3
 10
175.9146564939939026
 20
81.7548450412532048
 30
0.0
 11
179.0456564939939028
 21
80.0166656473138431
 31
0.0
  0
LINE
  5
FD2
  8
3
 10
180.0456564939939028
 20
79.4615141321623355
 30
0.0
 11
183.5646564939937946
 21
77.5079359503442618
 31
0.0
  0
LINE
  5
FD3
  8
3
 10
189.0646564939939083
 20
74.4546026170108064
 30
0.0
 11
192.4146564939939879
 21
72.5948450412532083
 31
0.0
  0
LINE
  5
FD4
  8
0
 10
174.614656493993806
 20
91.1748450412532065
 30
0.0
 11
175.9146564939939026
 21
91.1748450412532065
 31
0.0
  0
LINE
  5
FD5
  8
0
 10
176.9146564939939026
 20
87.1748450412532065
 30
0.0
 11
176.9146564939939026
 21
81.7548450412532048
 31
0.0
  0
LINE
  5
FD6
  8
0
 10
183.8146564939939083
 20
90.6748450412540166
 30
0.0
 11
183.5646564939939083
 21
90.2418450412539528
 31
0.0
  0
LINE
  5
FD7
  8
0
 10
183.8146564939935104
 20
90.6748450412534339
 30
0.0
 11
188.4641564939938121
 21
90.6748450412534339
 31
0.0
  0
LINE
  5
FD8
  8
3
 10
178.2566564939938871
 20
86.399845041253343
 30
0.0
 11
179.0456564939939028
 21
86.399845041253343
 31
0.0
  0
LINE
  5
FD9
  8
0
 10
180.0456564939939028
 20
90.1748450412532065
 30
0.0
 11
179.0456564939939028
 21
90.1748450412532065
 31
0.0
  0
LINE
  5
FDA
  8
0
 10
180.0456564939939028
 20
87.1748450412532065
 30
0.0
 11
183.5646564939939083
 21
87.1748450412532065
 31
0.0
  0
LINE
  5
FDB
  8
3
 10
180.0456564939939028
 20
86.399845041253343
 30
0.0
 11
183.5646564939939083
 21
86.399845041253343
 31
0.0
  0
LINE
  5
FDC
  8
0
 10
180.0456564939939028
 20
81.7548450412532048
 30
0.0
 11
183.5646564939939083
 21
81.7548450412532048
 31
0.0
  0
LINE
  5
FDD
  8
3
 10
191.6396564939938969
 20
86.399845041253343
 30
0.0
 11
192.4146564939939026
 21
87.1748450412532065
 31
0.0
  0
LINE
  5
FDE
  8
0
 10
189.0646564939939083
 20
87.1748450412532065
 30
0.0
 11
194.9146564939939026
 21
87.1748450412532065
 31
0.0
  0
LINE
  5
FDF
  8
3
 10
189.0646564939939083
 20
86.399845041253343
 30
0.0
 11
191.6396564939938969
 21
86.399845041253343
 31
0.0
  0
LINE
  5
FE0
  8
0
 10
189.0646564939939083
 20
81.7548450412532048
 30
0.0
 11
192.4146564939941015
 21
81.7548450412532048
 31
0.0
  0
LINE
  5
FE1
  8
0
 10
184.0646564939939083
 20
77.1748450412532065
 30
0.0
 11
187.8636564939938012
 21
77.1748450412532065
 31
0.0
  0
LINE
  5
FE2
  8
0
 10
188.4641564939938121
 20
90.6748450412534339
 30
0.0
 11
189.0646564939939083
 21
89.6353450412534585
 31
0.0
  0
LINE
  5
FE3
  8
0
 10
175.9146564939939026
 20
87.1748450412532065
 30
0.0
 11
179.0456564939939028
 21
87.1748450412532065
 31
0.0
  0
LINE
  5
FE4
  8
3
 10
176.9146564939939026
 20
87.1748450412532065
 30
0.0
 11
178.2566564939938871
 21
86.399845041253343
 31
0.0
  0
LINE
  5
FE5
  8
0
 10
175.9146564939939026
 20
81.7548450412532048
 30
0.0
 11
179.0456564939939028
 21
81.7548450412532048
 31
0.0
  0
LINE
  5
FE6
  8
0
 10
176.9146564939939026
 20
72.5948450412532083
 30
0.0
 11
176.9146564939939026
 21
67.1748450412532065
 31
0.0
  0
LINE
  5
FE7
  8
0
 10
174.614656493993806
 20
63.1748450412532065
 30
0.0
 11
175.9146564939939026
 21
63.1748450412532065
 31
0.0
  0
LINE
  5
FE8
  8
0
 10
180.0456564939939028
 20
72.5948450412532083
 30
0.0
 11
183.5646564939939083
 21
72.5948450412532083
 31
0.0
  0
LINE
  5
FE9
  8
3
 10
178.2566564939938871
 20
67.9498450412531838
 30
0.0
 11
179.0456564939939028
 21
67.9498450412531838
 31
0.0
  0
LINE
  5
FEA
  8
0
 10
183.5646564939939083
 20
67.1748450412532065
 30
0.0
 11
180.0456564939939028
 21
67.1748450412532065
 31
0.0
  0
LINE
  5
FEB
  8
3
 10
180.0456564939939028
 20
67.9498450412531838
 30
0.0
 11
183.5646564939939083
 21
67.9498450412531838
 31
0.0
  0
LINE
  5
FEC
  8
0
 10
189.0646564939939083
 20
72.5948450412532083
 30
0.0
 11
192.4146564939939879
 21
72.5948450412532083
 31
0.0
  0
LINE
  5
FED
  8
3
 10
191.6396564939938969
 20
67.9498450412531838
 30
0.0
 11
192.4146564939939026
 21
67.1748450412532065
 31
0.0
  0
LINE
  5
FEE
  8
0
 10
194.9146564939939026
 20
67.1748450412532065
 30
0.0
 11
189.0646564939939083
 21
67.1748450412532065
 31
0.0
  0
LINE
  5
FEF
  8
3
 10
189.0646564939939083
 20
67.9498450412531838
 30
0.0
 11
191.6396564939938969
 21
67.9498450412531838
 31
0.0
  0
LINE
  5
FF0
  8
0
 10
192.4146564939939879
 20
87.1748450412533202
 30
0.0
 11
192.4146564939939026
 21
67.1748450412532065
 31
0.0
  0
LINE
  5
FF1
  8
0
 10
179.0456564939939028
 20
64.1748450412532065
 30
0.0
 11
180.0456564939939028
 21
64.1748450412532065
 31
0.0
  0
LINE
  5
FF2
  8
0
 10
179.0456564939939028
 20
67.1748450412532065
 30
0.0
 11
175.9146564939939026
 21
67.1748450412532065
 31
0.0
  0
LINE
  5
FF3
  8
3
 10
176.9146564939939026
 20
67.1748450412532065
 30
0.0
 11
178.2566564939938871
 21
67.9498450412531838
 31
0.0
  0
LINE
  5
FF4
  8
0
 10
175.9146564939939026
 20
72.5948450412532083
 30
0.0
 11
179.0456564939939028
 21
72.5948450412532083
 31
0.0
  0
LINE
  5
FF5
  8
0
 10
189.0646564939939083
 20
64.7143450412531251
 30
0.0
 11
189.0646564939939935
 21
89.6353450412531032
 31
0.0
  0
LINE
  5
FF6
  8
0
 10
183.5646564939937093
 20
90.2418450412536686
 30
0.0
 11
183.5646564939939083
 21
64.1078450412523466
 31
0.0
  0
LINE
  5
FF7
  8
0
 10
175.9146564939939026
 20
63.1748450412532065
 30
0.0
 11
175.9146564939939026
 21
91.1748450412532065
 31
0.0
  0
LINE
  5
FF8
  8
0
 10
174.6146564939936923
 20
92.1748450412532065
 30
0.0
 11
174.6146564939938912
 21
62.1748450412531994
 31
0.0
  0
LINE
  5
FF9
  8
0
 10
194.9146564939939026
 20
87.1748450412532065
 30
0.0
 11
194.9146564939939026
 21
67.1748450412532065
 31
0.0
  0
LINE
  5
FFA
  8
0
 10
179.0456564939939028
 20
90.1748450412532065
 30
0.0
 11
179.0456564939939028
 21
64.1748450412532065
 31
0.0
  0
LINE
  5
FFB
  8
0
 10
180.0456564939939028
 20
64.1748450412532065
 30
0.0
 11
180.0456564939939028
 21
90.1748450412532065
 31
0.0
  0
LINE
  5
FFC
  8
0
 10
194.9146564939939026
 20
87.1748450412532065
 30
0.0
 11
195.9146564939939026
 21
86.1748450412532065
 31
0.0
  0
LINE
  5
FFD
  8
0
 10
194.9146564939939026
 20
67.1748450412532065
 30
0.0
 11
195.9146564939939026
 21
68.1748450412532065
 31
0.0
  0
ARC
  5
FFE
  8
0
 10
169.4955886338784126
 20
83.9248450412534908
 30
0.0
 40
19.5690678601155703
 50
339.8223480221262207
 51
20.1776519778738113
  0
ARC
  5
FFF
  8
0
 10
229.4161787976609048
 20
83.9219545002403038
 30
0.0
 40
45.851522394778911
 50
171.5308224040983021
 51
188.4618740161814117
  0
ARC
  5
1000
  8
0
 10
169.4955886338784126
 20
70.4248450412528655
 30
0.0
 40
19.5690678601155703
 50
339.8223480221262207
 51
20.1776519778738113
  0
ARC
  5
1001
  8
0
 10
229.4161787976609048
 20
70.4277355822661093
 30
0.0
 40
45.851522394778911
 50
171.5381259838185031
 51
188.4691775959011864
  0
LINE
  5
1002
  8
0
 10
188.4641564939938121
 20
63.6748450412529223
 30
0.0
 11
189.0646564939939083
 21
64.7143450412529546
 31
0.0
  0
LINE
  5
1003
  8
0
 10
183.8146564939935104
 20
63.6748450412529223
 30
0.0
 11
188.4641564939938121
 21
63.6748450412529223
 31
0.0
  0
LINE
  5
1004
  8
0
 10
183.8146564939939083
 20
63.6748450412524107
 30
0.0
 11
183.5646564939939083
 21
64.1078450412524035
 31
0.0
  0
ARC
  5
10E5
  8
5
 10
167.4146564939939026
 20
137.1748450412532065
 30
0.0
 40
2.5
 50
270.0
 51
0.0
  0
LINE
  5
10E6
  8
5
 10
167.4146564939939026
 20
134.6748450412532065
 30
0.0
 11
147.9146564939937889
 21
134.6748450412532065
 31
0.0
  0
ARC
  5
10E7
  8
5
 10
151.5146564939938969
 20
139.3748450412531099
 30
0.0
 40
0.3
 50
90.0
 51
180.0
  0
ARC
  5
10E8
  8
5
 10
147.9146564939939026
 20
139.1748450412532065
 30
0.0
 40
0.5
 50
90.0
 51
180.0
  0
ARC
  5
10E9
  8
5
 10
151.5146564939938969
 20
134.9748450412531895
 30
0.0
 40
0.3
 50
180.0
 51
270.0
  0
ARC
  5
10EA
  8
5
 10
147.9146564939939026
 20
135.1748450412532065
 30
0.0
 40
0.5
 50
180.0
 51
270.0
  0
LINE
  5
10EB
  8
5
 10
147.4146564939937889
 20
139.1748450412532065
 30
0.0
 11
147.4146564939937889
 21
135.1748450412532065
 31
0.0
  0
LINE
  5
10EC
  8
5
 10
151.214656493993914
 20
134.9748450412531895
 30
0.0
 11
151.214656493993914
 21
139.3748450412531099
 31
0.0
  0
LINE
  5
10ED
  8
5
 10
167.4146564939937889
 20
139.6748450412530929
 30
0.0
 11
147.9146564939937889
 21
139.6748450412530929
 31
0.0
  0
LINE
  5
10EE
  8
0
 10
169.9146564939937889
 20
139.6748450412532065
 30
0.0
 11
169.9146564939937889
 21
117.6748450412531071
 31
0.0
  0
LINE
  5
10EF
  8
1
 10
167.4146564939939026
 20
140.6748450412530929
 30
0.0
 11
167.4146564939939026
 21
133.6748450412530929
 31
0.0
  0
ARC
  5
10F0
  8
0
 10
165.2146564939938003
 20
151.8748450412529962
 30
0.0
 40
0.3
 50
90.0
 51
180.0
  0
LINE
  5
10F1
  8
0
 10
174.614656493993806
 20
151.1748450412530929
 30
0.0
 11
175.9146564939939026
 21
151.1748450412530929
 31
0.0
  0
LINE
  5
10F2
  8
0
 10
174.614656493993806
 20
152.1748450412530929
 30
0.0
 11
165.2146564939938003
 21
152.1748450412530929
 31
0.0
  0
LINE
  5
10F3
  8
0
 10
169.9146564939937889
 20
139.6748450412532065
 30
0.0
 11
164.9146564939939026
 21
139.6748450412530929
 31
0.0
  0
LINE
  5
10F4
  8
0
 10
184.0646564939939083
 20
152.7638450412530915
 30
0.0
 11
183.5646564939939083
 21
151.8978450412529924
 31
0.0
  0
LINE
  5
10F5
  8
0
 10
184.0646564939939083
 20
152.7638450412530915
 30
0.0
 11
187.8636564939938012
 21
152.7638450412530915
 31
0.0
  0
LINE
  5
10F6
  8
0
 10
180.0456564939939028
 20
150.1748450412530929
 30
0.0
 11
179.0456564939939028
 21
150.1748450412530929
 31
0.0
  0
ARC
  5
10F7
  8
0
 10
189.7926564939938885
 20
148.8658450412530954
 30
0.0
 40
6.9281100000000002
 50
205.9780000000017139
 51
214.2290000000027135
  0
ARC
  5
10F8
  8
0
 10
208.7766564939938974
 20
137.1748450412530929
 30
0.0
 40
25.9125000000000014
 50
162.4949000000000012
 51
166.652000000000811
  0
ARC
  5
10F9
  8
0
 10
182.1356564939939062
 20
148.8658450412530954
 30
0.0
 40
6.9281100000000002
 50
325.7710000000002992
 51
0.0
  0
LINE
  5
10FA
  8
0
 10
184.0646564939939083
 20
144.9688450412531893
 30
0.0
 11
187.8636564939938012
 21
144.9688450412531893
 31
0.0
  0
LINE
  5
10FB
  8
0
 10
187.8636564939938012
 20
152.7638450412530915
 30
0.0
 11
189.0646564939939083
 21
150.6848450412531122
 31
0.0
  0
CIRCLE
  5
10FC
  8
0
 10
167.4146564939939026
 20
137.1748450412530929
 30
0.0
 40
1.0
  0
ARC
  5
10FD
  8
0
 10
167.4146564939937889
 20
137.1748450412530929
 30
0.0
 40
2.5
 50
0.0
 51
90.0
  0
ARC
  5
10FE
  8
0
 10
165.2146564939938003
 20
121.2748450412531014
 30
0.0
 40
0.3
 50
180.0
 51
270.0
  0
ARC
  5
10FF
  8
0
 10
165.4146564939937889
 20
117.6748450412531071
 30
0.0
 40
0.5
 50
180.0
 51
270.0
  0
ARC
  5
1100
  8
0
 10
169.614656493993806
 20
121.2748450412531014
 30
0.0
 40
0.3
 50
270.0
 51
0.0
  0
ARC
  5
1101
  8
0
 10
170.2146564939938003
 20
122.4748450412531042
 30
0.0
 40
0.3
 50
180.0
 51
270.0
  0
LINE
  5
1102
  8
0
 10
174.614656493993806
 20
123.1748450412531071
 30
0.0
 11
175.9146564939939026
 21
123.1748450412531071
 31
0.0
  0
LINE
  5
1103
  8
0
 10
174.614656493993806
 20
122.1748450412531071
 30
0.0
 11
170.2146564939938003
 21
122.1748450412531071
 31
0.0
  0
ARC
  5
1104
  8
0
 10
169.4146564939937889
 20
117.6748450412531071
 30
0.0
 40
0.5
 50
270.0
 51
0.0
  0
LINE
  5
1105
  8
0
 10
165.4146564939937889
 20
117.1748450412529934
 30
0.0
 11
169.4146564939937889
 21
117.1748450412529934
 31
0.0
  0
LINE
  5
1106
  8
0
 10
169.614656493993806
 20
120.9748450412532037
 30
0.0
 11
165.2146564939938003
 21
120.9748450412532037
 31
0.0
  0
ARC
  5
1107
  8
0
 10
208.7766564939938974
 20
137.1748450412530929
 30
0.0
 40
25.9125000000000014
 50
193.3480000000024859
 51
197.5049999999999102
  0
ARC
  5
1108
  8
0
 10
189.7926564939938885
 20
125.483845041253204
 30
0.0
 40
6.9281100000000002
 50
145.770599999999888
 51
154.0219999999982861
  0
LINE
  5
1109
  8
0
 10
184.0646564939939083
 20
129.3808450412531101
 30
0.0
 11
187.8636564939938012
 21
129.3808450412531101
 31
0.0
  0
LINE
  5
110A
  8
0
 10
179.0456564939939028
 20
124.1748450412531071
 30
0.0
 11
180.0456564939939028
 21
124.1748450412531071
 31
0.0
  0
LINE
  5
110B
  8
0
 10
184.0646564939939083
 20
121.586845041253099
 30
0.0
 11
183.5646564939939083
 21
122.4528450412530987
 31
0.0
  0
LINE
  5
110C
  8
0
 10
187.8636564939938012
 20
121.586845041253099
 30
0.0
 11
189.0646564939939083
 21
123.664845041253102
 31
0.0
  0
LINE
  5
110D
  8
0
 10
184.0646564939939083
 20
121.586845041253099
 30
0.0
 11
187.8636564939938012
 21
121.586845041253099
 31
0.0
  0
ARC
  5
110E
  8
0
 10
182.1356564939939062
 20
125.483845041253204
 30
0.0
 40
6.9281100000000002
 50
0.0
 51
34.2289999999997079
  0
LINE
  5
110F
  8
0
 10
164.9146564939939026
 20
151.8748450412529962
 30
0.0
 11
164.9146564939939026
 21
117.6748450412531071
 31
0.0
  0
ARC
  5
1110
  8
0
 10
163.1516564939938121
 20
137.1748450412530929
 30
0.0
 40
25.9125000000000014
 50
342.4950000000001182
 51
17.5049999999999812
  0
LINE
  5
1111
  8
0
 10
189.0646564939939083
 20
123.664845041253102
 30
0.0
 11
189.0646564939939083
 21
150.6848450412531122
 31
0.0
  0
LINE
  5
1112
  8
0
 10
183.5646564939939083
 20
151.9008450412530919
 30
0.0
 11
183.5646564939939083
 21
122.4488450412531932
 31
0.0
  0
LINE
  5
1113
  8
0
 10
175.9146564939939026
 20
123.1748450412531071
 30
0.0
 11
175.9146564939939026
 21
151.1748450412530929
 31
0.0
  0
LINE
  5
1114
  8
0
 10
174.6146564939936923
 20
152.1748450412530076
 30
0.0
 11
174.6146564939938912
 21
122.1748450412531071
 31
0.0
  0
LINE
  5
1115
  8
0
 10
179.0456564939939028
 20
150.1748450412530929
 30
0.0
 11
179.0456564939939028
 21
124.1748450412531071
 31
0.0
  0
LINE
  5
1116
  8
0
 10
180.0456564939939028
 20
124.1748450412531071
 30
0.0
 11
180.0456564939939028
 21
150.1748450412530929
 31
0.0
  0
ARC
  5
1117
  8
0
 10
167.4146564939939879
 20
137.1748450412530929
 30
0.0
 40
2.5
 50
90.0
 51
180.0
  0
LINE
  5
1118
  8
3
 10
192.4146564939941015
 20
141.7548450412531054
 30
0.0
 11
189.0646564939939935
 21
139.895087465495493
 31
0.0
  0
LINE
  5
1119
  8
3
 10
183.5646564939937946
 20
136.8417541321620945
 30
0.0
 11
180.0456564939939028
 21
134.8881759503439923
 31
0.0
  0
LINE
  5
111A
  8
3
 10
179.0456564939939028
 20
134.3330244351924989
 30
0.0
 11
175.9146564939939026
 21
132.5948450412531088
 31
0.0
  0
LINE
  5
111B
  8
3
 10
175.9146564939939026
 20
141.7548450412531054
 30
0.0
 11
179.0456564939939028
 21
140.0166656473136868
 31
0.0
  0
LINE
  5
111C
  8
3
 10
180.0456564939939028
 20
139.4615141321621934
 30
0.0
 11
183.5646564939937946
 21
137.5079359503442049
 31
0.0
  0
LINE
  5
111D
  8
3
 10
189.0646564939939083
 20
134.4546026170106927
 30
0.0
 11
192.4146564939939879
 21
132.5948450412531088
 31
0.0
  0
LINE
  5
111E
  8
0
 10
176.9146564939939026
 20
147.1748450412530929
 30
0.0
 11
176.9146564939939026
 21
141.7548450412531054
 31
0.0
  0
LINE
  5
111F
  8
3
 10
178.2566564939938871
 20
146.3998450412532009
 30
0.0
 11
179.0456564939939028
 21
146.3998450412532009
 31
0.0
  0
LINE
  5
1120
  8
0
 10
180.0456564939939028
 20
147.1748450412530929
 30
0.0
 11
183.5646564939939083
 21
147.1748450412530929
 31
0.0
  0
LINE
  5
1121
  8
3
 10
180.0456564939939028
 20
146.3998450412532009
 30
0.0
 11
183.5646564939939083
 21
146.3998450412532009
 31
0.0
  0
LINE
  5
1122
  8
0
 10
180.0456564939939028
 20
141.7548450412531054
 30
0.0
 11
183.5646564939939083
 21
141.7548450412531054
 31
0.0
  0
LINE
  5
1123
  8
3
 10
191.6396564939938969
 20
146.3998450412532009
 30
0.0
 11
192.4146564939939026
 21
147.1748450412530929
 31
0.0
  0
LINE
  5
1124
  8
0
 10
189.0646564939939083
 20
147.1748450412530929
 30
0.0
 11
194.9146564939939026
 21
147.1748450412530929
 31
0.0
  0
LINE
  5
1125
  8
3
 10
189.0646564939939083
 20
146.3998450412532009
 30
0.0
 11
191.6396564939938969
 21
146.3998450412532009
 31
0.0
  0
LINE
  5
1126
  8
0
 10
189.0646564939939083
 20
141.7548450412531054
 30
0.0
 11
192.4146564939941015
 21
141.7548450412531054
 31
0.0
  0
LINE
  5
1127
  8
0
 10
175.9146564939939026
 20
147.1748450412530929
 30
0.0
 11
179.0456564939939028
 21
147.1748450412530929
 31
0.0
  0
LINE
  5
1128
  8
3
 10
176.9146564939939026
 20
147.1748450412530929
 30
0.0
 11
178.2566564939938871
 21
146.3998450412532009
 31
0.0
  0
LINE
  5
1129
  8
0
 10
175.9146564939939026
 20
141.7548450412531054
 30
0.0
 11
179.0456564939939028
 21
141.7548450412531054
 31
0.0
  0
LINE
  5
112A
  8
0
 10
176.9146564939939026
 20
132.5948450412531088
 30
0.0
 11
176.9146564939939026
 21
127.1748450412531071
 31
0.0
  0
LINE
  5
112B
  8
0
 10
180.0456564939939028
 20
132.5948450412531088
 30
0.0
 11
183.5646564939939083
 21
132.5948450412531088
 31
0.0
  0
LINE
  5
112C
  8
3
 10
178.2566564939938871
 20
127.9498450412530985
 30
0.0
 11
179.0456564939939028
 21
127.9498450412530985
 31
0.0
  0
LINE
  5
112D
  8
0
 10
183.5646564939939083
 20
127.1748450412531071
 30
0.0
 11
180.0456564939939028
 21
127.1748450412531071
 31
0.0
  0
LINE
  5
112E
  8
3
 10
180.0456564939939028
 20
127.9498450412530985
 30
0.0
 11
183.5646564939939083
 21
127.9498450412530985
 31
0.0
  0
LINE
  5
112F
  8
0
 10
189.0646564939939083
 20
132.5948450412531088
 30
0.0
 11
192.4146564939939879
 21
132.5948450412531088
 31
0.0
  0
LINE
  5
1130
  8
3
 10
191.6396564939938969
 20
127.9498450412530985
 30
0.0
 11
192.4146564939939026
 21
127.1748450412531071
 31
0.0
  0
LINE
  5
1131
  8
0
 10
194.9146564939939026
 20
127.1748450412531071
 30
0.0
 11
189.0646564939939083
 21
127.1748450412531071
 31
0.0
  0
LINE
  5
1132
  8
3
 10
189.0646564939939083
 20
127.9498450412530985
 30
0.0
 11
191.6396564939938969
 21
127.9498450412530985
 31
0.0
  0
LINE
  5
1133
  8
0
 10
192.4146564939939879
 20
147.1748450412532065
 30
0.0
 11
192.4146564939939026
 21
127.1748450412531071
 31
0.0
  0
LINE
  5
1134
  8
0
 10
179.0456564939939028
 20
127.1748450412531071
 30
0.0
 11
175.9146564939939026
 21
127.1748450412531071
 31
0.0
  0
LINE
  5
1135
  8
3
 10
176.9146564939939026
 20
127.1748450412531071
 30
0.0
 11
178.2566564939938871
 21
127.9498450412530985
 31
0.0
  0
LINE
  5
1136
  8
0
 10
175.9146564939939026
 20
132.5948450412531088
 30
0.0
 11
179.0456564939939028
 21
132.5948450412531088
 31
0.0
  0
LINE
  5
1137
  8
0
 10
194.9146564939939026
 20
147.1748450412530929
 30
0.0
 11
194.9146564939939026
 21
127.1748450412531071
 31
0.0
  0
LINE
  5
1138
  8
0
 10
194.9146564939939026
 20
147.1748450412530929
 30
0.0
 11
195.9146564939939026
 21
146.1748450412530929
 31
0.0
  0
LINE
  5
1139
  8
0
 10
194.9146564939939026
 20
127.1748450412531071
 30
0.0
 11
195.9146564939939026
 21
128.1748450412530929
 31
0.0
  0
ARC
  5
113A
  8
0
 10
196.4146564939939026
 20
127.674845041253306
 30
0.0
 40
0.5
 50
180.0
 51
270.0
  0
ARC
  5
11EF
  8
0
 10
165.2146564939936866
 20
192.4748450412533884
 30
0.0
 40
0.3
 50
180.0
 51
270.0
  0
LINE
  5
11F0
  8
0
 10
164.9146564939937889
 20
221.8748450412529962
 30
0.0
 11
164.9146564939937889
 21
192.4748450412533884
 31
0.0
  0
ARC
  5
11F1
  8
0
 10
165.2146564939936866
 20
221.8748450412529962
 30
0.0
 40
0.3
 50
90.0
 51
180.0
  0
LINE
  5
11F2
  8
0
 10
174.614656493993806
 20
193.1748450412530929
 30
0.0
 11
175.9146564939939026
 21
193.1748450412530929
 31
0.0
  0
LINE
  5
11F3
  8
0
 10
174.614656493993806
 20
192.1748450412530929
 30
0.0
 11
165.2146564939936866
 21
192.1748450412530929
 31
0.0
  0
LINE
  5
11F4
  8
0
 10
183.8146564939939083
 20
193.6748450412524107
 30
0.0
 11
183.5646564939939083
 21
194.1078450412524035
 31
0.0
  0
LINE
  5
11F5
  8
0
 10
183.8146564939935104
 20
193.6748450412528939
 30
0.0
 11
188.4641564939938121
 21
193.6748450412528939
 31
0.0
  0
LINE
  5
11F6
  8
0
 10
180.0456564939939028
 20
194.1748450412530929
 30
0.0
 11
179.0456564939939028
 21
194.1748450412530929
 31
0.0
  0
LINE
  5
11F7
  8
0
 10
184.0646564939939083
 20
207.1748450412532065
 30
0.0
 11
187.8636564939938012
 21
207.1748450412532065
 31
0.0
  0
LINE
  5
11F8
  8
0
 10
188.4641564939938121
 20
193.6748450412528939
 30
0.0
 11
189.0646564939939083
 21
194.7143450412528978
 31
0.0
  0
LINE
  5
11F9
  8
0
 10
174.614656493993806
 20
221.1748450412532065
 30
0.0
 11
175.9146564939939026
 21
221.1748450412532065
 31
0.0
  0
LINE
  5
11FA
  8
0
 10
174.614656493993806
 20
222.1748450412530929
 30
0.0
 11
165.2146564939936866
 21
222.1748450412530929
 31
0.0
  0
LINE
  5
11FB
  8
0
 10
179.0456564939939028
 20
220.1748450412530929
 30
0.0
 11
180.0456564939939028
 21
220.1748450412530929
 31
0.0
  0
LINE
  5
11FC
  8
0
 10
189.0646564939939083
 20
219.6353450412532027
 30
0.0
 11
189.0646564939939935
 21
194.7143450412532957
 31
0.0
  0
LINE
  5
11FD
  8
0
 10
183.5646564939937093
 20
194.1078450412526877
 30
0.0
 11
183.5646564939939083
 21
220.2418450412540096
 31
0.0
  0
LINE
  5
11FE
  8
0
 10
175.9146564939939026
 20
221.1748450412532065
 30
0.0
 11
175.9146564939939026
 21
193.1748450412530929
 31
0.0
  0
LINE
  5
11FF
  8
0
 10
174.6146564939936923
 20
192.1748450412532065
 30
0.0
 11
174.6146564939938912
 21
222.1748450412530929
 31
0.0
  0
LINE
  5
1200
  8
0
 10
179.0456564939939028
 20
194.1748450412530929
 30
0.0
 11
179.0456564939939028
 21
220.1748450412530929
 31
0.0
  0
LINE
  5
1201
  8
0
 10
180.0456564939939028
 20
220.1748450412530929
 30
0.0
 11
180.0456564939939028
 21
194.1748450412530929
 31
0.0
  0
ARC
  5
1202
  8
0
 10
169.4955886338784126
 20
200.4248450412528939
 30
0.0
 40
19.5690678601155703
 50
339.8223480221287787
 51
20.1776519778733707
  0
ARC
  5
1203
  8
0
 10
229.4161787976609048
 20
200.4277355822661093
 30
0.0
 40
45.851522394778911
 50
171.5381259838189862
 51
188.4691775959011864
  0
ARC
  5
1204
  8
0
 10
169.4955886338784126
 20
213.9248450412534908
 30
0.0
 40
19.5690678601155703
 50
339.8223480221266186
 51
20.1776519778712107
  0
ARC
  5
1205
  8
0
 10
229.4161787976609048
 20
213.9219545002403038
 30
0.0
 40
45.851522394778911
 50
171.5308224040987
 51
188.4618740161810138
  0
LINE
  5
1206
  8
0
 10
188.4641564939938121
 20
220.6748450412534055
 30
0.0
 11
189.0646564939939083
 21
219.6353450412534869
 31
0.0
  0
LINE
  5
1207
  8
0
 10
183.8146564939935104
 20
220.6748450412534055
 30
0.0
 11
188.4641564939938121
 21
220.6748450412534055
 31
0.0
  0
LINE
  5
1208
  8
0
 10
183.8146564939939083
 20
220.6748450412540024
 30
0.0
 11
183.5646564939939083
 21
220.2418450412538959
 31
0.0
  0
LINE
  5
1209
  8
3
 10
192.4146564939941015
 20
211.7548450412531054
 30
0.0
 11
189.0646564939939935
 21
209.895087465495493
 31
0.0
  0
LINE
  5
120A
  8
3
 10
183.5646564939937946
 20
206.8417541321620945
 30
0.0
 11
180.0456564939939028
 21
204.8881759503439923
 31
0.0
  0
LINE
  5
120B
  8
3
 10
179.0456564939939028
 20
204.3330244351924989
 30
0.0
 11
175.9146564939939026
 21
202.594845041253194
 31
0.0
  0
LINE
  5
120C
  8
3
 10
175.9146564939939026
 20
211.7548450412531054
 30
0.0
 11
179.0456564939939028
 21
210.0166656473138005
 31
0.0
  0
LINE
  5
120D
  8
3
 10
180.0456564939939028
 20
209.4615141321623071
 30
0.0
 11
183.5646564939937946
 21
207.5079359503442049
 31
0.0
  0
LINE
  5
120E
  8
3
 10
189.0646564939939083
 20
204.4546026170106927
 30
0.0
 11
192.4146564939939879
 21
202.594845041253194
 31
0.0
  0
LINE
  5
120F
  8
0
 10
176.9146564939939026
 20
217.1748450412532065
 30
0.0
 11
176.9146564939939026
 21
211.7548450412531054
 31
0.0
  0
LINE
  5
1210
  8
3
 10
178.2566564939938871
 20
216.3998450412532861
 30
0.0
 11
179.0456564939939028
 21
216.3998450412532861
 31
0.0
  0
LINE
  5
1211
  8
0
 10
180.0456564939939028
 20
217.1748450412532065
 30
0.0
 11
183.5646564939939083
 21
217.1748450412532065
 31
0.0
  0
LINE
  5
1212
  8
3
 10
180.0456564939939028
 20
216.3998450412532861
 30
0.0
 11
183.5646564939939083
 21
216.3998450412532861
 31
0.0
  0
LINE
  5
1213
  8
0
 10
180.0456564939939028
 20
211.7548450412531054
 30
0.0
 11
183.5646564939939083
 21
211.7548450412531054
 31
0.0
  0
LINE
  5
1214
  8
3
 10
191.6396564939938969
 20
216.3998450412532861
 30
0.0
 11
192.4146564939939026
 21
217.1748450412532065
 31
0.0
  0
LINE
  5
1215
  8
0
 10
189.0646564939939083
 20
217.1748450412532065
 30
0.0
 11
194.9146564939939026
 21
217.1748450412532065
 31
0.0
  0
LINE
  5
1216
  8
3
 10
189.0646564939939083
 20
216.3998450412532861
 30
0.0
 11
191.6396564939938969
 21
216.3998450412532861
 31
0.0
  0
LINE
  5
1217
  8
0
 10
189.0646564939939083
 20
211.7548450412531054
 30
0.0
 11
192.4146564939941015
 21
211.7548450412531054
 31
0.0
  0
LINE
  5
1218
  8
0
 10
175.9146564939939026
 20
217.1748450412532065
 30
0.0
 11
179.0456564939939028
 21
217.1748450412532065
 31
0.0
  0
LINE
  5
1219
  8
3
 10
176.9146564939939026
 20
217.1748450412532065
 30
0.0
 11
178.2566564939938871
 21
216.3998450412532861
 31
0.0
  0
LINE
  5
121A
  8
0
 10
175.9146564939939026
 20
211.7548450412531054
 30
0.0
 11
179.0456564939939028
 21
211.7548450412531054
 31
0.0
  0
LINE
  5
121B
  8
0
 10
176.9146564939939026
 20
202.594845041253194
 30
0.0
 11
176.9146564939939026
 21
197.1748450412530929
 31
0.0
  0
LINE
  5
121C
  8
0
 10
180.0456564939939028
 20
202.594845041253194
 30
0.0
 11
183.5646564939939083
 21
202.594845041253194
 31
0.0
  0
LINE
  5
121D
  8
3
 10
178.2566564939938871
 20
197.9498450412530985
 30
0.0
 11
179.0456564939939028
 21
197.9498450412530985
 31
0.0
  0
LINE
  5
121E
  8
0
 10
183.5646564939939083
 20
197.1748450412530929
 30
0.0
 11
180.0456564939939028
 21
197.1748450412530929
 31
0.0
  0
LINE
  5
121F
  8
3
 10
180.0456564939939028
 20
197.9498450412530985
 30
0.0
 11
183.5646564939939083
 21
197.9498450412530985
 31
0.0
  0
LINE
  5
1220
  8
0
 10
189.0646564939939083
 20
202.594845041253194
 30
0.0
 11
192.4146564939939879
 21
202.594845041253194
 31
0.0
  0
LINE
  5
1221
  8
3
 10
191.6396564939938969
 20
197.9498450412530985
 30
0.0
 11
192.4146564939939026
 21
197.1748450412530929
 31
0.0
  0
LINE
  5
1222
  8
0
 10
194.9146564939939026
 20
197.1748450412530929
 30
0.0
 11
189.0646564939939083
 21
197.1748450412530929
 31
0.0
  0
LINE
  5
1223
  8
3
 10
189.0646564939939083
 20
197.9498450412530985
 30
0.0
 11
191.6396564939938969
 21
197.9498450412530985
 31
0.0
  0
LINE
  5
1224
  8
0
 10
192.4146564939939879
 20
217.1748450412532918
 30
0.0
 11
192.4146564939939026
 21
197.1748450412530929
 31
0.0
  0
LINE
  5
1225
  8
0
 10
179.0456564939939028
 20
197.1748450412530929
 30
0.0
 11
175.9146564939939026
 21
197.1748450412530929
 31
0.0
  0
LINE
  5
1226
  8
3
 10
176.9146564939939026
 20
197.1748450412530929
 30
0.0
 11
178.2566564939938871
 21
197.9498450412530985
 31
0.0
  0
LINE
  5
1227
  8
0
 10
175.9146564939939026
 20
202.594845041253194
 30
0.0
 11
179.0456564939939028
 21
202.594845041253194
 31
0.0
  0
LINE
  5
1228
  8
0
 10
194.9146564939939026
 20
217.1748450412532065
 30
0.0
 11
194.9146564939939026
 21
197.1748450412530929
 31
0.0
  0
LINE
  5
1229
  8
0
 10
194.9146564939939026
 20
217.1748450412532065
 30
0.0
 11
195.9146564939939026
 21
216.1748450412530929
 31
0.0
  0
LINE
  5
122A
  8
0
 10
194.9146564939939026
 20
197.1748450412530929
 30
0.0
 11
195.9146564939939026
 21
198.1748450412530929
 31
0.0
  0
ENDSEC
  0
EOF
