  0
SECTION
  2
HEADER
  9
$ACADVER
  1
AC1009
  9
$INSBASE
 10
0.0
 20
0.0
 30
0.0
  9
$EXTMIN
 10
0.0
 20
-2.960436562073669
 30
0.0
  9
$EXTMAX
 10
114.6392708728946
 20
115.62856913018859
 30
0.0
  9
$LIMMIN
 10
0.0
 20
0.0
  9
$LIMMAX
 10
385.0
 20
270.0
  9
$ORTHOMODE
 70
     1
  9
$REGENMODE
 70
     1
  9
$FILLMODE
 70
     1
  9
$QTEXTMODE
 70
     0
  9
$MIRRTEXT
 70
     0
  9
$DRAGMODE
 70
     2
  9
$LTSCALE
 40
10.0
  9
$OSMODE
 70
  3071
  9
$ATTMODE
 70
     1
  9
$TEXTSIZE
 40
0.2
  9
$TRACEWID
 40
0.05
  9
$TEXTSTYLE
  7
STANDARD
  9
$CLAYER
  8
0
  9
$CELTYPE
  6
BYLAYER
  9
$CECOLOR
 62
   256
  9
$DIMSCALE
 40
1.0
  9
$DIMASZ
 40
3.0
  9
$DIMEXO
 40
0.0625
  9
$DIMDLI
 40
0.38
  9
$DIMRND
 40
0.0
  9
$DIMDLE
 40
0.0
  9
$DIMEXE
 40
0.18
  9
$DIMTP
 40
0.0
  9
$DIMTM
 40
0.0
  9
$DIMTXT
 40
3.0
  9
$DIMCEN
 40
0.09
  9
$DIMTSZ
 40
0.0
  9
$DIMTOL
 70
     0
  9
$DIMLIM
 70
     0
  9
$DIMTIH
 70
     1
  9
$DIMTOH
 70
     1
  9
$DIMSE1
 70
     0
  9
$DIMSE2
 70
     0
  9
$DIMTAD
 70
     0
  9
$DIMZIN
 70
     0
  9
$DIMBLK
  1

  9
$DIMASO
 70
     1
  9
$DIMSHO
 70
     1
  9
$DIMPOST
  1

  9
$DIMAPOST
  1

  9
$DIMALT
 70
     0
  9
$DIMALTD
 70
     2
  9
$DIMALTF
 40
25.399999999999999
  9
$DIMLFAC
 40
1.0
  9
$DIMTOFL
 70
     0
  9
$DIMTVP
 40
0.0
  9
$DIMTIX
 70
     0
  9
$DIMSOXD
 70
     0
  9
$DIMSAH
 70
     0
  9
$DIMBLK1
  1

  9
$DIMBLK2
  1

  9
$DIMSTYLE
  2
STANDARD
  9
$DIMCLRD
 70
     0
  9
$DIMCLRE
 70
     0
  9
$DIMCLRT
 70
     0
  9
$DIMTFAC
 40
1.0
  9
$DIMGAP
 40
0.09
  9
$LUNITS
 70
     2
  9
$LUPREC
 70
     4
  9
$SKETCHINC
 40
0.1
  9
$FILLETRAD
 40
0.0
  9
$AUNITS
 70
     0
  9
$AUPREC
 70
     0
  9
$MENU
  1
E:\r13\win\SUPPORT\ACAD
  9
$ELEVATION
 40
0.0
  9
$PELEVATION
 40
0.0
  9
$THICKNESS
 40
0.0
  9
$LIMCHECK
 70
     0
  9
$BLIPMODE
 70
     0
  9
$CHAMFERA
 40
0.0
  9
$CHAMFERB
 40
0.0
  9
$SKPOLY
 70
     0
  9
$TDCREATE
 40
2450365.4958913201
  9
$TDUPDATE
 40
2456598.677288611
  9
$TDINDWG
 40
0.0013411574
  9
$TDUSRTIMER
 40
0.0013411574
  9
$USRTIMER
 70
     1
  9
$ANGBASE
 50
0.0
  9
$ANGDIR
 70
     0
  9
$PDMODE
 70
     0
  9
$PDSIZE
 40
0.0
  9
$PLINEWID
 40
0.0
  9
$COORDS
 70
     1
  9
$SPLFRAME
 70
     0
  9
$SPLINETYPE
 70
     6
  9
$SPLINESEGS
 70
     8
  9
$ATTDIA
 70
     0
  9
$ATTREQ
 70
     1
  9
$HANDLING
 70
     1
  9
$HANDSEED
  5
386
  9
$SURFTAB1
 70
     6
  9
$SURFTAB2
 70
     6
  9
$SURFTYPE
 70
     6
  9
$SURFU
 70
     6
  9
$SURFV
 70
     6
  9
$UCSNAME
  2

  9
$UCSORG
 10
0.0
 20
0.0
 30
0.0
  9
$UCSXDIR
 10
1.0
 20
0.0
 30
0.0
  9
$UCSYDIR
 10
0.0
 20
1.0
 30
0.0
  9
$PUCSNAME
  2

  9
$PUCSORG
 10
0.0
 20
0.0
 30
0.0
  9
$PUCSXDIR
 10
1.0
 20
0.0
 30
0.0
  9
$PUCSYDIR
 10
0.0
 20
1.0
 30
0.0
  9
$USERI1
 70
     3
  9
$USERI2
 70
     1
  9
$USERI3
 70
     1
  9
$USERI4
 70
     0
  9
$USERI5
 70
     0
  9
$USERR1
 40
1.0
  9
$USERR2
 40
3.0
  9
$USERR3
 40
3.0
  9
$USERR4
 40
3.0
  9
$USERR5
 40
10.0
  9
$WORLDVIEW
 70
     1
  9
$SHADEDGE
 70
     3
  9
$SHADEDIF
 70
    70
  9
$TILEMODE
 70
     1
  9
$MAXACTVP
 70
    16
  9
$PLIMCHECK
 70
     0
  9
$PEXTMIN
 10
1.0000000000000000E+020
 20
1.0000000000000000E+020
 30
1.0000000000000000E+020
  9
$PEXTMAX
 10
-1.0000000000000000E+020
 20
-1.0000000000000000E+020
 30
-1.0000000000000000E+020
  9
$PLIMMIN
 10
0.0
 20
0.0
  9
$PLIMMAX
 10
12.0
 20
9.0
  9
$UNITMODE
 70
     0
  9
$VISRETAIN
 70
     0
  9
$PLINEGEN
 70
     0
  9
$PSLTSCALE
 70
     0
  0
ENDSEC
  0
SECTION
  2
TABLES
  0
TABLE
  2
VPORT
 70
     1
  0
VPORT
  2
*ACTIVE
 70
     0
 10
0.0
 20
0.0
 11
1.0
 21
1.0
 12
192.49412581440311
 22
169.9063198933564
 13
0.0
 23
0.0
 14
5.0
 24
5.0
 15
0.0
 25
0.0
 16
0.0
 26
0.0
 36
1.0
 17
0.0
 27
0.0
 37
0.0
 40
348.89937369551939
 41
1.831871345029239
 42
50.0
 43
0.0
 44
0.0
 50
0.0
 51
0.0
 71
     0
 72
   100
 73
     1
 74
     0
 75
     0
 76
     0
 77
     0
 78
     0
  0
ENDTAB
  0
TABLE
  2
LTYPE
 70
     4
  0
LTYPE
  2
CONTINUOUS
 70
     0
  3
Solid Line
 72
    65
 73
     0
 40
0.0
  0
LTYPE
  2
CENTER
 70
     0
  3
____ _ ____ _ ____ _ ____ _ ____ _ ____ _ ____
 72
    65
 73
     4
 40
2.0
 49
1.25
 49
-0.25
 49
0.25
 49
-0.25
  0
LTYPE
  2
HIDDEN
 70
     0
  3
_ _ _ _ _ _ _ _ _ _ _ _ _ _ _ _ _ _ _ _ _ _ _
 72
    65
 73
     2
 40
0.375
 49
0.25
 49
-0.125
  0
LTYPE
  2
PHANTOM2
 70
     0
  3
___ _ _ ___ _ _ ___ _ _ ___ _ _
 72
    65
 73
     6
 40
1.25
 49
0.625
 49
-0.125
 49
0.125
 49
-0.125
 49
0.125
 49
-0.125
  0
ENDTAB
  0
TABLE
  2
LAYER
 70
     3
  0
LAYER
  2
0
 70
     0
 62
     7
  6
CONTINUOUS
  0
LAYER
  2
1
 70
     0
 62
     1
  6
CENTER
  0
LAYER
  2
2
 70
     0
 62
     2
  6
HIDDEN
  0
ENDTAB
  0
TABLE
  2
STYLE
 70
     2
  0
STYLE
  2
STANDARD
 70
     0
 40
0.0
 41
1.0
 50
0.0
 71
     0
 42
0.2
  3
SIMPLEX
  4
BIGFONT
  0
STYLE
  2
STANDARD1
 70
     0
 40
0.0
 41
1.0
 50
0.0
 71
     0
 42
3.0
  3
txt
  4

  0
ENDTAB
  0
TABLE
  2
VIEW
 70
     0
  0
ENDTAB
  0
TABLE
  2
UCS
 70
     0
  0
ENDTAB
  0
TABLE
  2
APPID
 70
     4
  0
APPID
  2
ACAD
 70
     0
  0
APPID
  2
ACAD_MLEADERVER
 70
     0
  0
APPID
  2
ACAD_EXEMPT_FROM_CAD_STANDARDS
 70
     0
  0
APPID
  2
ACAD_NAV_VCDISPLAY
 70
     0
  0
ENDTAB
  0
TABLE
  2
DIMSTYLE
 70
     1
  0
DIMSTYLE
  2
STANDARD
 70
     0
  3

  4

  5

  6

  7

 40
1.0
 41
0.18
 42
0.0625
 43
0.38
 44
0.18
 45
0.0
 46
0.0
 47
0.0
 48
0.0
140
0.18
141
0.09
142
0.0
143
25.399999999999999
144
1.0
145
0.0
146
1.0
147
0.09
 71
     0
 72
     0
 73
     1
 74
     1
 75
     0
 76
     0
 77
     0
 78
     0
170
     0
171
     2
172
     0
173
     0
174
     0
175
     0
176
     0
177
     0
178
     0
  0
ENDTAB
  0
ENDSEC
  0
SECTION
  2
BLOCKS
  0
BLOCK
  8
0
  2
$MODEL_SPACE
 70
     0
 10
0.0
 20
0.0
 30
0.0
  3
$MODEL_SPACE
  1

  0
ENDBLK
  5
172
  8
0
  0
BLOCK
 67
     1
  8
0
  2
$PAPER_SPACE
 70
     0
 10
0.0
 20
0.0
 30
0.0
  3
$PAPER_SPACE
  1

  0
ENDBLK
  5
170
 67
     1
  8
0
  0
ENDSEC
  0
SECTION
  2
ENTITIES
  0
LINE
  5
28
  8
0
 10
100.4122692188796
 20
25.029959710538609
 30
0.0
 11
100.4122692188796
 21
24.82995971053861
 31
0.0
  0
LINE
  5
2A
  8
0
 10
90.412269218879814
 20
25.029959710538609
 30
0.0
 11
90.412269218879814
 21
24.82995971053861
 31
0.0
  0
LINE
  5
2B
  8
0
 10
90.412269218879786
 20
24.82995971053861
 30
0.0
 11
100.4122692188796
 21
24.82995971053861
 31
0.0
  0
LINE
  5
2C
  8
0
 10
80.432269218879668
 20
52.0023192628177
 30
0.0
 11
110.3922692188797
 21
52.002319262817707
 31
0.0
  0
LINE
  5
2D
  8
0
 10
79.932269218879696
 20
49.512319262817748
 30
0.0
 11
110.8922692188798
 21
49.512319262817748
 31
0.0
  0
LINE
  5
2E
  8
0
 10
86.454269218879716
 20
25.029959710538609
 30
0.0
 11
104.3702692188797
 21
25.029959710538609
 31
0.0
  0
LINE
  5
2F
  8
0
 10
86.383887743667344
 20
109.1975255450464
 30
0.0
 11
87.293399044505577
 21
108.8183021637429
 31
0.0
  0
LINE
  5
30
  8
0
 10
86.383887743667344
 20
84.344523477848014
 30
0.0
 11
87.293399044505577
 21
84.723746859151404
 31
0.0
  0
CIRCLE
  5
31
  8
0
 10
95.412269218879715
 20
96.771024511447195
 30
0.0
 40
11.472
  0
LINE
  5
32
  8
1
 10
76.353366651875916
 20
96.771024511447195
 30
0.0
 11
114.6392708728946
 21
96.771024511447195
 31
0.0
  0
CIRCLE
  5
33
  8
0
 10
95.412269218879715
 20
96.771024511447195
 30
0.0
 40
15.359999999999999
  0
CIRCLE
  5
34
  8
0
 10
95.412269218879715
 20
96.771024511447195
 30
0.0
 40
14.52766160604822
  0
LINE
  5
35
  8
0
 10
80.804041128586192
 20
92.024523477847964
 30
0.0
 11
81.445758445041349
 21
92.772333657667176
 31
0.0
  0
LINE
  5
36
  8
0
 10
85.30633038844573
 20
85.203846793631755
 30
0.0
 11
85.473660543724066
 21
86.174939888249455
 31
0.0
  0
LINE
  5
37
  8
0
 10
85.30633038844573
 20
85.203846793631755
 30
0.0
 11
86.246173585998889
 21
85.500015568644898
 31
0.0
  0
LINE
  5
38
  8
0
 10
86.383887743667344
 20
84.344523477848014
 30
0.0
 11
86.463496163052326
 21
85.326706596641287
 31
0.0
  0
LINE
  5
39
  8
0
 10
81.288322632489411
 20
90.734160025242971
 30
0.0
 11
82.263594909707251
 21
90.593216190435996
 31
0.0
  0
LINE
  5
3A
  8
0
 10
81.886321849560233
 20
89.492401855861857
 30
0.0
 11
82.384199841129259
 21
90.342777469806009
 31
0.0
  0
LINE
  5
3B
  8
0
 10
81.886321849560233
 20
89.492401855861857
 30
0.0
 11
82.870302075261705
 21
89.439448152419658
 31
0.0
  0
LINE
  5
3C
  8
0
 10
80.804041128586192
 20
92.024523477847964
 30
0.0
 11
81.762753138394999
 21
91.796724308560755
 31
0.0
  0
LINE
  5
3D
  8
0
 10
81.288322632489411
 20
90.734160025242971
 30
0.0
 11
81.860423395980433
 21
91.536482837889224
 31
0.0
  0
LINE
  5
3E
  8
0
 10
82.593224041720504
 20
88.309246876342925
 30
0.0
 11
83.012870640526984
 21
89.200828567154048
 31
0.0
  0
LINE
  5
3F
  8
0
 10
82.593224041720504
 20
88.309246876342925
 30
0.0
 11
83.577989785699202
 21
88.344709656349053
 31
0.0
  0
LINE
  5
40
  8
0
 10
83.403337648170776
 20
87.194221154897008
 30
0.0
 11
83.741374106549216
 21
88.119830431042459
 31
0.0
  0
LINE
  5
41
  8
0
 10
83.403337648170776
 20
87.194221154897008
 30
0.0
 11
84.380960155689138
 21
87.317814892898895
 31
0.0
  0
LINE
  5
42
  8
0
 10
84.310140110491034
 20
86.156302223008964
 30
0.0
 11
84.563844757640851
 21
87.108486622846584
 31
0.0
  0
LINE
  5
43
  8
0
 10
84.310140110491034
 20
86.156302223008964
 30
0.0
 11
85.272748139951176
 21
86.367031814899946
 31
0.0
  0
LINE
  5
44
  8
0
 10
80.191280878124303
 20
98.832847474406378
 30
0.0
 11
81.093910879214349
 21
99.228170456804037
 31
0.0
  0
LINE
  5
45
  8
0
 10
80.437376487766954
 20
93.353102965878151
 30
0.0
 11
81.143543626677797
 21
94.040379585007656
 31
0.0
  0
LINE
  5
46
  8
0
 10
80.437376487766954
 20
93.353102965878151
 30
0.0
 11
81.371809244777353
 21
93.040282567077924
 31
0.0
  0
LINE
  5
47
  8
0
 10
80.191280878124303
 20
98.832847474406378
 30
0.0
 11
80.956212196907956
 21
98.211637963191833
 31
0.0
  0
LINE
  5
48
  8
0
 10
80.067735716805146
 20
97.460148305631094
 30
0.0
 11
80.931295515944043
 21
97.934790963417825
 31
0.0
  0
LINE
  5
49
  8
0
 10
80.067735716805146
 20
97.460148305631094
 30
0.0
 11
80.885272438255086
 21
96.910007516050314
 31
0.0
  0
LINE
  5
4A
  8
0
 10
80.067735716805146
 20
96.081900717263238
 30
0.0
 11
80.885272438255086
 21
96.632041506844075
 31
0.0
  0
LINE
  5
4B
  8
0
 10
80.067735716805146
 20
96.081900717263238
 30
0.0
 11
80.931295515943987
 21
95.607258059476536
 31
0.0
  0
LINE
  5
4C
  8
0
 10
80.191280878124303
 20
94.709201548487954
 30
0.0
 11
80.956212196907956
 21
95.330411059702669
 31
0.0
  0
LINE
  5
4D
  8
0
 10
80.191280878124303
 20
94.709201548487954
 30
0.0
 11
81.093910879214349
 21
94.313878566090466
 31
0.0
  0
LINE
  5
4E
  8
0
 10
81.886321849560233
 20
104.0496471670324
 30
0.0
 11
82.870302075261705
 21
104.1026008704747
 31
0.0
  0
LINE
  5
4F
  8
0
 10
81.886321849560233
 20
104.0496471670324
 30
0.0
 11
82.384199841129259
 21
103.19927155308829
 31
0.0
  0
LINE
  5
50
  8
0
 10
81.288322632489496
 20
102.8078889976515
 30
0.0
 11
82.263594909707251
 21
102.94883283245829
 31
0.0
  0
LINE
  5
51
  8
0
 10
81.288322632489496
 20
102.8078889976515
 30
0.0
 11
81.860423395980433
 21
102.00556618500509
 31
0.0
  0
LINE
  5
52
  8
0
 10
80.804041128586192
 20
101.5175255450464
 30
0.0
 11
81.762753138394999
 21
101.74532471433361
 31
0.0
  0
LINE
  5
53
  8
0
 10
80.804041128586192
 20
101.5175255450464
 30
0.0
 11
81.445758445041349
 21
100.7697153652271
 31
0.0
  0
LINE
  5
54
  8
0
 10
80.437376487766954
 20
100.1889460570161
 30
0.0
 11
81.371809244777353
 21
100.50176645581639
 31
0.0
  0
LINE
  5
55
  8
0
 10
80.437376487766954
 20
100.1889460570161
 30
0.0
 11
81.143543626677854
 21
99.501669437886733
 31
0.0
  0
LINE
  5
56
  8
0
 10
82.593224041720504
 20
105.23280214655161
 30
0.0
 11
83.577989785699202
 21
105.19733936654541
 31
0.0
  0
LINE
  5
57
  8
0
 10
82.593224041720504
 20
105.23280214655161
 30
0.0
 11
83.012870640526984
 21
104.3412204557402
 31
0.0
  0
LINE
  5
58
  8
0
 10
86.383887743667344
 20
109.1975255450464
 30
0.0
 11
86.463496163052326
 21
108.215342426253
 31
0.0
  0
LINE
  5
59
  8
0
 10
85.30633038844573
 20
108.33820222926281
 30
0.0
 11
86.246173585998889
 21
108.04203345424951
 31
0.0
  0
LINE
  5
5A
  8
0
 10
85.30633038844573
 20
108.33820222926281
 30
0.0
 11
85.473660543724066
 21
107.36710913464491
 31
0.0
  0
LINE
  5
5B
  8
0
 10
84.310140110491034
 20
107.3857467998854
 30
0.0
 11
84.563844757640851
 21
106.43356240004771
 31
0.0
  0
LINE
  5
5C
  8
0
 10
83.403337648170776
 20
106.3478278679973
 30
0.0
 11
84.380960155689138
 21
106.22423412999559
 31
0.0
  0
LINE
  5
5D
  8
0
 10
83.403337648170776
 20
106.3478278679973
 30
0.0
 11
83.741374106549273
 21
105.4222185918519
 31
0.0
  0
LINE
  5
5E
  8
0
 10
84.310140110491034
 20
107.3857467998854
 30
0.0
 11
85.272748139951176
 21
107.1750172079946
 31
0.0
  0
LINE
  5
5F
  8
0
 10
86.454269218879716
 20
25.029959710538609
 30
0.0
 11
86.310078957065286
 21
41.552527173644187
 31
0.0
  0
LINE
  5
60
  8
0
 10
79.932269218879696
 20
46.170325630539082
 30
0.0
 11
79.932269218879696
 21
51.502319262817757
 31
0.0
  0
LINE
  5
61
  8
0
 10
85.717164654695949
 20
42.318286606276672
 30
0.0
 11
82.155812083572101
 21
43.272548151671913
 31
0.0
  0
ARC
  5
62
  8
0
 10
82.932269218879753
 20
46.170325630539082
 30
0.0
 40
3.0
 50
180.0
 51
254.9999999999998
  0
ARC
  5
63
  8
0
 10
85.510109418613951
 20
41.545545945245522
 30
0.0
 40
0.8000000000000002
 50
0.4999999999999817
 51
75.000000000000327
  0
LINE
  5
64
  8
0
 10
80.632269218879713
 20
49.512319262817748
 30
0.0
 11
80.632269218879713
 21
52.0023192628177
 31
0.0
  0
LINE
  5
65
  8
0
 10
81.352269218879755
 20
49.512319262817748
 30
0.0
 11
81.352269218879755
 21
52.0023192628177
 31
0.0
  0
LINE
  5
66
  8
0
 10
82.112269218879732
 20
49.512319262817748
 30
0.0
 11
82.112269218879732
 21
52.0023192628177
 31
0.0
  0
LINE
  5
67
  8
0
 10
80.432269218879753
 20
52.0023192628177
 30
0.0
 11
79.932269218879696
 21
51.502319262817757
 31
0.0
  0
LINE
  5
68
  8
0
 10
85.432269218879753
 20
49.512319262817748
 30
0.0
 11
85.432269218879753
 21
52.0023192628177
 31
0.0
  0
LINE
  5
69
  8
0
 10
86.352269218879755
 20
49.512319262817748
 30
0.0
 11
86.352269218879755
 21
52.0023192628177
 31
0.0
  0
LINE
  5
6A
  8
0
 10
82.892269218879704
 20
49.512319262817748
 30
0.0
 11
82.892269218879704
 21
52.0023192628177
 31
0.0
  0
LINE
  5
6B
  8
0
 10
83.702269218879735
 20
49.512319262817748
 30
0.0
 11
83.702269218879735
 21
52.0023192628177
 31
0.0
  0
LINE
  5
6C
  8
0
 10
84.552269218879729
 20
49.512319262817748
 30
0.0
 11
84.552269218879729
 21
52.0023192628177
 31
0.0
  0
LINE
  5
6D
  8
1
 10
95.412269218879715
 20
77.854399499392542
 30
0.0
 11
95.412269218879715
 21
115.62856913018859
 31
0.0
  0
LINE
  5
6E
  8
0
 10
95.412269218879715
 20
81.411024511447167
 30
0.0
 11
95.925177406979316
 21
82.252420001012041
 31
0.0
  0
LINE
  5
6F
  8
0
 10
91.325943270975614
 20
81.964554971158904
 30
0.0
 11
91.055361028618648
 21
82.912081450683758
 31
0.0
  0
LINE
  5
70
  8
0
 10
90.015151920990334
 20
82.390456898420865
 30
0.0
 11
89.830594581983519
 21
83.358423720113677
 31
0.0
  0
LINE
  5
71
  8
0
 10
90.015151920990334
 20
82.390456898420865
 30
0.0
 11
90.790999644254498
 21
82.997977671387019
 31
0.0
  0
LINE
  5
72
  8
0
 10
87.534136317925004
 20
83.585251041722557
 30
0.0
 11
87.525382041232817
 21
84.570616223733481
 31
0.0
  0
LINE
  5
73
  8
0
 10
87.534136317925004
 20
83.585251041722557
 30
0.0
 11
88.405992871838038
 21
84.044475745629683
 31
0.0
  0
LINE
  5
74
  8
0
 10
88.747814986034086
 20
82.932142700466073
 30
0.0
 11
88.650768497553145
 21
83.912756364634191
 31
0.0
  0
LINE
  5
75
  8
0
 10
88.747814986034086
 20
82.932142700466073
 30
0.0
 11
89.574997116693027
 21
83.467671319680775
 31
0.0
  0
LINE
  5
76
  8
0
 10
94.035409434122982
 20
81.472859355680356
 30
0.0
 11
94.621674914848896
 21
82.264890898858283
 31
0.0
  0
LINE
  5
77
  8
0
 10
95.412269218879715
 20
81.411024511447167
 30
0.0
 11
94.899361030780199
 21
82.252420001012041
 31
0.0
  0
LINE
  5
78
  8
0
 10
91.325943270975614
 20
81.964554971158904
 30
0.0
 11
92.044209917168274
 21
82.639176497829084
 31
0.0
  0
LINE
  5
79
  8
0
 10
92.669635314772705
 20
81.657866030572308
 30
0.0
 11
92.315206738181217
 21
82.57732324185244
 31
0.0
  0
LINE
  5
7A
  8
0
 10
92.669635314772705
 20
81.657866030572308
 30
0.0
 11
93.324537823192614
 21
82.394156655084629
 31
0.0
  0
LINE
  5
7B
  8
0
 10
94.035409434122982
 20
81.472859355680356
 30
0.0
 11
93.599988173795168
 21
82.356844369882623
 31
0.0
  0
LINE
  5
7C
  8
0
 10
99.4985951667839
 20
81.964554971158904
 30
0.0
 11
98.78032852059124
 21
82.639176497829084
 31
0.0
  0
LINE
  5
7D
  8
0
 10
99.4985951667839
 20
81.964554971158904
 30
0.0
 11
99.769177409140866
 21
82.912081450683758
 31
0.0
  0
LINE
  5
7E
  8
0
 10
96.789129003636447
 20
81.472859355680356
 30
0.0
 11
96.202863522910576
 21
82.264890898858283
 31
0.0
  0
LINE
  5
7F
  8
0
 10
96.789129003636447
 20
81.472859355680356
 30
0.0
 11
97.224550263964304
 21
82.356844369882623
 31
0.0
  0
LINE
  5
80
  8
0
 10
98.154903122986809
 20
81.657866030572308
 30
0.0
 11
97.500000614566858
 21
82.394156655084743
 31
0.0
  0
LINE
  5
81
  8
0
 10
98.154903122986809
 20
81.657866030572308
 30
0.0
 11
98.509331699578254
 21
82.57732324185244
 31
0.0
  0
LINE
  5
82
  8
0
 10
103.2904021198344
 20
83.585251041722557
 30
0.0
 11
103.2991563965266
 21
84.570616223733481
 31
0.0
  0
LINE
  5
83
  8
0
 10
104.4406506940921
 20
84.344523477848014
 30
0.0
 11
103.5311393932538
 21
84.723746859151404
 31
0.0
  0
LINE
  5
84
  8
0
 10
104.4406506940921
 20
84.344523477848014
 30
0.0
 11
104.3610422747071
 21
85.326706596641287
 31
0.0
  0
LINE
  5
85
  8
0
 10
100.8093865167691
 20
82.390456898420865
 30
0.0
 11
100.033538793505
 21
82.997977671387019
 31
0.0
  0
LINE
  5
86
  8
0
 10
100.8093865167691
 20
82.390456898420865
 30
0.0
 11
100.9939438557759
 21
83.358423720113677
 31
0.0
  0
LINE
  5
87
  8
0
 10
102.0767234517254
 20
82.932142700466073
 30
0.0
 11
101.2495413210664
 21
83.467671319680775
 31
0.0
  0
LINE
  5
88
  8
0
 10
102.0767234517254
 20
82.932142700466073
 30
0.0
 11
102.1737699402063
 21
83.912756364634191
 31
0.0
  0
LINE
  5
89
  8
0
 10
103.2904021198344
 20
83.585251041722557
 30
0.0
 11
102.41854556592141
 21
84.044475745629683
 31
0.0
  0
CIRCLE
  5
8A
  8
0
 10
95.412269218879715
 20
96.771024511447195
 30
0.0
 40
1.25
  0
LINE
  5
8B
  8
0
 10
110.02049730917329
 20
92.024523477847964
 30
0.0
 11
109.37877999271809
 21
92.772333657667176
 31
0.0
  0
LINE
  5
8C
  8
0
 10
105.5182080493137
 20
85.203846793631755
 30
0.0
 11
105.35087789403541
 21
86.174939888249455
 31
0.0
  0
LINE
  5
8D
  8
0
 10
105.5182080493137
 20
85.203846793631755
 30
0.0
 11
104.5783648517606
 21
85.500015568644898
 31
0.0
  0
LINE
  5
8E
  8
0
 10
108.9382165881992
 20
89.492401855862084
 30
0.0
 11
107.9542363624978
 21
89.439448152419658
 31
0.0
  0
LINE
  5
8F
  8
0
 10
108.9382165881992
 20
89.492401855862084
 30
0.0
 11
108.4403385966302
 21
90.342777469806009
 31
0.0
  0
LINE
  5
90
  8
0
 10
109.53621580527
 20
90.734160025242971
 30
0.0
 11
108.56094352805221
 21
90.593216190435996
 31
0.0
  0
LINE
  5
91
  8
0
 10
108.2313143960389
 20
88.309246876342925
 30
0.0
 11
107.2465486520602
 21
88.344709656349053
 31
0.0
  0
LINE
  5
92
  8
0
 10
108.2313143960389
 20
88.309246876342925
 30
0.0
 11
107.8116677972325
 21
89.200828567154275
 31
0.0
  0
LINE
  5
93
  8
0
 10
106.51439832726849
 20
86.156302223008964
 30
0.0
 11
105.5517902978083
 21
86.367031814899946
 31
0.0
  0
LINE
  5
94
  8
0
 10
106.51439832726849
 20
86.156302223008964
 30
0.0
 11
106.26069368011861
 21
87.108486622846584
 31
0.0
  0
LINE
  5
95
  8
0
 10
107.4212007895886
 20
87.194221154897008
 30
0.0
 11
106.44357828207031
 21
87.317814892898895
 31
0.0
  0
LINE
  5
96
  8
0
 10
107.4212007895886
 20
87.194221154897008
 30
0.0
 11
107.0831643312102
 21
88.119830431042573
 31
0.0
  0
LINE
  5
97
  8
0
 10
109.53621580527
 20
90.734160025242971
 30
0.0
 11
108.964115041779
 21
91.536482837889224
 31
0.0
  0
LINE
  5
98
  8
0
 10
110.02049730917329
 20
92.024523477847964
 30
0.0
 11
109.0617852993645
 21
91.796724308560755
 31
0.0
  0
LINE
  5
99
  8
0
 10
110.6332575596352
 20
98.832847474406378
 30
0.0
 11
109.73062755854509
 21
99.228170456804037
 31
0.0
  0
LINE
  5
9A
  8
0
 10
110.3871619499925
 20
93.353102965878151
 30
0.0
 11
109.4527291929821
 21
93.040282567077924
 31
0.0
  0
LINE
  5
9B
  8
0
 10
110.3871619499925
 20
93.353102965878151
 30
0.0
 11
109.6809948110816
 21
94.040379585007656
 31
0.0
  0
LINE
  5
9C
  8
0
 10
110.6332575596352
 20
94.709201548487954
 30
0.0
 11
109.73062755854509
 21
94.313878566090466
 31
0.0
  0
LINE
  5
9D
  8
0
 10
110.6332575596352
 20
94.709201548487954
 30
0.0
 11
109.8683262408515
 21
95.330411059702669
 31
0.0
  0
LINE
  5
9E
  8
0
 10
110.7568027209543
 20
96.081900717263238
 30
0.0
 11
109.8932429218155
 21
95.607258059476536
 31
0.0
  0
LINE
  5
9F
  8
0
 10
110.7568027209543
 20
96.081900717263238
 30
0.0
 11
109.9392659995044
 21
96.632041506844075
 31
0.0
  0
LINE
  5
A0
  8
0
 10
110.7568027209543
 20
97.460148305631094
 30
0.0
 11
109.9392659995044
 21
96.910007516050314
 31
0.0
  0
LINE
  5
A1
  8
0
 10
110.7568027209543
 20
97.460148305631094
 30
0.0
 11
109.8932429218155
 21
97.934790963417825
 31
0.0
  0
LINE
  5
A2
  8
0
 10
110.6332575596352
 20
98.832847474406378
 30
0.0
 11
109.8683262408515
 21
98.211637963191833
 31
0.0
  0
LINE
  5
A3
  8
0
 10
109.53621580527
 20
102.8078889976515
 30
0.0
 11
108.56094352805221
 21
102.94883283245829
 31
0.0
  0
LINE
  5
A4
  8
0
 10
108.9382165881992
 20
104.0496471670324
 30
0.0
 11
108.4403385966302
 21
103.19927155308829
 31
0.0
  0
LINE
  5
A5
  8
0
 10
108.9382165881992
 20
104.0496471670324
 30
0.0
 11
107.9542363624978
 21
104.1026008704747
 31
0.0
  0
LINE
  5
A6
  8
0
 10
108.2313143960389
 20
105.23280214655161
 30
0.0
 11
107.8116677972325
 21
104.3412204557402
 31
0.0
  0
LINE
  5
A7
  8
0
 10
108.2313143960389
 20
105.23280214655161
 30
0.0
 11
107.2465486520602
 21
105.19733936654541
 31
0.0
  0
LINE
  5
A8
  8
0
 10
110.3871619499925
 20
100.1889460570161
 30
0.0
 11
109.6809948110816
 21
99.501669437886733
 31
0.0
  0
LINE
  5
A9
  8
0
 10
110.3871619499925
 20
100.1889460570161
 30
0.0
 11
109.4527291929821
 21
100.50176645581639
 31
0.0
  0
LINE
  5
AA
  8
0
 10
110.02049730917319
 20
101.5175255450464
 30
0.0
 11
109.37877999271809
 21
100.7697153652271
 31
0.0
  0
LINE
  5
AB
  8
0
 10
110.02049730917319
 20
101.5175255450464
 30
0.0
 11
109.0617852993645
 21
101.74532471433361
 31
0.0
  0
LINE
  5
AC
  8
0
 10
109.53621580527
 20
102.8078889976515
 30
0.0
 11
108.964115041779
 21
102.00556618500509
 31
0.0
  0
LINE
  5
AD
  8
0
 10
95.412269218879715
 20
112.13102451144719
 30
0.0
 11
95.925177406979316
 21
111.28962902188231
 31
0.0
  0
LINE
  5
AE
  8
0
 10
95.412269218879715
 20
112.13102451144719
 30
0.0
 11
94.899361030780199
 21
111.28962902188231
 31
0.0
  0
LINE
  5
AF
  8
0
 10
94.035409434122982
 20
112.069189667214
 30
0.0
 11
94.621674914848896
 21
111.27715812403611
 31
0.0
  0
LINE
  5
B0
  8
0
 10
94.035409434122982
 20
112.069189667214
 30
0.0
 11
93.599988173795225
 21
111.18520465301179
 31
0.0
  0
LINE
  5
B1
  8
0
 10
92.669635314772705
 20
111.8841829923221
 30
0.0
 11
93.324537823192657
 21
111.1478923678098
 31
0.0
  0
LINE
  5
B2
  8
0
 10
92.669635314772705
 20
111.8841829923221
 30
0.0
 11
92.315206738181274
 21
110.96472578104211
 31
0.0
  0
LINE
  5
B3
  8
0
 10
91.325943270975614
 20
111.5774940517354
 30
0.0
 11
91.055361028618648
 21
110.6299675722107
 31
0.0
  0
LINE
  5
B4
  8
0
 10
90.015151920990334
 20
111.1515921244735
 30
0.0
 11
90.790999644254498
 21
110.5440713515074
 31
0.0
  0
LINE
  5
B5
  8
0
 10
90.015151920990334
 20
111.1515921244735
 30
0.0
 11
89.830594581983519
 21
110.1836253027807
 31
0.0
  0
LINE
  5
B6
  8
0
 10
88.747814986034086
 20
110.6099063224283
 30
0.0
 11
88.650768497553145
 21
109.6292926582603
 31
0.0
  0
LINE
  5
B7
  8
0
 10
87.534136317925004
 20
109.9567979811719
 30
0.0
 11
88.405992871838038
 21
109.49757327726471
 31
0.0
  0
LINE
  5
B8
  8
0
 10
87.534136317925004
 20
109.9567979811719
 30
0.0
 11
87.525382041232817
 21
108.97143279916099
 31
0.0
  0
LINE
  5
B9
  8
0
 10
88.747814986034086
 20
110.6099063224283
 30
0.0
 11
89.574997116693027
 21
110.0743777032136
 31
0.0
  0
LINE
  5
BA
  8
0
 10
91.325943270975614
 20
111.5774940517354
 30
0.0
 11
92.044209917168274
 21
110.9028725250654
 31
0.0
  0
LINE
  5
BB
  8
0
 10
98.154903122986809
 20
111.8841829923221
 30
0.0
 11
97.500000614566858
 21
111.1478923678098
 31
0.0
  0
LINE
  5
BC
  8
0
 10
96.789129003636447
 20
112.069189667214
 30
0.0
 11
97.224550263964304
 21
111.18520465301179
 31
0.0
  0
LINE
  5
BD
  8
0
 10
96.789129003636447
 20
112.069189667214
 30
0.0
 11
96.202863522910576
 21
111.27715812403611
 31
0.0
  0
LINE
  5
BE
  8
0
 10
98.154903122986809
 20
111.8841829923221
 30
0.0
 11
98.509331699578254
 21
110.96472578104211
 31
0.0
  0
LINE
  5
BF
  8
0
 10
99.498595166783844
 20
111.5774940517354
 30
0.0
 11
99.769177409140781
 21
110.6299675722107
 31
0.0
  0
LINE
  5
C0
  8
0
 10
99.498595166783844
 20
111.5774940517354
 30
0.0
 11
98.78032852059124
 21
110.9028725250654
 31
0.0
  0
LINE
  5
C1
  8
0
 10
104.4406506940921
 20
109.1975255450464
 30
0.0
 11
104.3610422747071
 21
108.215342426253
 31
0.0
  0
LINE
  5
C2
  8
0
 10
104.4406506940921
 20
109.1975255450464
 30
0.0
 11
103.5311393932538
 21
108.8183021637429
 31
0.0
  0
LINE
  5
C3
  8
0
 10
103.2904021198344
 20
109.9567979811718
 30
0.0
 11
103.2991563965266
 21
108.97143279916099
 31
0.0
  0
LINE
  5
C4
  8
0
 10
102.0767234517254
 20
110.6099063224283
 30
0.0
 11
102.1737699402063
 21
109.6292926582603
 31
0.0
  0
LINE
  5
C5
  8
0
 10
102.0767234517254
 20
110.6099063224283
 30
0.0
 11
101.2495413210664
 21
110.0743777032136
 31
0.0
  0
LINE
  5
C6
  8
0
 10
100.8093865167691
 20
111.1515921244735
 30
0.0
 11
100.9939438557759
 21
110.1836253027807
 31
0.0
  0
LINE
  5
C7
  8
0
 10
100.8093865167691
 20
111.1515921244735
 30
0.0
 11
100.033538793505
 21
110.5440713515074
 31
0.0
  0
LINE
  5
C8
  8
0
 10
103.2904021198344
 20
109.9567979811718
 30
0.0
 11
102.41854556592141
 21
109.49757327726471
 31
0.0
  0
LINE
  5
C9
  8
0
 10
106.51439832726849
 20
107.3857467998854
 30
0.0
 11
106.26069368011861
 21
106.43356240004771
 31
0.0
  0
LINE
  5
CA
  8
0
 10
106.51439832726849
 20
107.3857467998854
 30
0.0
 11
105.5517902978083
 21
107.1750172079946
 31
0.0
  0
LINE
  5
CB
  8
0
 10
105.5182080493137
 20
108.33820222926261
 30
0.0
 11
105.35087789403541
 21
107.36710913464491
 31
0.0
  0
LINE
  5
CC
  8
0
 10
105.5182080493137
 20
108.33820222926261
 30
0.0
 11
104.5783648517606
 21
108.04203345424951
 31
0.0
  0
LINE
  5
CD
  8
0
 10
107.4212007895886
 20
106.3478278679973
 30
0.0
 11
107.0831643312102
 21
105.4222185918519
 31
0.0
  0
LINE
  5
CE
  8
0
 10
107.4212007895886
 20
106.3478278679973
 30
0.0
 11
106.44357828207031
 21
106.22423412999559
 31
0.0
  0
LINE
  5
CF
  8
1
 10
95.412269218879715
 20
21.041304753740459
 30
0.0
 11
95.412269218879715
 21
56.496789335876649
 31
0.0
  0
LINE
  5
D0
  8
0
 10
104.3702692188797
 20
25.029959710538609
 30
0.0
 11
104.5144594806941
 21
41.552527173644187
 31
0.0
  0
LINE
  5
D1
  8
2
 10
100.4122692188797
 20
25.029959710538609
 30
0.0
 11
100.4122692188797
 21
45.029959710538598
 31
0.0
  0
LINE
  5
D2
  8
2
 10
99.178033960478075
 20
24.82995971053861
 30
0.0
 11
99.178033960478047
 21
40.029959710538598
 31
0.0
  0
LINE
  5
D3
  8
2
 10
98.530930245795247
 20
24.82995971053861
 30
0.0
 11
98.530930245795275
 21
42.440782342665777
 31
0.0
  0
ARC
  5
D5
  8
0
 10
105.31442901914539
 20
41.545545945245522
 30
0.0
 40
0.8000000000000002
 50
104.9999999999997
 51
179.5
  0
ARC
  5
D7
  8
2
 10
95.412269218879715
 20
80.552840096150476
 30
0.0
 40
30.95052083333287
 50
270.0
 51
292.71205443662001
  0
LINE
  5
D9
  8
2
 10
99.178033960478047
 20
40.029959710538598
 30
0.0
 11
95.412269218879715
 21
40.029959710538598
 31
0.0
  0
LINE
  5
DA
  8
2
 10
98.530930245795247
 20
42.440782342665777
 30
0.0
 11
95.412269218879715
 21
44.241342126066741
 31
0.0
  0
LINE
  5
DB
  8
2
 10
98.530930245795247
 20
42.440782342665777
 30
0.0
 11
92.293608191964182
 21
42.440782342665777
 31
0.0
  0
LINE
  5
DD
  8
2
 10
99.412269218879715
 20
46.029959710538549
 30
0.0
 11
100.4122692188797
 21
45.029959710538598
 31
0.0
  0
LINE
  5
DE
  8
0
 10
89.322269218879725
 20
49.512319262817748
 30
0.0
 11
89.322269218879725
 21
52.0023192628177
 31
0.0
  0
LINE
  5
DF
  8
0
 10
90.402269218879766
 20
49.512319262817748
 30
0.0
 11
90.402269218879766
 21
52.0023192628177
 31
0.0
  0
LINE
  5
E0
  8
0
 10
87.302269218879744
 20
49.512319262817748
 30
0.0
 11
87.302269218879744
 21
52.0023192628177
 31
0.0
  0
LINE
  5
E1
  8
0
 10
88.292269218879682
 20
49.512319262817748
 30
0.0
 11
88.292269218879682
 21
52.0023192628177
 31
0.0
  0
LINE
  5
E2
  8
0
 10
93.942269218879744
 20
49.512319262817748
 30
0.0
 11
93.942269218879744
 21
52.0023192628177
 31
0.0
  0
LINE
  5
E3
  8
0
 10
95.072269218879754
 20
49.512319262817748
 30
0.0
 11
95.072269218879754
 21
52.0023192628177
 31
0.0
  0
LINE
  5
E4
  8
0
 10
91.532269218879748
 20
49.512319262817748
 30
0.0
 11
91.532269218879748
 21
52.0023192628177
 31
0.0
  0
LINE
  5
E5
  8
0
 10
92.732269218879708
 20
49.512319262817748
 30
0.0
 11
92.732269218879708
 21
52.0023192628177
 31
0.0
  0
LINE
  5
E6
  8
0
 10
110.8922692188798
 20
46.170325630539082
 30
0.0
 11
110.8922692188797
 21
51.502319262817757
 31
0.0
  0
ARC
  5
E7
  8
0
 10
107.8922692188797
 20
46.170325630539082
 30
0.0
 40
3.0
 50
284.99999999999937
 51
0.0000000000002163
  0
LINE
  5
E8
  8
0
 10
105.10737378306339
 20
42.318286606276672
 30
0.0
 11
108.6687263541873
 21
43.272548151671913
 31
0.0
  0
LINE
  5
E9
  8
0
 10
110.3922692188797
 20
52.0023192628177
 30
0.0
 11
110.8922692188797
 21
51.502319262817757
 31
0.0
  0
LINE
  5
EA
  8
2
 10
91.646504477281468
 20
24.82995971053861
 30
0.0
 11
91.646504477281468
 21
40.029959710538598
 31
0.0
  0
LINE
  5
EB
  8
2
 10
92.293608191964182
 20
24.82995971053861
 30
0.0
 11
92.293608191964168
 21
42.440782342665777
 31
0.0
  0
LINE
  5
EC
  8
2
 10
90.412269218879814
 20
25.029959710538609
 30
0.0
 11
90.412269218879715
 21
45.029959710538598
 31
0.0
  0
LINE
  5
EE
  8
2
 10
92.293608191964182
 20
42.440782342665777
 30
0.0
 11
95.412269218879715
 21
44.241342126066741
 31
0.0
  0
LINE
  5
EF
  8
2
 10
91.646504477281468
 20
40.029959710538598
 30
0.0
 11
95.412269218879715
 21
40.029959710538598
 31
0.0
  0
LINE
  5
F0
  8
2
 10
91.412269218879743
 20
46.029959710538549
 30
0.0
 11
99.412269218879715
 21
46.029959710538549
 31
0.0
  0
LINE
  5
F2
  8
2
 10
91.412269218879743
 20
46.029959710538549
 30
0.0
 11
90.412269218879715
 21
45.029959710538598
 31
0.0
  0
LINE
  5
F4
  8
0
 10
110.1922692188797
 20
49.512319262817748
 30
0.0
 11
110.1922692188797
 21
52.0023192628177
 31
0.0
  0
LINE
  5
F5
  8
0
 10
109.4722692188798
 20
49.512319262817748
 30
0.0
 11
109.4722692188798
 21
52.0023192628177
 31
0.0
  0
LINE
  5
F6
  8
0
 10
108.7122692188797
 20
49.512319262817748
 30
0.0
 11
108.7122692188797
 21
52.0023192628177
 31
0.0
  0
LINE
  5
F7
  8
0
 10
105.3922692188797
 20
49.512319262817748
 30
0.0
 11
105.3922692188797
 21
52.0023192628177
 31
0.0
  0
LINE
  5
F8
  8
0
 10
104.4722692188797
 20
49.512319262817748
 30
0.0
 11
104.4722692188797
 21
52.0023192628177
 31
0.0
  0
LINE
  5
F9
  8
0
 10
107.9322692188797
 20
49.512319262817748
 30
0.0
 11
107.9322692188797
 21
52.0023192628177
 31
0.0
  0
LINE
  5
FA
  8
0
 10
107.12226921887969
 20
49.512319262817748
 30
0.0
 11
107.12226921887969
 21
52.0023192628177
 31
0.0
  0
LINE
  5
FB
  8
0
 10
106.2722692188798
 20
49.512319262817748
 30
0.0
 11
106.2722692188798
 21
52.0023192628177
 31
0.0
  0
LINE
  5
FC
  8
0
 10
101.5022692188797
 20
49.512319262817748
 30
0.0
 11
101.5022692188797
 21
52.0023192628177
 31
0.0
  0
LINE
  5
FD
  8
0
 10
100.42226921887971
 20
49.512319262817748
 30
0.0
 11
100.42226921887971
 21
52.0023192628177
 31
0.0
  0
LINE
  5
FE
  8
0
 10
103.5222692188797
 20
49.512319262817748
 30
0.0
 11
103.5222692188797
 21
52.0023192628177
 31
0.0
  0
LINE
  5
FF
  8
0
 10
102.5322692188797
 20
49.512319262817748
 30
0.0
 11
102.5322692188797
 21
52.0023192628177
 31
0.0
  0
LINE
  5
100
  8
0
 10
99.292269218879767
 20
49.512319262817748
 30
0.0
 11
99.292269218879767
 21
52.0023192628177
 31
0.0
  0
LINE
  5
101
  8
0
 10
96.88226921887977
 20
49.512319262817748
 30
0.0
 11
96.88226921887977
 21
52.0023192628177
 31
0.0
  0
LINE
  5
102
  8
0
 10
98.092269218879807
 20
49.512319262817748
 30
0.0
 11
98.092269218879807
 21
52.0023192628177
 31
0.0
  0
LINE
  5
103
  8
0
 10
95.752269218879775
 20
49.512319262817748
 30
0.0
 11
95.752269218879775
 21
52.0023192628177
 31
0.0
  0
ARC
  5
104
  8
2
 10
95.412269218879715
 20
80.552840096150476
 30
0.0
 40
30.95052083333287
 50
247.28794556338011
 51
270.0
  0
LINE
  5
105
  8
0
 10
86.142661077609006
 20
42.03531976927308
 30
0.0
 11
104.68187736015039
 21
42.03531976927308
 31
0.0
  0
CIRCLE
  5
106
  8
0
 10
99.412269218879715
 20
96.771024511447195
 30
0.0
 40
1.25
  0
CIRCLE
  5
107
  8
0
 10
103.4122692188798
 20
96.771024511447195
 30
0.0
 40
1.25
  0
CIRCLE
  5
108
  8
0
 10
91.412269218879743
 20
96.771024511447195
 30
0.0
 40
1.25
  0
CIRCLE
  5
109
  8
0
 10
87.412269218879743
 20
96.771024511447195
 30
0.0
 40
1.25
  0
TEXT
  5
323
  8
0
 62
     3
 10
0.0
 20
0.0
 30
0.0
 40
10.0
  1
EKK31-OG
  7
STANDARD1
  0
ENDSEC
  0
EOF
