  0
SECTION
  2
HEADER
  9
$ACADVER
  1
AC1009
  9
$INSBASE
 10
0.0
 20
0.0
 30
0.0
  9
$EXTMIN
 10
0.0
 20
-2.960436562073669
 30
0.0
  9
$EXTMAX
 10
79.195088676671219
 20
109.8514493156011
 30
0.0
  9
$LIMMIN
 10
0.0
 20
0.0
  9
$LIMMAX
 10
385.0
 20
270.0
  9
$ORTHOMODE
 70
     1
  9
$REGENMODE
 70
     1
  9
$FILLMODE
 70
     1
  9
$QTEXTMODE
 70
     0
  9
$MIRRTEXT
 70
     0
  9
$DRAGMODE
 70
     2
  9
$LTSCALE
 40
10.0
  9
$OSMODE
 70
  3071
  9
$ATTMODE
 70
     1
  9
$TEXTSIZE
 40
0.2
  9
$TRACEWID
 40
0.05
  9
$TEXTSTYLE
  7
STANDARD
  9
$CLAYER
  8
0
  9
$CELTYPE
  6
BYLAYER
  9
$CECOLOR
 62
   256
  9
$DIMSCALE
 40
1.0
  9
$DIMASZ
 40
3.0
  9
$DIMEXO
 40
0.0625
  9
$DIMDLI
 40
0.38
  9
$DIMRND
 40
0.0
  9
$DIMDLE
 40
0.0
  9
$DIMEXE
 40
0.18
  9
$DIMTP
 40
0.0
  9
$DIMTM
 40
0.0
  9
$DIMTXT
 40
3.0
  9
$DIMCEN
 40
0.09
  9
$DIMTSZ
 40
0.0
  9
$DIMTOL
 70
     0
  9
$DIMLIM
 70
     0
  9
$DIMTIH
 70
     1
  9
$DIMTOH
 70
     1
  9
$DIMSE1
 70
     0
  9
$DIMSE2
 70
     0
  9
$DIMTAD
 70
     0
  9
$DIMZIN
 70
     0
  9
$DIMBLK
  1

  9
$DIMASO
 70
     1
  9
$DIMSHO
 70
     1
  9
$DIMPOST
  1

  9
$DIMAPOST
  1

  9
$DIMALT
 70
     0
  9
$DIMALTD
 70
     2
  9
$DIMALTF
 40
25.399999999999999
  9
$DIMLFAC
 40
1.0
  9
$DIMTOFL
 70
     0
  9
$DIMTVP
 40
0.0
  9
$DIMTIX
 70
     0
  9
$DIMSOXD
 70
     0
  9
$DIMSAH
 70
     0
  9
$DIMBLK1
  1

  9
$DIMBLK2
  1

  9
$DIMSTYLE
  2
STANDARD
  9
$DIMCLRD
 70
     0
  9
$DIMCLRE
 70
     0
  9
$DIMCLRT
 70
     0
  9
$DIMTFAC
 40
1.0
  9
$DIMGAP
 40
0.09
  9
$LUNITS
 70
     2
  9
$LUPREC
 70
     4
  9
$SKETCHINC
 40
0.1
  9
$FILLETRAD
 40
0.0
  9
$AUNITS
 70
     0
  9
$AUPREC
 70
     0
  9
$MENU
  1
E:\r13\win\SUPPORT\ACAD
  9
$ELEVATION
 40
0.0
  9
$PELEVATION
 40
0.0
  9
$THICKNESS
 40
0.0
  9
$LIMCHECK
 70
     0
  9
$BLIPMODE
 70
     0
  9
$CHAMFERA
 40
0.0
  9
$CHAMFERB
 40
0.0
  9
$SKPOLY
 70
     0
  9
$TDCREATE
 40
2450365.4892940968
  9
$TDUPDATE
 40
2456598.6769219209
  9
$TDINDWG
 40
0.0015710532
  9
$TDUSRTIMER
 40
0.0015710532
  9
$USRTIMER
 70
     1
  9
$ANGBASE
 50
0.0
  9
$ANGDIR
 70
     0
  9
$PDMODE
 70
     0
  9
$PDSIZE
 40
0.0
  9
$PLINEWID
 40
0.0
  9
$COORDS
 70
     1
  9
$SPLFRAME
 70
     0
  9
$SPLINETYPE
 70
     6
  9
$SPLINESEGS
 70
     8
  9
$ATTDIA
 70
     0
  9
$ATTREQ
 70
     1
  9
$HANDLING
 70
     1
  9
$HANDSEED
  5
348
  9
$SURFTAB1
 70
     6
  9
$SURFTAB2
 70
     6
  9
$SURFTYPE
 70
     6
  9
$SURFU
 70
     6
  9
$SURFV
 70
     6
  9
$UCSNAME
  2

  9
$UCSORG
 10
0.0
 20
0.0
 30
0.0
  9
$UCSXDIR
 10
1.0
 20
0.0
 30
0.0
  9
$UCSYDIR
 10
0.0
 20
1.0
 30
0.0
  9
$PUCSNAME
  2

  9
$PUCSORG
 10
0.0
 20
0.0
 30
0.0
  9
$PUCSXDIR
 10
1.0
 20
0.0
 30
0.0
  9
$PUCSYDIR
 10
0.0
 20
1.0
 30
0.0
  9
$USERI1
 70
     3
  9
$USERI2
 70
     1
  9
$USERI3
 70
     1
  9
$USERI4
 70
     0
  9
$USERI5
 70
     0
  9
$USERR1
 40
1.0
  9
$USERR2
 40
3.0
  9
$USERR3
 40
3.0
  9
$USERR4
 40
3.0
  9
$USERR5
 40
10.0
  9
$WORLDVIEW
 70
     1
  9
$SHADEDGE
 70
     3
  9
$SHADEDIF
 70
    70
  9
$TILEMODE
 70
     1
  9
$MAXACTVP
 70
    16
  9
$PLIMCHECK
 70
     0
  9
$PEXTMIN
 10
1.0000000000000000E+020
 20
1.0000000000000000E+020
 30
1.0000000000000000E+020
  9
$PEXTMAX
 10
-1.0000000000000000E+020
 20
-1.0000000000000000E+020
 30
-1.0000000000000000E+020
  9
$PLIMMIN
 10
0.0
 20
0.0
  9
$PLIMMAX
 10
12.0
 20
9.0
  9
$UNITMODE
 70
     0
  9
$VISRETAIN
 70
     0
  9
$PLINEGEN
 70
     0
  9
$PSLTSCALE
 70
     0
  0
ENDSEC
  0
SECTION
  2
TABLES
  0
TABLE
  2
VPORT
 70
     1
  0
VPORT
  2
*ACTIVE
 70
     0
 10
0.0
 20
0.0
 11
1.0
 21
1.0
 12
192.49412581440311
 22
169.9063198933564
 13
0.0
 23
0.0
 14
5.0
 24
5.0
 15
0.0
 25
0.0
 16
0.0
 26
0.0
 36
1.0
 17
0.0
 27
0.0
 37
0.0
 40
348.89937369551939
 41
1.831871345029239
 42
50.0
 43
0.0
 44
0.0
 50
0.0
 51
0.0
 71
     0
 72
   100
 73
     1
 74
     0
 75
     0
 76
     0
 77
     0
 78
     0
  0
ENDTAB
  0
TABLE
  2
LTYPE
 70
     4
  0
LTYPE
  2
CONTINUOUS
 70
     0
  3
Solid Line
 72
    65
 73
     0
 40
0.0
  0
LTYPE
  2
CENTER
 70
     0
  3
____ _ ____ _ ____ _ ____ _ ____ _ ____ _ ____
 72
    65
 73
     4
 40
2.0
 49
1.25
 49
-0.25
 49
0.25
 49
-0.25
  0
LTYPE
  2
HIDDEN
 70
     0
  3
_ _ _ _ _ _ _ _ _ _ _ _ _ _ _ _ _ _ _ _ _ _ _
 72
    65
 73
     2
 40
0.375
 49
0.25
 49
-0.125
  0
LTYPE
  2
PHANTOM2
 70
     0
  3
___ _ _ ___ _ _ ___ _ _ ___ _ _
 72
    65
 73
     6
 40
1.25
 49
0.625
 49
-0.125
 49
0.125
 49
-0.125
 49
0.125
 49
-0.125
  0
ENDTAB
  0
TABLE
  2
LAYER
 70
     3
  0
LAYER
  2
0
 70
     0
 62
     7
  6
CONTINUOUS
  0
LAYER
  2
1
 70
     0
 62
     1
  6
CENTER
  0
LAYER
  2
2
 70
     0
 62
     2
  6
HIDDEN
  0
ENDTAB
  0
TABLE
  2
STYLE
 70
     2
  0
STYLE
  2
STANDARD
 70
     0
 40
0.0
 41
1.0
 50
0.0
 71
     0
 42
0.2
  3
SIMPLEX
  4
BIGFONT
  0
STYLE
  2
STANDARD1
 70
     0
 40
0.0
 41
1.0
 50
0.0
 71
     0
 42
3.0
  3
txt
  4

  0
ENDTAB
  0
TABLE
  2
VIEW
 70
     0
  0
ENDTAB
  0
TABLE
  2
UCS
 70
     0
  0
ENDTAB
  0
TABLE
  2
APPID
 70
     4
  0
APPID
  2
ACAD
 70
     0
  0
APPID
  2
ACAD_EXEMPT_FROM_CAD_STANDARDS
 70
     0
  0
APPID
  2
ACAD_MLEADERVER
 70
     0
  0
APPID
  2
ACAD_NAV_VCDISPLAY
 70
     0
  0
ENDTAB
  0
TABLE
  2
DIMSTYLE
 70
     1
  0
DIMSTYLE
  2
STANDARD
 70
     0
  3

  4

  5

  6

  7

 40
1.0
 41
0.18
 42
0.0625
 43
0.38
 44
0.18
 45
0.0
 46
0.0
 47
0.0
 48
0.0
140
0.18
141
0.09
142
0.0
143
25.399999999999999
144
1.0
145
0.0
146
1.0
147
0.09
 71
     0
 72
     0
 73
     1
 74
     1
 75
     0
 76
     0
 77
     0
 78
     0
170
     0
171
     2
172
     0
173
     0
174
     0
175
     0
176
     0
177
     0
178
     0
  0
ENDTAB
  0
ENDSEC
  0
SECTION
  2
BLOCKS
  0
BLOCK
  8
0
  2
$MODEL_SPACE
 70
     0
 10
0.0
 20
0.0
 30
0.0
  3
$MODEL_SPACE
  1

  0
ENDBLK
  5
174
  8
0
  0
BLOCK
 67
     1
  8
0
  2
$PAPER_SPACE
 70
     0
 10
0.0
 20
0.0
 30
0.0
  3
$PAPER_SPACE
  1

  0
ENDBLK
  5
172
 67
     1
  8
0
  0
ENDSEC
  0
SECTION
  2
ENTITIES
  0
LINE
  5
28
  8
0
 10
58.057903435488477
 20
26.895467377714539
 30
0.0
 11
58.057903435488477
 21
26.695467377714539
 31
0.0
  0
LINE
  5
2A
  8
0
 10
48.057903435488477
 20
26.895467377714539
 30
0.0
 11
48.057903435488477
 21
26.695467377714539
 31
0.0
  0
LINE
  5
2B
  8
0
 10
58.057903435488477
 20
26.695467377714539
 30
0.0
 11
48.05790343548847
 21
26.695467377714539
 31
0.0
  0
LINE
  5
2C
  8
1
 10
53.057903435488477
 20
24.376489442187481
 30
0.0
 11
53.057903435488477
 21
51.693077183642259
 31
0.0
  0
LINE
  5
2D
  8
1
 10
53.057903435488477
 20
76.979957625194928
 30
0.0
 11
53.057903435488477
 21
109.8514493156011
 31
0.0
  0
LINE
  5
2E
  8
0
 10
64.544797350127126
 20
98.79694801358562
 30
0.0
 11
64.079512329505647
 21
98.14442522345837
 31
0.0
  0
LINE
  5
2F
  8
0
 10
41.571009520849898
 20
98.79694801358562
 30
0.0
 11
42.036294541471321
 21
98.14442522345837
 31
0.0
  0
CIRCLE
  5
30
  8
0
 10
53.057903435488477
 20
93.887213931406507
 30
0.0
 40
11.815232143206041
  0
CIRCLE
  5
31
  8
0
 10
53.057903435488477
 20
93.887213931406507
 30
0.0
 40
12.4921663679232
  0
LINE
  5
32
  8
1
 10
37.557448900524278
 20
93.887213931406507
 30
0.0
 11
68.695071626783331
 21
93.887213931406507
 31
0.0
  0
LINE
  5
33
  8
0
 10
56.381279970304838
 20
81.845229503094799
 30
0.0
 11
56.601342365339363
 21
82.61584528566226
 31
0.0
  0
LINE
  5
34
  8
0
 10
47.637755582095458
 20
82.63216094125022
 30
0.0
 11
47.558828441501213
 21
83.429686269078843
 31
0.0
  0
LINE
  5
35
  8
0
 10
50.827340999524168
 20
81.59580181631037
 30
0.0
 11
51.359968023609682
 21
82.194621150721275
 31
0.0
  0
LINE
  5
36
  8
0
 10
50.827340999524168
 20
81.59580181631037
 30
0.0
 11
50.539087044815467
 21
82.343589085287988
 31
0.0
  0
LINE
  5
37
  8
0
 10
49.734526900672229
 20
81.845229503094799
 30
0.0
 11
50.318687476242999
 21
82.393893848573271
 31
0.0
  0
LINE
  5
38
  8
0
 10
49.734526900672229
 20
81.845229503094799
 30
0.0
 11
49.514464505637662
 21
82.61584528566226
 31
0.0
  0
LINE
  5
39
  8
0
 10
48.66847067556467
 20
82.19161216792395
 30
0.0
 11
49.29946148514729
 21
82.685704001769352
 31
0.0
  0
LINE
  5
3A
  8
0
 10
48.66847067556467
 20
82.19161216792395
 30
0.0
 11
48.518371653214693
 21
82.978851918914756
 31
0.0
  0
LINE
  5
3B
  8
0
 10
47.637755582095458
 20
82.63216094125022
 30
0.0
 11
48.310496258707772
 21
83.06770212653754
 31
0.0
  0
LINE
  5
3C
  8
0
 10
56.381279970304838
 20
81.845229503094799
 30
0.0
 11
55.797119394733969
 21
82.393893848573271
 31
0.0
  0
LINE
  5
3D
  8
0
 10
55.2884658714528
 20
81.59580181631037
 30
0.0
 11
55.5767198261616
 21
82.343589085287988
 31
0.0
  0
LINE
  5
3E
  8
0
 10
55.2884658714528
 20
81.59580181631037
 30
0.0
 11
54.7558388473674
 21
82.194621150721275
 31
0.0
  0
LINE
  5
3F
  8
0
 10
54.177692595415877
 20
81.445337352643264
 30
0.0
 11
54.531817258446168
 21
82.164275364633227
 31
0.0
  0
LINE
  5
40
  8
0
 10
54.177692595415877
 20
81.445337352643264
 30
0.0
 11
53.700887522434201
 21
82.089490334806158
 31
0.0
  0
LINE
  5
41
  8
0
 10
53.057903435488477
 20
81.395047563483388
 30
0.0
 11
53.475047603275712
 21
82.079347852341812
 31
0.0
  0
LINE
  5
42
  8
0
 10
53.057903435488477
 20
81.395047563483388
 30
0.0
 11
52.640759267701483
 21
82.079347852341812
 31
0.0
  0
LINE
  5
43
  8
0
 10
51.938114275561148
 20
81.445337352643264
 30
0.0
 11
52.414919348542817
 21
82.089490334806158
 31
0.0
  0
LINE
  5
44
  8
0
 10
51.938114275561148
 20
81.445337352643264
 30
0.0
 11
51.583989612530857
 21
82.164275364633227
 31
0.0
  0
LINE
  5
45
  8
0
 10
45.715192275239261
 20
83.780839043197602
 30
0.0
 11
46.454890614013792
 21
84.089258416234657
 31
0.0
  0
LINE
  5
46
  8
0
 10
44.838823411150209
 20
84.47971989115382
 30
0.0
 11
45.603190441332131
 21
84.720591610583767
 31
0.0
  0
LINE
  5
47
  8
0
 10
44.838823411150209
 20
84.47971989115382
 30
0.0
 11
44.974911701391548
 21
85.269502215157843
 31
0.0
  0
LINE
  5
48
  8
0
 10
44.02862974667643
 20
85.254344349605105
 30
0.0
 11
44.811511234379118
 21
85.425729057973797
 31
0.0
  0
LINE
  5
49
  8
0
 10
44.02862974667643
 20
85.254344349605105
 30
0.0
 11
44.23496572717842
 21
86.028748381877961
 31
0.0
  0
LINE
  5
4A
  8
0
 10
43.29113448481781
 20
86.098475597883862
 30
0.0
 11
44.086227128629403
 21
86.198993406292118
 31
0.0
  0
LINE
  5
4B
  8
0
 10
43.29113448481781
 20
86.098475597883862
 30
0.0
 11
43.566056859589153
 21
86.851266292499872
 31
0.0
  0
LINE
  5
4C
  8
0
 10
42.632275503783049
 20
87.00531718752012
 30
0.0
 11
43.4331776852422
 21
87.034158785678187
 31
0.0
  0
LINE
  5
4D
  8
0
 10
42.632275503783049
 20
87.00531718752012
 30
0.0
 11
42.973570759513692
 21
87.730433516440144
 31
0.0
  0
LINE
  5
4E
  8
0
 10
42.057357548684323
 20
87.96756776324878
 30
0.0
 11
42.857620874348882
 21
87.924500935566471
 31
0.0
  0
LINE
  5
4F
  8
0
 10
42.057357548684323
 20
87.96756776324878
 30
0.0
 11
42.462277776653551
 21
88.659171516153151
 31
0.0
  0
LINE
  5
50
  8
0
 10
41.571009520849898
 20
88.977479849227393
 30
0.0
 11
42.36419074096888
 21
88.862851344478827
 31
0.0
  0
LINE
  5
51
  8
0
 10
41.571009520849898
 20
88.977479849227393
 30
0.0
 11
42.036294541471321
 21
89.630002639354927
 31
0.0
  0
LINE
  5
52
  8
0
 10
41.177147208631951
 20
90.026922227159162
 30
0.0
 11
41.956860094403979
 21
89.841654966663725
 31
0.0
  0
LINE
  5
53
  8
0
 10
41.177147208631951
 20
90.026922227159162
 30
0.0
 11
41.699050820502762
 21
90.635110324680511
 31
0.0
  0
LINE
  5
54
  8
0
 10
45.715192275239261
 20
83.780839043197602
 30
0.0
 11
45.779937172325461
 21
84.579640796044885
 31
0.0
  0
LINE
  5
55
  8
0
 10
40.878941759781249
 20
91.107445404078589
 30
0.0
 11
41.453261901892809
 21
91.666402036041404
 31
0.0
  0
LINE
  5
56
  8
0
 10
40.678794149229603
 20
92.210349642702681
 30
0.0
 11
41.41289598141033
 21
91.88883659158472
 31
0.0
  0
LINE
  5
57
  8
0
 10
40.678794149229603
 20
92.210349642702681
 30
0.0
 11
41.300906733492589
 21
92.715574418967833
 31
0.0
  0
LINE
  5
58
  8
0
 10
40.578315847852657
 20
93.326755006599399
 30
0.0
 11
41.280642194173829
 21
92.940731891600251
 31
0.0
  0
LINE
  5
59
  8
0
 10
40.578315847852657
 20
93.326755006599399
 30
0.0
 11
41.243211989534828
 21
93.774180154335284
 31
0.0
  0
LINE
  5
5A
  8
0
 10
40.578315847852657
 20
94.447672856213899
 30
0.0
 11
41.243211989534828
 21
94.000247708478014
 31
0.0
  0
LINE
  5
5B
  8
0
 10
40.578315847852657
 20
94.447672856213899
 30
0.0
 11
41.280642194173829
 21
94.833695971212762
 31
0.0
  0
LINE
  5
5C
  8
0
 10
40.678794149229603
 20
95.564078220110332
 30
0.0
 11
41.300906733492589
 21
95.058853443845464
 31
0.0
  0
LINE
  5
5D
  8
0
 10
40.678794149229603
 20
95.564078220110332
 30
0.0
 11
41.41289598141033
 21
95.885591271228577
 31
0.0
  0
LINE
  5
5E
  8
0
 10
40.878941759781249
 20
96.666982458734424
 30
0.0
 11
41.453261901892809
 21
96.108025826771609
 31
0.0
  0
LINE
  5
5F
  8
0
 10
40.878941759781249
 20
96.666982458734424
 30
0.0
 11
41.63890852151372
 21
96.921396811930776
 31
0.0
  0
LINE
  5
60
  8
0
 10
41.177147208631951
 20
97.747505635653852
 30
0.0
 11
41.699050820502762
 21
97.139317538132786
 31
0.0
  0
LINE
  5
61
  8
0
 10
41.177147208631951
 20
97.747505635653852
 30
0.0
 11
41.956860094403979
 21
97.932772896149572
 31
0.0
  0
LINE
  5
62
  8
0
 10
40.878941759781249
 20
91.107445404078589
 30
0.0
 11
41.63890852151372
 21
90.853031050882521
 31
0.0
  0
LINE
  5
63
  8
0
 10
46.650680332146422
 20
83.163328783389204
 30
0.0
 11
47.359754363425289
 21
83.536812598588824
 31
0.0
  0
LINE
  5
64
  8
0
 10
46.650680332146422
 20
83.163328783389204
 30
0.0
 11
46.643560548235563
 21
83.964718483053048
 31
0.0
  0
LINE
  5
65
  8
0
 10
58.478051288881559
 20
82.63216094125022
 30
0.0
 11
58.556978429475762
 21
83.429686269078843
 31
0.0
  0
LINE
  5
66
  8
0
 10
58.478051288881559
 20
82.63216094125022
 30
0.0
 11
57.805310612269253
 21
83.06770212653754
 31
0.0
  0
LINE
  5
67
  8
0
 10
57.447336195412397
 20
82.19161216792395
 30
0.0
 11
57.597435217762282
 21
82.978851918914756
 31
0.0
  0
LINE
  5
68
  8
0
 10
57.447336195412397
 20
82.19161216792395
 30
0.0
 11
56.816345385829678
 21
82.685704001769352
 31
0.0
  0
LINE
  5
69
  8
0
 10
62.087177124300588
 20
85.254344349605105
 30
0.0
 11
61.304295636597899
 21
85.425729057973797
 31
0.0
  0
LINE
  5
6A
  8
0
 10
62.087177124300588
 20
85.254344349605105
 30
0.0
 11
61.880841143798662
 21
86.028748381877961
 31
0.0
  0
LINE
  5
6B
  8
0
 10
61.276983459826809
 20
84.47971989115382
 30
0.0
 11
61.14089516958542
 21
85.269502215157843
 31
0.0
  0
LINE
  5
6C
  8
0
 10
61.276983459826809
 20
84.47971989115382
 30
0.0
 11
60.51261642964495
 21
84.720591610583767
 31
0.0
  0
LINE
  5
6D
  8
0
 10
60.400614595737821
 20
83.780839043197602
 30
0.0
 11
60.335869698651557
 21
84.579640796044885
 31
0.0
  0
LINE
  5
6E
  8
0
 10
60.400614595737821
 20
83.780839043197602
 30
0.0
 11
59.660916256963233
 21
84.089258416234657
 31
0.0
  0
LINE
  5
6F
  8
0
 10
59.46512653883066
 20
83.163328783389204
 30
0.0
 11
59.472246322741412
 21
83.964718483053048
 31
0.0
  0
LINE
  5
70
  8
0
 10
59.46512653883066
 20
83.163328783389204
 30
0.0
 11
58.756052507551729
 21
83.536812598588824
 31
0.0
  0
LINE
  5
71
  8
0
 10
64.938659662345131
 20
90.026922227159162
 30
0.0
 11
64.416756050474206
 21
90.635110324680511
 31
0.0
  0
LINE
  5
72
  8
0
 10
64.938659662345131
 20
90.026922227159162
 30
0.0
 11
64.158946776573103
 21
89.841654966663725
 31
0.0
  0
LINE
  5
73
  8
0
 10
64.544797350127126
 20
88.977479849227393
 30
0.0
 11
64.079512329505647
 21
89.630002639354927
 31
0.0
  0
LINE
  5
74
  8
0
 10
64.544797350127126
 20
88.977479849227393
 30
0.0
 11
63.751616130008138
 21
88.862851344478827
 31
0.0
  0
LINE
  5
75
  8
0
 10
64.058449322292759
 20
87.96756776324878
 30
0.0
 11
63.653529094323467
 21
88.659171516153151
 31
0.0
  0
LINE
  5
76
  8
0
 10
64.058449322292759
 20
87.96756776324878
 30
0.0
 11
63.258185996628093
 21
87.924500935566471
 31
0.0
  0
LINE
  5
77
  8
0
 10
63.483531367194139
 20
87.005317187520404
 30
0.0
 11
63.142236111463333
 21
87.730433516440144
 31
0.0
  0
LINE
  5
78
  8
0
 10
63.483531367194139
 20
87.005317187520404
 30
0.0
 11
62.682629185734882
 21
87.034158785678187
 31
0.0
  0
LINE
  5
79
  8
0
 10
62.824672386159257
 20
86.098475597883862
 30
0.0
 11
62.549750011387928
 21
86.851266292499872
 31
0.0
  0
LINE
  5
7A
  8
0
 10
62.824672386159257
 20
86.098475597883862
 30
0.0
 11
62.029579742347678
 21
86.198993406292118
 31
0.0
  0
LINE
  5
7B
  8
0
 10
64.938659662345131
 20
97.747505635653852
 30
0.0
 11
64.158946776573103
 21
97.932772896149572
 31
0.0
  0
LINE
  5
7C
  8
0
 10
64.938659662345131
 20
97.747505635653852
 30
0.0
 11
64.416756050474206
 21
97.139317538132786
 31
0.0
  0
LINE
  5
7D
  8
0
 10
65.236865111195826
 20
96.666982458734424
 30
0.0
 11
64.476898349463355
 21
96.921396811930776
 31
0.0
  0
LINE
  5
7E
  8
0
 10
65.236865111195826
 20
96.666982458734424
 30
0.0
 11
64.662544969084209
 21
96.108025826771609
 31
0.0
  0
LINE
  5
7F
  8
0
 10
65.437012721747479
 20
95.564078220110332
 30
0.0
 11
64.702910889566752
 21
95.885591271228577
 31
0.0
  0
LINE
  5
80
  8
0
 10
65.437012721747479
 20
95.564078220110332
 30
0.0
 11
64.814900137484315
 21
95.058853443845464
 31
0.0
  0
LINE
  5
81
  8
0
 10
65.537491023124403
 20
94.447672856213899
 30
0.0
 11
64.835164676803188
 21
94.833695971212762
 31
0.0
  0
LINE
  5
82
  8
0
 10
65.537491023124403
 20
94.447672856213899
 30
0.0
 11
64.872594881442197
 21
94.000247708478014
 31
0.0
  0
LINE
  5
83
  8
0
 10
65.537491023124403
 20
93.326755006599399
 30
0.0
 11
64.872594881442197
 21
93.774180154335284
 31
0.0
  0
LINE
  5
84
  8
0
 10
65.537491023124403
 20
93.326755006599399
 30
0.0
 11
64.835164676803188
 21
92.940731891600251
 31
0.0
  0
LINE
  5
85
  8
0
 10
65.437012721747479
 20
92.210349642702681
 30
0.0
 11
64.814900137484429
 21
92.715574418967833
 31
0.0
  0
LINE
  5
86
  8
0
 10
65.437012721747479
 20
92.210349642702681
 30
0.0
 11
64.702910889566752
 21
91.88883659158472
 31
0.0
  0
LINE
  5
87
  8
0
 10
65.236865111195826
 20
91.107445404078589
 30
0.0
 11
64.662544969084209
 21
91.666402036041404
 31
0.0
  0
LINE
  5
88
  8
0
 10
65.236865111195826
 20
91.107445404078589
 30
0.0
 11
64.476898349463355
 21
90.853031050882521
 31
0.0
  0
LINE
  5
89
  8
0
 10
56.381279970304838
 20
105.9291983597185
 30
0.0
 11
56.601342365339363
 21
105.15858257715099
 31
0.0
  0
LINE
  5
8A
  8
0
 10
45.715192275239261
 20
103.9935888196157
 30
0.0
 11
46.454890614013792
 21
103.6851694465786
 31
0.0
  0
LINE
  5
8B
  8
0
 10
41.571009520849898
 20
98.79694801358562
 30
0.0
 11
42.36419074096888
 21
98.911576518334471
 31
0.0
  0
LINE
  5
8C
  8
0
 10
42.057357548684429
 20
99.806860099564517
 30
0.0
 11
42.462277776653551
 21
99.115256346659862
 31
0.0
  0
LINE
  5
8D
  8
0
 10
42.057357548684429
 20
99.806860099564517
 30
0.0
 11
42.857620874348882
 21
99.849926927246827
 31
0.0
  0
LINE
  5
8E
  8
0
 10
42.632275503783049
 20
100.76911067529289
 30
0.0
 11
42.973570759513692
 21
100.0439943463731
 31
0.0
  0
LINE
  5
8F
  8
0
 10
42.632275503783049
 20
100.76911067529289
 30
0.0
 11
43.4331776852422
 21
100.7402690771351
 31
0.0
  0
LINE
  5
90
  8
0
 10
43.29113448481781
 20
101.67595226492941
 30
0.0
 11
43.566056859589153
 21
100.9231615703134
 31
0.0
  0
LINE
  5
91
  8
0
 10
43.29113448481781
 20
101.67595226492941
 30
0.0
 11
44.086227128629403
 21
101.57543445652109
 31
0.0
  0
LINE
  5
92
  8
0
 10
44.02862974667643
 20
102.52008351320821
 30
0.0
 11
44.23496572717842
 21
101.74567948093529
 31
0.0
  0
LINE
  5
93
  8
0
 10
44.02862974667643
 20
102.52008351320821
 30
0.0
 11
44.811511234379118
 21
102.3486988048392
 31
0.0
  0
LINE
  5
94
  8
0
 10
44.838823411150209
 20
103.29470797165941
 30
0.0
 11
44.974911701391548
 21
102.5049256476551
 31
0.0
  0
LINE
  5
95
  8
0
 10
44.838823411150209
 20
103.29470797165941
 30
0.0
 11
45.603190441332131
 21
103.0538362522292
 31
0.0
  0
LINE
  5
96
  8
0
 10
45.715192275239261
 20
103.9935888196157
 30
0.0
 11
45.779937172325461
 21
103.1947870667684
 31
0.0
  0
LINE
  5
97
  8
0
 10
54.177692595415877
 20
106.32909051017
 30
0.0
 11
53.700887522434201
 21
105.6849375280071
 31
0.0
  0
LINE
  5
98
  8
0
 10
54.177692595415877
 20
106.32909051017
 30
0.0
 11
54.531817258446281
 21
105.61015249818
 31
0.0
  0
LINE
  5
99
  8
0
 10
51.938114275561148
 20
106.32909051017
 30
0.0
 11
51.583989612530857
 21
105.61015249818
 31
0.0
  0
LINE
  5
9A
  8
0
 10
51.938114275561148
 20
106.32909051017
 30
0.0
 11
52.414919348542817
 21
105.6849375280071
 31
0.0
  0
LINE
  5
9B
  8
0
 10
53.057903435488477
 20
106.3793802993299
 30
0.0
 11
53.475047603275712
 21
105.6950800104715
 31
0.0
  0
LINE
  5
9C
  8
0
 10
53.057903435488477
 20
106.3793802993299
 30
0.0
 11
52.640759267701483
 21
105.6950800104715
 31
0.0
  0
LINE
  5
9D
  8
0
 10
50.827340999524168
 20
106.1786260465029
 30
0.0
 11
51.359968023609682
 21
105.57980671209199
 31
0.0
  0
LINE
  5
9E
  8
0
 10
46.650680332146422
 20
104.61109907942409
 30
0.0
 11
46.643560548235563
 21
103.80970937975989
 31
0.0
  0
LINE
  5
9F
  8
0
 10
46.650680332146422
 20
104.61109907942409
 30
0.0
 11
47.359754363425289
 21
104.2376152642242
 31
0.0
  0
LINE
  5
A0
  8
0
 10
47.637755582095458
 20
105.14226692156301
 30
0.0
 11
47.558828441501213
 21
104.3447415937344
 31
0.0
  0
LINE
  5
A1
  8
0
 10
47.637755582095458
 20
105.14226692156301
 30
0.0
 11
48.310496258707772
 21
104.7067257362755
 31
0.0
  0
LINE
  5
A2
  8
0
 10
48.66847067556467
 20
105.58281569488931
 30
0.0
 11
48.518371653214693
 21
104.7955759438985
 31
0.0
  0
LINE
  5
A3
  8
0
 10
48.66847067556467
 20
105.58281569488931
 30
0.0
 11
49.29946148514729
 21
105.0887238610439
 31
0.0
  0
LINE
  5
A4
  8
0
 10
49.734526900672229
 20
105.9291983597185
 30
0.0
 11
49.514464505637662
 21
105.1585825771507
 31
0.0
  0
LINE
  5
A5
  8
0
 10
49.734526900672229
 20
105.9291983597185
 30
0.0
 11
50.318687476242999
 21
105.38053401424
 31
0.0
  0
LINE
  5
A6
  8
0
 10
50.827340999524168
 20
106.1786260465029
 30
0.0
 11
50.539087044815467
 21
105.4308387775253
 31
0.0
  0
LINE
  5
A7
  8
0
 10
55.2884658714528
 20
106.1786260465029
 30
0.0
 11
54.7558388473674
 21
105.57980671209199
 31
0.0
  0
LINE
  5
A8
  8
0
 10
55.2884658714528
 20
106.1786260465029
 30
0.0
 11
55.5767198261616
 21
105.4308387775253
 31
0.0
  0
LINE
  5
A9
  8
0
 10
56.381279970304838
 20
105.9291983597185
 30
0.0
 11
55.797119394733969
 21
105.38053401424
 31
0.0
  0
LINE
  5
AA
  8
0
 10
62.087177124300588
 20
102.52008351320821
 30
0.0
 11
61.304295636597899
 21
102.3486988048392
 31
0.0
  0
LINE
  5
AB
  8
0
 10
62.087177124300588
 20
102.52008351320821
 30
0.0
 11
61.880841143798662
 21
101.74567948093529
 31
0.0
  0
LINE
  5
AC
  8
0
 10
57.447336195412397
 20
105.58281569488931
 30
0.0
 11
56.816345385829678
 21
105.0887238610439
 31
0.0
  0
LINE
  5
AD
  8
0
 10
57.447336195412397
 20
105.58281569488931
 30
0.0
 11
57.597435217762282
 21
104.7955759438985
 31
0.0
  0
LINE
  5
AE
  8
0
 10
58.478051288881559
 20
105.14226692156301
 30
0.0
 11
57.805310612269253
 21
104.7067257362755
 31
0.0
  0
LINE
  5
AF
  8
0
 10
58.478051288881559
 20
105.14226692156301
 30
0.0
 11
58.556978429475762
 21
104.3447415937344
 31
0.0
  0
LINE
  5
B0
  8
0
 10
59.46512653883066
 20
104.61109907942409
 30
0.0
 11
58.756052507551729
 21
104.2376152642242
 31
0.0
  0
LINE
  5
B1
  8
0
 10
59.46512653883066
 20
104.61109907942409
 30
0.0
 11
59.472246322741412
 21
103.80970937975989
 31
0.0
  0
LINE
  5
B2
  8
0
 10
60.400614595737821
 20
103.9935888196157
 30
0.0
 11
59.660916256963233
 21
103.6851694465786
 31
0.0
  0
LINE
  5
B3
  8
0
 10
60.400614595737821
 20
103.9935888196157
 30
0.0
 11
60.335869698651557
 21
103.1947870667684
 31
0.0
  0
LINE
  5
B4
  8
0
 10
61.276983459826809
 20
103.29470797165941
 30
0.0
 11
60.51261642964495
 21
103.0538362522292
 31
0.0
  0
LINE
  5
B5
  8
0
 10
61.276983459826809
 20
103.29470797165941
 30
0.0
 11
61.14089516958542
 21
102.5049256476551
 31
0.0
  0
LINE
  5
B6
  8
0
 10
62.824672386159257
 20
101.67595226492941
 30
0.0
 11
62.029579742347678
 21
101.57543445652109
 31
0.0
  0
LINE
  5
B7
  8
0
 10
62.824672386159257
 20
101.67595226492941
 30
0.0
 11
62.549750011387928
 21
100.9231615703134
 31
0.0
  0
LINE
  5
B8
  8
0
 10
63.483531367194139
 20
100.76911067529289
 30
0.0
 11
62.682629185734882
 21
100.7402690771351
 31
0.0
  0
LINE
  5
B9
  8
0
 10
63.483531367194139
 20
100.76911067529289
 30
0.0
 11
63.142236111463333
 21
100.0439943463731
 31
0.0
  0
LINE
  5
BA
  8
0
 10
64.058449322292759
 20
99.806860099564517
 30
0.0
 11
63.258185996628093
 21
99.849926927246827
 31
0.0
  0
LINE
  5
BB
  8
0
 10
64.058449322292759
 20
99.806860099564517
 30
0.0
 11
63.653529094323467
 21
99.115256346659862
 31
0.0
  0
LINE
  5
BC
  8
0
 10
64.544797350127126
 20
98.79694801358562
 30
0.0
 11
63.751616130008138
 21
98.911576518334471
 31
0.0
  0
LINE
  5
BF
  8
0
 10
65.557903435488484
 20
48.895467377714432
 30
0.0
 11
65.557903435488484
 21
44.78804984583919
 31
0.0
  0
LINE
  5
C1
  8
0
 10
60.307903435488477
 20
26.895467377714539
 30
0.0
 11
60.429653739048049
 21
40.594679800194648
 31
0.0
  0
LINE
  5
C2
  8
0
 10
60.751040130982823
 20
41.057252586738592
 30
0.0
 11
63.790169680834893
 21
42.219460150451503
 31
0.0
  0
ARC
  5
C3
  8
0
 10
62.807903435488477
 20
44.78804984583919
 30
0.0
 40
2.75
 50
290.92758473891058
 51
0.0
  0
ARC
  5
C4
  8
0
 10
60.92963399377301
 20
40.590236278486337
 30
0.0
 40
0.5
 50
110.9275847389106
 51
179.4908032170359
  0
LINE
  5
C6
  8
0
 10
64.957903435488461
 20
49.395467377714539
 30
0.0
 11
64.957903435488461
 21
46.895467377714532
 31
0.0
  0
LINE
  5
C7
  8
0
 10
64.257903435488529
 20
49.395467377714539
 30
0.0
 11
64.257903435488529
 21
46.895467377714532
 31
0.0
  0
LINE
  5
C8
  8
0
 10
63.457903435488568
 20
49.395467377714539
 30
0.0
 11
63.457903435488461
 21
46.895467377714532
 31
0.0
  0
LINE
  5
C9
  8
0
 10
62.557903435488541
 20
49.395467377714539
 30
0.0
 11
62.557903435488541
 21
46.895467377714532
 31
0.0
  0
LINE
  5
CA
  8
0
 10
61.557903435488477
 20
49.395467377714539
 30
0.0
 11
61.557903435488477
 21
46.895467377714532
 31
0.0
  0
LINE
  5
CB
  8
0
 10
60.457903435488582
 20
49.395467377714539
 30
0.0
 11
60.457903435488582
 21
46.895467377714532
 31
0.0
  0
LINE
  5
CC
  8
0
 10
59.257903435488529
 20
49.395467377714539
 30
0.0
 11
59.257903435488529
 21
46.895467377714532
 31
0.0
  0
LINE
  5
CD
  8
0
 10
57.957903435488582
 20
49.395467377714539
 30
0.0
 11
57.957903435488582
 21
46.895467377714532
 31
0.0
  0
LINE
  5
CE
  8
0
 10
56.557903435488477
 20
49.395467377714539
 30
0.0
 11
56.557903435488477
 21
46.895467377714532
 31
0.0
  0
LINE
  5
CF
  8
0
 10
55.057903435488541
 20
49.395467377714539
 30
0.0
 11
55.057903435488541
 21
46.895467377714532
 31
0.0
  0
LINE
  5
D0
  8
0
 10
53.782257219275053
 20
49.395467377714539
 30
0.0
 11
53.782257219275053
 21
46.895467377714532
 31
0.0
  0
LINE
  5
D1
  8
0
 10
65.057903435488541
 20
49.395467377714539
 30
0.0
 11
65.557903435488484
 21
48.895467377714432
 31
0.0
  0
LINE
  5
D2
  8
0
 10
65.057903435488555
 20
49.395467377714532
 30
0.0
 11
41.057903435488477
 21
49.395467377714539
 31
0.0
  0
LINE
  5
D3
  8
0
 10
65.557903435488484
 20
46.895467377714532
 30
0.0
 11
40.557903435488477
 21
46.895467377714532
 31
0.0
  0
ARC
  5
D4
  8
0
 10
43.307903435488591
 20
44.78804984583919
 30
0.0
 40
2.75
 50
180.0
 51
249.07241526108939
  0
LINE
  5
D5
  8
0
 10
45.807903435488591
 20
26.895467377714539
 30
0.0
 11
45.686153131928918
 21
40.594679800194648
 31
0.0
  0
LINE
  5
D6
  8
0
 10
60.307903435488491
 20
26.895467377714539
 30
0.0
 11
45.807903435488591
 21
26.895467377714539
 31
0.0
  0
LINE
  5
D7
  8
0
 10
45.364766739994153
 20
41.057252586738592
 30
0.0
 11
42.325637190142082
 21
42.219460150451503
 31
0.0
  0
ARC
  5
D8
  8
0
 10
45.186172877204072
 20
40.590236278486337
 30
0.0
 40
0.5
 50
0.5091967829641242
 51
69.072415261089418
  0
LINE
  5
D9
  8
0
 10
49.557903435488591
 20
49.395467377714539
 30
0.0
 11
49.557903435488591
 21
46.895467377714532
 31
0.0
  0
LINE
  5
DA
  8
0
 10
48.157903435488556
 20
49.395467377714539
 30
0.0
 11
48.157903435488556
 21
46.895467377714532
 31
0.0
  0
LINE
  5
DB
  8
0
 10
46.857903435488439
 20
49.395467377714539
 30
0.0
 11
46.857903435488439
 21
46.895467377714532
 31
0.0
  0
LINE
  5
DC
  8
0
 10
45.657903435488556
 20
49.395467377714539
 30
0.0
 11
45.657903435488556
 21
46.895467377714532
 31
0.0
  0
LINE
  5
DD
  8
0
 10
44.557903435488591
 20
49.395467377714539
 30
0.0
 11
44.557903435488591
 21
46.895467377714532
 31
0.0
  0
LINE
  5
DE
  8
0
 10
43.557903435488477
 20
49.395467377714539
 30
0.0
 11
43.557903435488477
 21
46.895467377714532
 31
0.0
  0
LINE
  5
DF
  8
0
 10
42.65790343548845
 20
49.395467377714539
 30
0.0
 11
42.65790343548862
 21
46.895467377714532
 31
0.0
  0
LINE
  5
E0
  8
0
 10
41.857903435488439
 20
49.395467377714539
 30
0.0
 11
41.857903435488439
 21
46.895467377714532
 31
0.0
  0
LINE
  5
E1
  8
0
 10
40.557903435488477
 20
48.895467377714432
 30
0.0
 11
40.557903435488477
 21
44.78804984583919
 31
0.0
  0
LINE
  5
E2
  8
0
 10
41.157903435488507
 20
49.395467377714539
 30
0.0
 11
41.157903435488507
 21
46.895467377714532
 31
0.0
  0
LINE
  5
E3
  8
0
 10
41.057903435488477
 20
49.395467377714539
 30
0.0
 11
40.557903435488477
 21
48.895467377714432
 31
0.0
  0
LINE
  5
E4
  8
0
 10
52.333549651701922
 20
49.395467377714539
 30
0.0
 11
52.333549651701922
 21
46.895467377714532
 31
0.0
  0
LINE
  5
E5
  8
0
 10
51.057903435488477
 20
49.395467377714539
 30
0.0
 11
51.057903435488477
 21
46.895467377714532
 31
0.0
  0
CIRCLE
  5
E6
  8
0
 10
53.057903435488477
 20
93.887213931406507
 30
0.0
 40
9.25
  0
CIRCLE
  5
E7
  8
0
 10
53.057903435488477
 20
93.887213931406507
 30
0.0
 40
0.9000000000000001
  0
CIRCLE
  5
E8
  8
0
 10
55.557903435488477
 20
93.887213931406507
 30
0.0
 40
0.9000000000000001
  0
CIRCLE
  5
E9
  8
0
 10
58.057903435488477
 20
93.887213931406507
 30
0.0
 40
0.9000000000000001
  0
CIRCLE
  5
EA
  8
0
 10
48.057903435488477
 20
93.887213931406507
 30
0.0
 40
0.9000000000000001
  0
CIRCLE
  5
EB
  8
0
 10
50.557903435488477
 20
93.887213931406507
 30
0.0
 40
0.9000000000000001
  0
LINE
  5
EC
  8
0
 10
60.519013604662639
 20
40.875527175724102
 30
0.0
 11
45.596793266314428
 21
40.875527175724102
 31
0.0
  0
ARC
  5
ED
  8
2
 10
53.057903435488477
 20
72.132061752619762
 30
0.0
 40
24.546185523803249
 50
247.86187926326511
 51
292.13812073673478
  0
LINE
  5
EE
  8
2
 10
58.057903435488477
 20
26.895467377714539
 30
0.0
 11
58.057903435488477
 21
27.895467377714478
 31
0.0
  0
LINE
  5
EF
  8
2
 10
58.057903435488477
 20
27.895467377714478
 30
0.0
 11
58.857903435488488
 21
27.895467377714478
 31
0.0
  0
LINE
  5
F0
  8
2
 10
58.857903435488488
 20
27.895467377714478
 30
0.0
 11
58.857903435488488
 21
31.895467377714539
 31
0.0
  0
LINE
  5
F1
  8
2
 10
58.857903435488488
 20
31.895467377714539
 30
0.0
 11
58.057903435488477
 21
31.895467377714539
 31
0.0
  0
LINE
  5
F2
  8
2
 10
58.057903435488477
 20
31.895467377714539
 30
0.0
 11
58.057903435488477
 21
34.895467377714368
 31
0.0
  0
LINE
  5
F3
  8
2
 10
58.057903435488477
 20
34.895467377714368
 30
0.0
 11
58.857903435488488
 21
34.895467377714368
 31
0.0
  0
LINE
  5
F4
  8
2
 10
58.857903435488488
 20
34.895467377714368
 30
0.0
 11
58.857903435488488
 21
42.979848518306788
 31
0.0
  0
LINE
  5
F5
  8
2
 10
53.80790343548837
 20
45.895467377714589
 30
0.0
 11
53.057903435488477
 21
45.895467377714589
 31
0.0
  0
LINE
  5
F6
  8
2
 10
53.807903435488541
 20
45.895467377714589
 30
0.0
 11
58.857903435488488
 21
42.979848518306788
 31
0.0
  0
LINE
  5
F7
  8
2
 10
57.057903435488591
 20
26.695467377714539
 30
0.0
 11
57.057903435488591
 21
38.895467377714432
 31
0.0
  0
LINE
  5
F8
  8
2
 10
57.057903435488591
 20
38.895467377714432
 30
0.0
 11
49.057903435488477
 21
38.895467377714432
 31
0.0
  0
LINE
  5
F9
  8
2
 10
56.372356336116539
 20
26.695467377714539
 30
0.0
 11
56.372356336116539
 21
41.442655546579793
 31
0.0
  0
LINE
  5
FB
  8
2
 10
56.372356336116539
 20
41.442655546579793
 30
0.0
 11
53.057903435488477
 21
43.356255820973807
 31
0.0
  0
LINE
  5
FC
  8
2
 10
56.372356336116539
 20
41.442655546579793
 30
0.0
 11
49.743450534860479
 21
41.4426555465798
 31
0.0
  0
LINE
  5
FD
  8
2
 10
52.307903435488477
 20
45.895467377714589
 30
0.0
 11
47.257903435488529
 21
42.979848518306788
 31
0.0
  0
LINE
  5
FE
  8
2
 10
49.743450534860479
 20
41.442655546579793
 30
0.0
 11
53.057903435488477
 21
43.356255820973807
 31
0.0
  0
LINE
  5
100
  8
2
 10
47.257903435488529
 20
34.895467377714368
 30
0.0
 11
47.257903435488529
 21
42.979848518306788
 31
0.0
  0
LINE
  5
102
  8
2
 10
52.307903435488598
 20
45.895467377714589
 30
0.0
 11
53.057903435488477
 21
45.895467377714589
 31
0.0
  0
LINE
  5
103
  8
2
 10
49.743450534860479
 20
26.695467377714539
 30
0.0
 11
49.743450534860479
 21
41.4426555465798
 31
0.0
  0
LINE
  5
104
  8
2
 10
49.057903435488477
 20
26.695467377714539
 30
0.0
 11
49.057903435488477
 21
38.895467377714432
 31
0.0
  0
LINE
  5
105
  8
2
 10
47.257903435488529
 20
27.895467377714478
 30
0.0
 11
47.257903435488529
 21
31.895467377714539
 31
0.0
  0
LINE
  5
107
  8
2
 10
48.057903435488477
 20
34.895467377714368
 30
0.0
 11
47.257903435488529
 21
34.895467377714368
 31
0.0
  0
LINE
  5
108
  8
2
 10
48.057903435488477
 20
31.895467377714539
 30
0.0
 11
48.057903435488477
 21
34.895467377714368
 31
0.0
  0
LINE
  5
109
  8
2
 10
47.257903435488529
 20
31.895467377714539
 30
0.0
 11
48.057903435488477
 21
31.895467377714539
 31
0.0
  0
LINE
  5
10A
  8
2
 10
48.057903435488477
 20
27.895467377714478
 30
0.0
 11
47.257903435488529
 21
27.895467377714478
 31
0.0
  0
LINE
  5
10B
  8
2
 10
48.057903435488477
 20
26.895467377714539
 30
0.0
 11
48.057903435488477
 21
27.895467377714478
 31
0.0
  0
TEXT
  5
2E5
  8
0
 62
     3
 10
0.0
 20
0.0
 30
0.0
 40
10.0
  1
EKK25A-OG
  7
STANDARD1
  0
ENDSEC
  0
EOF
