  0
SECTION
  2
HEADER
  9
$ACADVER
  1
AC1009
  9
$INSBASE
 10
0.0
 20
0.0
 30
0.0
  9
$EXTMIN
 10
0.0
 20
-2.960436562073669
 30
0.0
  9
$EXTMAX
 10
107.6791405273887
 20
104.2381294502561
 30
0.0
  9
$LIMMIN
 10
0.0
 20
0.0
  9
$LIMMAX
 10
385.0
 20
270.0
  9
$ORTHOMODE
 70
     0
  9
$REGENMODE
 70
     1
  9
$FILLMODE
 70
     1
  9
$QTEXTMODE
 70
     0
  9
$MIRRTEXT
 70
     0
  9
$DRAGMODE
 70
     2
  9
$LTSCALE
 40
5.0
  9
$OSMODE
 70
  3071
  9
$ATTMODE
 70
     1
  9
$TEXTSIZE
 40
0.2
  9
$TRACEWID
 40
0.05
  9
$TEXTSTYLE
  7
STANDARD
  9
$CLAYER
  8
0
  9
$CELTYPE
  6
BYLAYER
  9
$CECOLOR
 62
   256
  9
$DIMSCALE
 40
1.0
  9
$DIMASZ
 40
3.0
  9
$DIMEXO
 40
0.0625
  9
$DIMDLI
 40
0.38
  9
$DIMRND
 40
0.0
  9
$DIMDLE
 40
0.0
  9
$DIMEXE
 40
0.18
  9
$DIMTP
 40
0.0
  9
$DIMTM
 40
0.0
  9
$DIMTXT
 40
3.0
  9
$DIMCEN
 40
0.09
  9
$DIMTSZ
 40
0.0
  9
$DIMTOL
 70
     0
  9
$DIMLIM
 70
     0
  9
$DIMTIH
 70
     1
  9
$DIMTOH
 70
     1
  9
$DIMSE1
 70
     0
  9
$DIMSE2
 70
     0
  9
$DIMTAD
 70
     0
  9
$DIMZIN
 70
     0
  9
$DIMBLK
  1

  9
$DIMASO
 70
     1
  9
$DIMSHO
 70
     1
  9
$DIMPOST
  1

  9
$DIMAPOST
  1

  9
$DIMALT
 70
     0
  9
$DIMALTD
 70
     2
  9
$DIMALTF
 40
25.399999999999999
  9
$DIMLFAC
 40
1.0
  9
$DIMTOFL
 70
     0
  9
$DIMTVP
 40
0.0
  9
$DIMTIX
 70
     0
  9
$DIMSOXD
 70
     0
  9
$DIMSAH
 70
     0
  9
$DIMBLK1
  1

  9
$DIMBLK2
  1

  9
$DIMSTYLE
  2
STANDARD
  9
$DIMCLRD
 70
     0
  9
$DIMCLRE
 70
     0
  9
$DIMCLRT
 70
     0
  9
$DIMTFAC
 40
1.0
  9
$DIMGAP
 40
0.09
  9
$LUNITS
 70
     2
  9
$LUPREC
 70
     4
  9
$SKETCHINC
 40
0.1
  9
$FILLETRAD
 40
0.7
  9
$AUNITS
 70
     0
  9
$AUPREC
 70
     0
  9
$MENU
  1
E:\r13\win\SUPPORT\ACAD
  9
$ELEVATION
 40
0.0
  9
$PELEVATION
 40
0.0
  9
$THICKNESS
 40
0.0
  9
$LIMCHECK
 70
     0
  9
$BLIPMODE
 70
     0
  9
$CHAMFERA
 40
0.0
  9
$CHAMFERB
 40
0.0
  9
$SKPOLY
 70
     0
  9
$TDCREATE
 40
2450365.443622801
  9
$TDUPDATE
 40
2456598.6758629628
  9
$TDINDWG
 40
0.0842603588
  9
$TDUSRTIMER
 40
0.0842603588
  9
$USRTIMER
 70
     1
  9
$ANGBASE
 50
0.0
  9
$ANGDIR
 70
     0
  9
$PDMODE
 70
     0
  9
$PDSIZE
 40
0.0
  9
$PLINEWID
 40
0.0
  9
$COORDS
 70
     1
  9
$SPLFRAME
 70
     0
  9
$SPLINETYPE
 70
     6
  9
$SPLINESEGS
 70
     8
  9
$ATTDIA
 70
     0
  9
$ATTREQ
 70
     1
  9
$HANDLING
 70
     1
  9
$HANDSEED
  5
75B
  9
$SURFTAB1
 70
     6
  9
$SURFTAB2
 70
     6
  9
$SURFTYPE
 70
     6
  9
$SURFU
 70
     6
  9
$SURFV
 70
     6
  9
$UCSNAME
  2

  9
$UCSORG
 10
0.0
 20
0.0
 30
0.0
  9
$UCSXDIR
 10
1.0
 20
0.0
 30
0.0
  9
$UCSYDIR
 10
0.0
 20
1.0
 30
0.0
  9
$PUCSNAME
  2

  9
$PUCSORG
 10
0.0
 20
0.0
 30
0.0
  9
$PUCSXDIR
 10
1.0
 20
0.0
 30
0.0
  9
$PUCSYDIR
 10
0.0
 20
1.0
 30
0.0
  9
$USERI1
 70
     3
  9
$USERI2
 70
     1
  9
$USERI3
 70
     1
  9
$USERI4
 70
     0
  9
$USERI5
 70
     0
  9
$USERR1
 40
1.0
  9
$USERR2
 40
3.0
  9
$USERR3
 40
3.0
  9
$USERR4
 40
3.0
  9
$USERR5
 40
10.0
  9
$WORLDVIEW
 70
     1
  9
$SHADEDGE
 70
     3
  9
$SHADEDIF
 70
    70
  9
$TILEMODE
 70
     1
  9
$MAXACTVP
 70
    16
  9
$PLIMCHECK
 70
     0
  9
$PEXTMIN
 10
1.0000000000000000E+020
 20
1.0000000000000000E+020
 30
1.0000000000000000E+020
  9
$PEXTMAX
 10
-1.0000000000000000E+020
 20
-1.0000000000000000E+020
 30
-1.0000000000000000E+020
  9
$PLIMMIN
 10
0.0
 20
0.0
  9
$PLIMMAX
 10
12.0
 20
9.0
  9
$UNITMODE
 70
     0
  9
$VISRETAIN
 70
     0
  9
$PLINEGEN
 70
     0
  9
$PSLTSCALE
 70
     0
  0
ENDSEC
  0
SECTION
  2
TABLES
  0
TABLE
  2
VPORT
 70
     1
  0
VPORT
  2
*ACTIVE
 70
     0
 10
0.0
 20
0.0
 11
1.0
 21
1.0
 12
192.49412581440311
 22
169.9063198933564
 13
0.0
 23
0.0
 14
5.0
 24
5.0
 15
0.0
 25
0.0
 16
0.0
 26
0.0
 36
1.0
 17
0.0
 27
0.0
 37
0.0
 40
348.89937369551939
 41
1.831871345029239
 42
50.0
 43
0.0
 44
0.0
 50
0.0
 51
0.0
 71
     0
 72
   100
 73
     1
 74
     0
 75
     0
 76
     0
 77
     0
 78
     0
  0
ENDTAB
  0
TABLE
  2
LTYPE
 70
     4
  0
LTYPE
  2
CONTINUOUS
 70
     0
  3
Solid Line
 72
    65
 73
     0
 40
0.0
  0
LTYPE
  2
CENTER
 70
     0
  3
____ _ ____ _ ____ _ ____ _ ____ _ ____ _ ____
 72
    65
 73
     4
 40
2.0
 49
1.25
 49
-0.25
 49
0.25
 49
-0.25
  0
LTYPE
  2
HIDDEN
 70
     0
  3
_ _ _ _ _ _ _ _ _ _ _ _ _ _ _ _ _ _ _ _ _ _ _
 72
    65
 73
     2
 40
0.375
 49
0.25
 49
-0.125
  0
LTYPE
  2
PHANTOM2
 70
     0
  3
___ _ _ ___ _ _ ___ _ _ ___ _ _
 72
    65
 73
     6
 40
1.25
 49
0.625
 49
-0.125
 49
0.125
 49
-0.125
 49
0.125
 49
-0.125
  0
ENDTAB
  0
TABLE
  2
LAYER
 70
     3
  0
LAYER
  2
0
 70
     0
 62
     7
  6
CONTINUOUS
  0
LAYER
  2
1
 70
     0
 62
     1
  6
CENTER
  0
LAYER
  2
2
 70
     0
 62
     2
  6
HIDDEN
  0
ENDTAB
  0
TABLE
  2
STYLE
 70
     2
  0
STYLE
  2
STANDARD
 70
     0
 40
0.0
 41
1.0
 50
0.0
 71
     0
 42
0.2
  3
SIMPLEX
  4
BIGFONT
  0
STYLE
  2
STANDARD1
 70
     0
 40
0.0
 41
1.0
 50
0.0
 71
     0
 42
3.0
  3
txt
  4

  0
ENDTAB
  0
TABLE
  2
VIEW
 70
     0
  0
ENDTAB
  0
TABLE
  2
UCS
 70
     0
  0
ENDTAB
  0
TABLE
  2
APPID
 70
     7
  0
APPID
  2
ACAD
 70
     0
  0
APPID
  2
GENIUS_GENODEF_13
 70
     0
  0
APPID
  2
GENIUS_GENOBJ-N-FIL_13
 70
     0
  0
APPID
  2
GENIUS_GENFIL_13
 70
     0
  0
APPID
  2
GENIUS_GENOBJ-N-CHA_13
 70
     0
  0
APPID
  2
ACAD_MLEADERVER
 70
     0
  0
APPID
  2
ACAD_NAV_VCDISPLAY
 70
     0
  0
ENDTAB
  0
TABLE
  2
DIMSTYLE
 70
     1
  0
DIMSTYLE
  2
STANDARD
 70
     0
  3

  4

  5

  6

  7

 40
1.0
 41
0.18
 42
0.0625
 43
0.38
 44
0.18
 45
0.0
 46
0.0
 47
0.0
 48
0.0
140
0.18
141
0.09
142
0.0
143
25.399999999999999
144
1.0
145
0.0
146
1.0
147
0.09
 71
     0
 72
     0
 73
     1
 74
     1
 75
     0
 76
     0
 77
     0
 78
     0
170
     0
171
     2
172
     0
173
     0
174
     0
175
     0
176
     0
177
     0
178
     0
  0
ENDTAB
  0
ENDSEC
  0
SECTION
  2
BLOCKS
  0
BLOCK
  8
0
  2
$MODEL_SPACE
 70
     0
 10
0.0
 20
0.0
 30
0.0
  3
$MODEL_SPACE
  1

  0
ENDBLK
  5
16F
  8
0
  0
BLOCK
 67
     1
  8
0
  2
$PAPER_SPACE
 70
     0
 10
0.0
 20
0.0
 30
0.0
  3
$PAPER_SPACE
  1

  0
ENDBLK
  5
16D
 67
     1
  8
0
  0
ENDSEC
  0
SECTION
  2
ENTITIES
  0
ARC
  5
4C8
  8
0
 10
96.179140527388768
 20
92.738129450256153
 30
0.0
 40
9.0
 50
334.46975010646668
 51
335.74301585097157
  0
ARC
  5
4C9
  8
0
 10
96.179140527388768
 20
92.738129450256153
 30
0.0
 40
9.0
 50
204.25698414902001
 51
205.5302498935271
  0
CIRCLE
  5
4CB
  8
0
 10
96.179140527388768
 20
92.738129450256153
 30
0.0
 40
7.0
  0
CIRCLE
  5
4CC
  8
0
 10
96.179140527388768
 20
92.738129450256153
 30
0.0
 40
9.0
  0
CIRCLE
  5
4CD
  8
0
 10
96.179140527388768
 20
92.738129450256153
 30
0.0
 40
8.5476145969790132
  0
ARC
  5
4CE
  8
0
 10
96.179140527388768
 20
92.738129450256224
 30
0.0
 40
9.0
 50
273.19315436178999
 51
274.4664201062937
  0
LINE
  5
4CF
  8
0
 10
88.647386607896806
 20
87.811397988512738
 30
0.0
 11
89.297711989670347
 21
87.667857605594975
 31
0.0
  0
LINE
  5
4D0
  8
0
 10
88.057919734978782
 20
88.859241356891971
 30
0.0
 11
88.683310520218015
 21
88.630301824602157
 31
0.0
  0
ARC
  5
4D1
  8
0
 10
96.179140527388768
 20
92.738129450256153
 30
0.0
 40
9.0
 50
211.91655861710419
 51
213.18982436161019
  0
LINE
  5
4D2
  8
0
 10
88.53977013726012
 20
87.979976442793486
 30
0.0
 11
88.683310520218015
 21
88.630301824602157
 31
0.0
  0
LINE
  5
4D3
  8
0
 10
95.478267243986352
 20
83.765461138064254
 30
0.0
 11
95.039855002024638
 21
84.266781045770301
 31
0.0
  0
ARC
  5
4D4
  8
0
 10
96.179140527388768
 20
92.738129450256153
 30
0.0
 40
9.0
 50
265.53357989369982
 51
266.80684563820353
  0
LINE
  5
4D5
  8
0
 10
95.677820619711284
 20
83.752102611319955
 30
0.0
 11
96.179140527364225
 21
84.190514853277136
 31
0.0
  0
LINE
  5
4D6
  8
0
 10
96.680460435070358
 20
83.752102611315465
 30
0.0
 11
96.179140527364225
 21
84.19051485327708
 31
0.0
  0
ARC
  5
4D7
  8
0
 10
96.179140527388768
 20
92.738129450256153
 30
0.0
 40
9.0
 50
227.2357075532785
 51
228.50897329778019
  0
LINE
  5
4D8
  8
0
 10
90.216615836391043
 20
85.996594068078196
 30
0.0
 11
90.881757330016754
 21
86.029966768963334
 31
0.0
  0
LINE
  5
4D9
  8
0
 10
91.003486947137958
 20
85.375208153838742
 30
0.0
 11
90.881757330016754
 21
86.029966768963277
 31
0.0
  0
ARC
  5
4DA
  8
0
 10
96.179140527388768
 20
92.738129450256153
 30
0.0
 40
9.0
 50
234.895282021361
 51
236.16854776586339
  0
LINE
  5
4DB
  8
0
 10
91.168375259208915
 20
85.262018734976607
 30
0.0
 11
91.823133874285531
 21
85.383748352120904
 31
0.0
  0
ARC
  5
4DC
  8
0
 10
96.179140527388768
 20
92.738129450256153
 30
0.0
 40
9.0
 50
250.21443095753119
 51
251.48769670203831
  0
LINE
  5
4DD
  8
0
 10
93.321565957653775
 20
84.203829972365767
 30
0.0
 11
93.920900053875343
 21
84.494218651231506
 31
0.0
  0
LINE
  5
4DE
  8
0
 10
94.288581153248614
 20
83.938937143410556
 30
0.0
 11
93.920900053875471
 21
84.494218651231506
 31
0.0
  0
ARC
  5
4DF
  8
0
 10
96.179140527388768
 20
92.738129450256153
 30
0.0
 40
9.0
 50
257.87400542561761
 51
259.14727117011807
  0
ARC
  5
4E0
  8
0
 10
96.179140527388768
 20
92.73812945025611
 30
0.0
 40
9.0
 50
242.5548564894487
 51
243.8281222339532
  0
LINE
  5
4E1
  8
0
 10
92.031048139770633
 20
84.751056798540446
 30
0.0
 11
91.823133874285531
 21
85.383748352120904
 31
0.0
  0
LINE
  5
4E2
  8
0
 10
92.209551906944725
 20
84.660854774701477
 30
0.0
 11
92.842243460474606
 21
84.868769040203176
 31
0.0
  0
LINE
  5
4E3
  8
0
 10
93.132632139330667
 20
84.269434943929241
 30
0.0
 11
92.842243460474606
 21
84.868769040203176
 31
0.0
  0
LINE
  5
4E4
  8
0
 10
89.242132237623409
 20
87.004202699091067
 30
0.0
 11
89.297711989670347
 21
87.667857605594975
 31
0.0
  0
ARC
  5
4E5
  8
0
 10
96.179140527388768
 20
92.73812945025611
 30
0.0
 40
9.0
 50
219.57613308519021
 51
220.84939882969661
  0
LINE
  5
4E6
  8
0
 10
89.371257807938719
 20
86.851472259784714
 30
0.0
 11
90.034912714402481
 21
86.795892507772692
 31
0.0
  0
LINE
  5
4E7
  8
0
 10
90.068285415258288
 20
86.130751014102486
 30
0.0
 11
90.034912714402481
 21
86.795892507772734
 31
0.0
  0
LINE
  5
4E8
  8
0
 10
94.484573494256892
 20
83.899099946394472
 30
0.0
 11
95.039855002024638
 21
84.266781045770344
 31
0.0
  0
LINE
  5
4E9
  8
0
 10
104.30036131980459
 20
88.859241356893264
 30
0.0
 11
103.6749705345361
 21
88.630301824559126
 31
0.0
  0
ARC
  5
4EA
  8
0
 10
96.179140527388768
 20
92.738129450256153
 30
0.0
 40
9.0
 50
326.810175638381
 51
328.08344138288669
  0
ARC
  5
4EB
  8
0
 10
96.179140527388768
 20
92.73812945025611
 30
0.0
 40
9.0
 50
303.83145223412748
 51
305.1047179786317
  0
LINE
  5
4EC
  8
0
 10
101.35479410764
 20
85.375208153844767
 30
0.0
 11
101.4765237247222
 21
86.029966768932866
 31
0.0
  0
LINE
  5
4ED
  8
0
 10
102.1416652183924
 20
85.996594068077115
 30
0.0
 11
101.4765237247222
 21
86.029966768932866
 31
0.0
  0
ARC
  5
4EE
  8
0
 10
96.179140527388768
 20
92.738129450256054
 30
0.0
 40
9.0
 50
311.49102670221259
 51
312.76429244671431
  0
LINE
  5
4EF
  8
0
 10
102.28999563951891
 20
86.130751014108398
 30
0.0
 11
102.32336834034091
 21
86.795892507737506
 31
0.0
  0
LINE
  5
4F0
  8
0
 10
102.9870232468448
 20
86.851472259784487
 30
0.0
 11
102.32336834034091
 21
86.795892507737506
 31
0.0
  0
ARC
  5
4F1
  8
0
 10
96.179140527388768
 20
92.738129450256153
 30
0.0
 40
9.0
 50
319.1506011702985
 51
320.42386691480061
  0
LINE
  5
4F2
  8
0
 10
103.116148817153
 20
87.004202699096993
 30
0.0
 11
103.0605690650781
 21
87.667857605555525
 31
0.0
  0
LINE
  5
4F3
  8
0
 10
101.1899057955743
 20
85.262018734974788
 30
0.0
 11
100.5351471804498
 21
85.383748352095893
 31
0.0
  0
ARC
  5
4F4
  8
0
 10
96.179140527388768
 20
92.738129450256153
 30
0.0
 40
9.0
 50
288.51230329795442
 51
289.78556904246273
  0
ARC
  5
4F5
  8
0
 10
96.179140527388768
 20
92.73812945025611
 30
0.0
 40
9.0
 50
296.17187776603947
 51
297.44514351054403
  0
LINE
  5
4F6
  8
0
 10
99.225648915448801
 20
84.269434943934925
 30
0.0
 11
99.516037594257796
 21
84.868769040184077
 31
0.0
  0
LINE
  5
4F7
  8
0
 10
100.1487291478382
 20
84.660854774698876
 30
0.0
 11
99.516037594257796
 21
84.86876904018402
 31
0.0
  0
LINE
  5
4F8
  8
0
 10
100.327232915008
 20
84.751056798546301
 30
0.0
 11
100.5351471804498
 21
85.383748352095893
 31
0.0
  0
LINE
  5
4F9
  8
0
 10
96.880013810794594
 20
83.76546113806927
 30
0.0
 11
97.31842605270424
 21
84.266781045763707
 31
0.0
  0
LINE
  5
4FA
  8
0
 10
97.873707560525304
 20
83.899099946390493
 30
0.0
 11
97.31842605270424
 21
84.266781045763764
 31
0.0
  0
ARC
  5
4FB
  8
0
 10
96.179140527388768
 20
92.738129450256153
 30
0.0
 40
9.0
 50
280.85272882987528
 51
282.12599457437528
  0
LINE
  5
4FC
  8
0
 10
98.069699901531521
 20
83.938937143415899
 30
0.0
 11
98.437381000854884
 21
84.494218651218546
 31
0.0
  0
LINE
  5
4FD
  8
0
 10
99.036715097128877
 20
84.203829972362541
 30
0.0
 11
98.437381000854884
 21
84.494218651218546
 31
0.0
  0
LINE
  5
4FE
  8
0
 10
103.7108944468867
 20
87.811397988513306
 30
0.0
 11
103.0605690650781
 21
87.667857605555525
 31
0.0
  0
LINE
  5
4FF
  8
0
 10
103.8185109175153
 20
87.97997644279917
 30
0.0
 11
103.6749705345361
 21
88.630301824559126
 31
0.0
  0
LINE
  5
500
  8
2
 10
92.679290520206621
 20
46.39512097333801
 30
0.0
 11
92.684513238042186
 21
53.15288049406621
 31
0.0
  0
LINE
  5
501
  8
2
 10
99.677133037726378
 20
46.395120973337988
 30
0.0
 11
99.679140527388753
 21
53.150177604215678
 31
0.0
  0
LINE
  5
502
  8
2
 10
94.52914052738879
 20
46.414928594473317
 30
0.0
 11
94.529140527388904
 21
53.167821576033958
 31
0.0
  0
LINE
  5
503
  8
2
 10
94.179140527388768
 20
46.252856000256983
 30
0.0
 11
94.179140527388768
 21
52.195120973337993
 31
0.0
  0
LINE
  5
505
  8
2
 10
97.829140527388745
 20
46.414928594473317
 30
0.0
 11
97.829140527388859
 21
53.167821576033958
 31
0.0
  0
LINE
  5
506
  8
2
 10
98.179140527388782
 20
46.252856000256983
 30
0.0
 11
98.179140527388782
 21
52.195120973337993
 31
0.0
  0
LINE
  5
508
  8
1
 10
96.179140527388768
 20
45.32271574018813
 30
0.0
 11
96.179140527388768
 21
63.745085900686263
 31
0.0
  0
LINE
  5
50B
  8
2
 10
94.52914052738879
 20
46.414928594473317
 30
0.0
 11
97.829140527388745
 21
46.414928594473317
 31
0.0
  0
LINE
  5
50C
  8
0
 10
101.4291405273887
 20
46.395120973337988
 30
0.0
 11
90.929140527388753
 21
46.39512097333801
 31
0.0
  0
LINE
  5
50D
  8
0
 10
97.279541326340805
 20
101.6706049235827
 30
0.0
 11
96.750058218583717
 21
101.266656186356
 31
0.0
  0
LINE
  5
50F
  8
0
 10
91.506833715232119
 20
100.4303039837018
 30
0.0
 11
91.341642882790893
 21
99.785138165803403
 31
0.0
  0
LINE
  5
510
  8
0
 10
88.335136558488884
 20
97.150793241650433
 30
0.0
 11
88.974422244558909
 21
97.337450026552858
 31
0.0
  0
ARC
  5
511
  8
0
 10
96.179140527388768
 20
92.73812945025611
 30
0.0
 40
9.0
 50
150.63996287242509
 51
151.91322861692859
  0
LINE
  5
512
  8
0
 10
88.239020207455624
 20
96.975403256006814
 30
0.0
 11
88.425676992376467
 21
96.336117569986698
 31
0.0
  0
LINE
  5
513
  8
0
 10
87.816974254972266
 20
96.065917789748198
 30
0.0
 11
88.425676992376467
 21
96.336117569986698
 31
0.0
  0
ARC
  5
514
  8
0
 10
96.179140527388768
 20
92.738129450256153
 30
0.0
 40
9.0
 50
165.95911180859321
 51
167.2323775531014
  0
ARC
  5
515
  8
0
 10
96.179140527388768
 20
92.738129450256153
 30
0.0
 40
9.0
 50
158.29953734050849
 51
159.5728030850145
  0
LINE
  5
516
  8
0
 10
87.745092700409145
 20
95.879281667538237
 30
0.0
 11
88.015292480659014
 21
95.270578930186105
 31
0.0
  0
LINE
  5
517
  8
0
 10
87.448035006690247
 20
94.92165787609099
 30
0.0
 11
88.015292480659127
 21
95.270578930186105
 31
0.0
  0
LINE
  5
518
  8
0
 10
87.234902543268944
 20
93.738432845946022
 30
0.0
 11
87.750592030740904
 21
94.159848669421194
 31
0.0
  0
ARC
  5
519
  8
0
 10
96.179140527388768
 20
92.738129450256153
 30
0.0
 40
9.0
 50
173.6186862766798
 51
174.89195202118509
  0
LINE
  5
51A
  8
0
 10
87.214883404948864
 20
93.539437282927906
 30
0.0
 11
87.636299228421308
 21
93.023747795509109
 31
0.0
  0
LINE
  5
51B
  8
0
 10
87.181380218567156
 20
92.537357378007357
 30
0.0
 11
87.636299228421308
 21
93.023747795509109
 31
0.0
  0
ARC
  5
51C
  8
0
 10
96.179140527388768
 20
92.738129450256153
 30
0.0
 40
9.0
 50
181.2782607447667
 51
182.5515264892708
  0
LINE
  5
51D
  8
0
 10
87.188063213973464
 20
92.337469065261473
 30
0.0
 11
87.674453631465539
 21
91.882550055459717
 31
0.0
  0
LINE
  5
51E
  8
0
 10
87.288423139737233
 20
91.339864692454285
 30
0.0
 11
87.674453631465539
 21
91.882550055459717
 31
0.0
  0
LINE
  5
51F
  8
0
 10
87.973732782488824
 20
89.040659539636749
 30
0.0
 11
88.202672314822948
 21
89.66605032490537
 31
0.0
  0
ARC
  5
520
  8
0
 10
96.179140527388768
 20
92.738129450256153
 30
0.0
 40
9.0
 50
196.59740968093541
 51
197.8706754254404
  0
LINE
  5
521
  8
0
 10
87.321689010658588
 20
91.142650641657156
 30
0.0
 11
87.864374373647252
 21
90.756620149979355
 31
0.0
  0
LINE
  5
522
  8
0
 10
87.554121123314985
 20
90.167324074629718
 30
0.0
 11
87.864374373647252
 21
90.756620149979355
 31
0.0
  0
LINE
  5
523
  8
0
 10
87.613376239496574
 20
89.976303575189846
 30
0.0
 11
88.202672314822948
 21
89.66605032490537
 31
0.0
  0
ARC
  5
524
  8
0
 10
96.179140527388768
 20
92.73812945025611
 30
0.0
 40
9.0
 50
188.93783521284979
 51
190.21110095735381
  0
LINE
  5
525
  8
0
 10
87.401670976641412
 20
94.727106143336925
 30
0.0
 11
87.750592030740904
 21
94.159848669421251
 31
0.0
  0
CIRCLE
  5
526
  8
0
 10
93.879140527388813
 20
92.738129450255201
 30
0.0
 40
0.5
  0
CIRCLE
  5
527
  8
0
 10
91.579140527388859
 20
92.738129450254164
 30
0.0
 40
0.5
  0
CIRCLE
  5
528
  8
0
 10
96.179140527388768
 20
92.738129450256153
 30
0.0
 40
0.5
  0
LINE
  5
529
  8
0
 10
90.680215781394168
 20
99.862862893542854
 30
0.0
 11
91.341642882790893
 21
99.785138165803403
 31
0.0
  0
ARC
  5
52A
  8
0
 10
96.179140527388768
 20
92.73812945025611
 30
0.0
 40
9.0
 50
127.6612394681687
 51
128.9345052126744
  0
LINE
  5
52B
  8
0
 10
90.523255904341454
 20
99.738912915747107
 30
0.0
 11
90.445531176638269
 21
99.07748581438932
 31
0.0
  0
ARC
  5
52C
  8
0
 10
96.179140527388768
 20
92.738129450256153
 30
0.0
 40
9.0
 50
135.32081393625381
 51
136.59407968075709
  0
LINE
  5
52D
  8
0
 10
89.640607488539331
 20
98.922592700999132
 30
0.0
 11
89.651735865181536
 21
98.256707498475123
 31
0.0
  0
LINE
  5
52E
  8
0
 10
88.993275298658318
 20
98.156924603657274
 30
0.0
 11
89.651735865181536
 21
98.256707498475123
 31
0.0
  0
ARC
  5
52F
  8
0
 10
96.179140527388768
 20
92.738129450256153
 30
0.0
 40
9.0
 50
142.98038840433691
 51
144.2536541488449
  0
LINE
  5
530
  8
0
 10
88.87463934971629
 20
97.995910593028967
 30
0.0
 11
88.974422244558909
 21
97.337450026552858
 31
0.0
  0
LINE
  5
531
  8
0
 10
89.779645974070831
 20
99.066357437777981
 30
0.0
 11
90.445531176638269
 21
99.07748581438932
 31
0.0
  0
LINE
  5
534
  8
2
 10
94.52914052738879
 20
46.414928594473317
 30
0.0
 11
94.079140527388745
 21
46.195120973338
 31
0.0
  0
ARC
  5
535
  8
0
 10
96.179140527388768
 20
92.738129450256153
 30
0.0
 40
9.0
 50
89.363367127741625
 51
90.636632872251852
  0
LINE
  5
536
  8
0
 10
96.079140527386926
 20
101.737573877548
 30
0.0
 11
95.608222836242703
 21
101.2666561863592
 31
0.0
  0
LINE
  5
537
  8
0
 10
95.078739728432538
 20
101.67060492358689
 30
0.0
 11
95.608222836242817
 21
101.2666561863592
 31
0.0
  0
ARC
  5
538
  8
0
 10
96.179140527388768
 20
92.738129450256153
 30
0.0
 40
9.0
 50
97.022941595828414
 51
98.296207340331847
  0
LINE
  5
539
  8
0
 10
96.279140527386858
 20
101.73757387755271
 30
0.0
 11
96.750058218583717
 21
101.266656186356
 31
0.0
  0
LINE
  5
53A
  8
0
 10
93.897975607804483
 20
101.44423573318529
 30
0.0
 11
94.476575493625546
 21
101.1144644247122
 31
0.0
  0
ARC
  5
53B
  8
0
 10
96.179140527388768
 20
92.738129450256153
 30
0.0
 40
9.0
 50
104.6825160639158
 51
105.955781808418
  0
ARC
  5
53C
  8
0
 10
96.179140527388768
 20
92.738129450256153
 30
0.0
 40
9.0
 50
112.3420905319993
 51
113.61535627650331
  0
LINE
  5
53D
  8
0
 10
94.88052423080228
 20
101.6439475325075
 30
0.0
 11
94.476575493625546
 21
101.1144644247122
 31
0.0
  0
ARC
  5
53E
  8
0
 10
96.179140527388768
 20
92.738129450256153
 30
0.0
 40
9.0
 50
120.00166500008631
 51
121.27493074458739
  0
LINE
  5
53F
  8
0
 10
91.678914031081703
 20
100.53222731222429
 30
0.0
 11
92.324079849013856
 21
100.3670364797418
 31
0.0
  0
LINE
  5
540
  8
0
 10
93.705081772794884
 20
101.39139665280641
 30
0.0
 11
93.3753104643705
 21
100.812796767007
 31
0.0
  0
LINE
  5
541
  8
0
 10
92.757918929208245
 20
101.0625058699132
 30
0.0
 11
93.3753104643705
 21
100.8127967670069
 31
0.0
  0
LINE
  5
542
  8
0
 10
92.573788951874803
 20
100.9844280148762
 30
0.0
 11
92.324079849013856
 21
100.3670364797418
 31
0.0
  0
LINE
  5
543
  8
0
 10
100.85144733954461
 20
100.4303039837078
 30
0.0
 11
101.016638172027
 21
99.785138165775663
 31
0.0
  0
ARC
  5
544
  8
0
 10
96.179140527388768
 20
92.738129450256153
 30
0.0
 40
9.0
 50
12.7676224468924
 51
14.04088819139873
  0
LINE
  5
545
  8
0
 10
105.0698579150362
 20
91.339864692458718
 30
0.0
 11
104.68382742330709
 21
91.882550055410888
 31
0.0
  0
LINE
  5
546
  8
0
 10
105.1702178408089
 20
92.337469065264997
 30
0.0
 11
104.68382742330709
 21
91.882550055410945
 31
0.0
  0
LINE
  5
547
  8
0
 10
105.1769008362057
 20
92.537357378011166
 30
0.0
 11
104.7219818263578
 21
93.023747795460167
 31
0.0
  0
LINE
  5
548
  8
0
 10
105.14339764983301
 20
93.539437282932056
 30
0.0
 11
104.7219818263578
 21
93.023747795460125
 31
0.0
  0
LINE
  5
549
  8
0
 10
105.1233785115034
 20
93.738432845949205
 30
0.0
 11
104.6076890240448
 21
94.159848669372877
 31
0.0
  0
LINE
  5
54A
  8
0
 10
105.0365920441243
 20
91.142650641659941
 30
0.0
 11
104.4939066811189
 21
90.756620149931607
 31
0.0
  0
LINE
  5
54B
  8
0
 10
104.9566100781399
 20
94.727106143341643
 30
0.0
 11
104.6076890240448
 21
94.159848669372877
 31
0.0
  0
CIRCLE
  5
54C
  8
0
 10
100.77914052738861
 20
92.738129450256153
 30
0.0
 40
0.5
  0
CIRCLE
  5
54D
  8
0
 10
98.479140527388722
 20
92.738129450256153
 30
0.0
 40
0.5
  0
LINE
  5
54E
  8
0
 10
104.9102460480817
 20
94.921657876093505
 30
0.0
 11
104.3429885741329
 21
95.270578930139266
 31
0.0
  0
LINE
  5
54F
  8
0
 10
104.6131883543714
 20
95.879281667543367
 30
0.0
 11
104.3429885741329
 21
95.270578930139209
 31
0.0
  0
ARC
  5
550
  8
0
 10
96.179140527388768
 20
92.738129450256153
 30
0.0
 40
9.0
 50
20.42719691497723
 51
21.70046265948541
  0
LINE
  5
551
  8
0
 10
104.5413067997996
 20
96.06591778974996
 30
0.0
 11
103.9326040624217
 21
96.336117569942246
 31
0.0
  0
LINE
  5
552
  8
0
 10
104.1192608473242
 20
96.975403256012328
 30
0.0
 11
103.9326040624217
 21
96.336117569942246
 31
0.0
  0
ARC
  5
553
  8
0
 10
96.179140527388768
 20
92.73812945025611
 30
0.0
 40
9.0
 50
28.08677138306264
 51
29.360037127565992
  0
LINE
  5
554
  8
0
 10
104.384548272286
 20
89.040659539642093
 30
0.0
 11
104.15560873993709
 21
89.666050324859611
 31
0.0
  0
LINE
  5
555
  8
0
 10
104.7449048152865
 20
89.976303575191935
 30
0.0
 11
104.15560873993709
 21
89.666050324859555
 31
0.0
  0
ARC
  5
556
  8
0
 10
96.179140527388768
 20
92.738129450256153
 30
0.0
 40
9.0
 50
342.12932457455332
 51
343.40259031905811
  0
LINE
  5
557
  8
0
 10
104.8041599314591
 20
90.167324074634678
 30
0.0
 11
104.4939066811189
 21
90.756620149931607
 31
0.0
  0
LINE
  5
558
  8
0
 10
103.36500575611321
 20
98.156924603657373
 30
0.0
 11
102.7065451896277
 21
98.256707498437663
 31
0.0
  0
LINE
  5
559
  8
0
 10
102.717673566239
 20
98.922592701005044
 30
0.0
 11
102.7065451896277
 21
98.256707498437663
 31
0.0
  0
ARC
  5
55A
  8
0
 10
96.179140527388768
 20
92.738129450256153
 30
0.0
 40
9.0
 50
43.40592031923336
 51
44.679186063736957
  0
LINE
  5
55B
  8
0
 10
102.57863508070071
 20
99.066357437777299
 30
0.0
 11
101.9127498781756
 21
99.077485814356393
 31
0.0
  0
LINE
  5
55C
  8
0
 10
101.835025150436
 20
99.738912915753133
 30
0.0
 11
101.9127498781756
 21
99.077485814356393
 31
0.0
  0
ARC
  5
55D
  8
0
 10
96.179140527388768
 20
92.738129450256153
 30
0.0
 40
9.0
 50
51.06549478731835
 51
52.338760531823993
  0
LINE
  5
55E
  8
0
 10
101.6780652733774
 20
99.862862893541433
 30
0.0
 11
101.016638172027
 21
99.785138165775663
 31
0.0
  0
LINE
  5
55F
  8
0
 10
104.0231444962827
 20
97.150793241651343
 30
0.0
 11
103.383858810245
 21
97.337450026511533
 31
0.0
  0
LINE
  5
560
  8
0
 10
103.48364170506279
 20
97.995910593034694
 30
0.0
 11
103.383858810245
 21
97.337450026511604
 31
0.0
  0
ARC
  5
561
  8
0
 10
96.179140527388768
 20
92.73812945025611
 30
0.0
 40
9.0
 50
35.746345851149542
 51
37.019611595653771
  0
ARC
  5
562
  8
0
 10
96.179140527388768
 20
92.738129450256153
 30
0.0
 40
9.0
 50
357.44847351072269
 51
358.72173925522679
  0
ARC
  5
563
  8
0
 10
96.179140527388768
 20
92.738129450256153
 30
0.0
 40
9.0
 50
5.1080479788083517
 51
6.3813137233135837
  0
ARC
  5
564
  8
0
 10
96.179140527388768
 20
92.73812945025611
 30
0.0
 40
9.0
 50
349.78889904263667
 51
351.06216478714401
  0
LINE
  5
566
  8
2
 10
97.829140527388745
 20
46.414928594473317
 30
0.0
 11
98.27914052738879
 21
46.195120973338
 31
0.0
  0
ARC
  5
567
  8
0
 10
96.179140527388768
 20
92.73812945025611
 30
0.0
 40
9.0
 50
66.384643723489049
 51
67.657909467993193
  0
ARC
  5
568
  8
0
 10
96.179140527388768
 20
92.738129450256153
 30
0.0
 40
9.0
 50
74.044218191575609
 51
75.317483936077011
  0
LINE
  5
569
  8
0
 10
98.460305446968164
 20
101.4442357331816
 30
0.0
 11
97.881705561199965
 21
101.1144644247025
 31
0.0
  0
LINE
  5
56A
  8
0
 10
97.477756823972314
 20
101.6439475325126
 30
0.0
 11
97.881705561199965
 21
101.1144644247025
 31
0.0
  0
ARC
  5
56B
  8
0
 10
96.179140527388768
 20
92.73812945025611
 30
0.0
 40
9.0
 50
81.703792659661957
 51
82.977058404165035
  0
ARC
  5
56C
  8
0
 10
96.179140527388768
 20
92.738129450256153
 30
0.0
 40
9.0
 50
58.725069255405131
 51
59.998334999906518
  0
LINE
  5
56D
  8
0
 10
100.6793670236902
 20
100.53222731222201
 30
0.0
 11
100.03420120580741
 21
100.3670364797197
 31
0.0
  0
LINE
  5
56E
  8
0
 10
99.784492102901154
 20
100.984428014882
 30
0.0
 11
100.03420120580741
 21
100.3670364797197
 31
0.0
  0
LINE
  5
56F
  8
0
 10
99.600362125564061
 20
101.0625058699102
 30
0.0
 11
98.982970590453419
 21
100.8127967669908
 31
0.0
  0
LINE
  5
570
  8
0
 10
98.653199281980278
 20
101.39139665281201
 30
0.0
 11
98.982970590453419
 21
100.8127967669908
 31
0.0
  0
LINE
  5
571
  8
2
 10
97.679140527388768
 20
55.150177604215678
 30
0.0
 11
94.684899948306054
 21
55.150177604215571
 31
0.0
  0
LINE
  5
572
  8
2
 10
96.179140527388768
 20
54.120449520196843
 30
0.0
 11
97.829140527388745
 21
53.167821576033958
 31
0.0
  0
LINE
  5
573
  8
2
 10
97.829140527388745
 20
53.167821576033958
 30
0.0
 11
94.52914052738879
 21
53.167821576033958
 31
0.0
  0
LINE
  5
574
  8
2
 10
98.179140527388782
 20
52.195120973337993
 30
0.0
 11
94.179140527388768
 21
52.195120973337993
 31
0.0
  0
ARC
  5
577
  8
2
 10
96.179140527388768
 20
78.238642100098431
 30
0.0
 40
17.96352112676038
 50
270.0
 51
292.93450325406872
  0
LINE
  5
578
  8
0
 10
87.679140527388768
 20
61.695120973338
 30
0.0
 11
104.6791405273887
 21
61.695120973338
 31
0.0
  0
LINE
  5
579
  8
0
 10
96.179140527388768
 20
59.495120973337961
 30
0.0
 11
96.179140527388768
 21
61.195120973338
 31
0.0
  0
LINE
  5
57A
  8
0
 10
96.779140527388677
 20
59.495120973337961
 30
0.0
 11
96.779140527388677
 21
61.195120973338
 31
0.0
  0
LINE
  5
57B
  8
0
 10
87.179140527388753
 20
59.210109481788457
 30
0.0
 11
87.179140527388753
 21
61.195120973338
 31
0.0
  0
LINE
  5
57C
  8
0
 10
87.879140527388813
 20
59.495120973337961
 30
0.0
 11
87.879140527388813
 21
61.195120973338
 31
0.0
  0
LINE
  5
57D
  8
0
 10
88.579140527388859
 20
59.495120973337961
 30
0.0
 11
88.579140527388745
 21
61.195120973338
 31
0.0
  0
LINE
  5
57E
  8
0
 10
89.27914052738879
 20
59.495120973337961
 30
0.0
 11
89.27914052738879
 21
61.195120973338
 31
0.0
  0
LINE
  5
57F
  8
0
 10
89.979140527388722
 20
59.495120973337961
 30
0.0
 11
89.979140527388722
 21
61.195120973338
 31
0.0
  0
LINE
  5
580
  8
0
 10
90.679140527388753
 20
59.495120973337961
 30
0.0
 11
90.679140527388753
 21
61.195120973338
 31
0.0
  0
LINE
  5
581
  8
0
 10
91.379140527388813
 20
59.495120973337961
 30
0.0
 11
91.379140527388813
 21
61.195120973338
 31
0.0
  0
LINE
  5
582
  8
0
 10
92.079140527388844
 20
59.495120973337961
 30
0.0
 11
92.079140527388844
 21
61.195120973338
 31
0.0
  0
LINE
  5
583
  8
0
 10
92.77914052738879
 20
59.495120973337961
 30
0.0
 11
92.77914052738879
 21
61.195120973338
 31
0.0
  0
LINE
  5
584
  8
0
 10
93.479140527388836
 20
59.495120973337961
 30
0.0
 11
93.479140527388722
 21
61.195120973338
 31
0.0
  0
LINE
  5
585
  8
0
 10
94.179140527388768
 20
59.495120973337961
 30
0.0
 11
94.179140527388768
 21
61.195120973338
 31
0.0
  0
LINE
  5
586
  8
0
 10
94.879140527388813
 20
59.495120973337961
 30
0.0
 11
94.879140527388813
 21
61.195120973338
 31
0.0
  0
LINE
  5
587
  8
0
 10
95.579140527388844
 20
59.495120973337961
 30
0.0
 11
95.579140527388844
 21
61.195120973338
 31
0.0
  0
LINE
  5
588
  8
0
 10
90.410313858960606
 20
56.963130618626622
 30
0.0
 11
88.513266246204239
 21
57.471442994468163
 31
0.0
  0
LINE
  5
589
  8
0
 10
87.179140527388753
 20
59.495120973338011
 30
0.0
 11
105.1791405273887
 21
59.495120973337919
 31
0.0
  0
ARC
  5
58A
  8
0
 10
88.979140527388836
 20
59.210109481788457
 30
0.0
 40
1.8
 50
180.0
 51
254.99999999999829
1001
GENIUS_GENODEF_13
1002
{
1000
HIER
1070
     0
1002
}
1002
{
1000
MANEDIT
1070
     0
1002
}
1002
{
1000
NOSEL
1070
     0
1002
}
1002
{
1000
BEHIND
1070
     0
1002
}
1002
{
1000
REACTOR
1002
}
1001
GENIUS_GENOBJ-N-FIL_13
1002
{
1000
OWNER
1000
GEN
1002
}
  0
LINE
  5
58B
  8
2
 10
94.686058335371627
 20
55.151334202150679
 30
0.0
 11
92.684513238042186
 21
53.15288049406621
 31
0.0
1001
GENIUS_GENFIL_13
1070
     0
1040
2.0
1040
2.0
1040
20.0
1040
0.0
1002
{
1002
}
1001
GENIUS_GENODEF_13
1002
{
1000
HIER
1070
     0
1002
}
1002
{
1000
MANEDIT
1070
     0
1002
}
1002
{
1000
NOSEL
1070
     0
1002
}
1002
{
1000
BEHIND
1070
     0
1002
}
1002
{
1000
REACTOR
1002
}
1001
GENIUS_GENOBJ-N-CHA_13
1002
{
1000
OWNER
1000
GEN
1002
}
  0
LINE
  5
58D
  8
2
 10
94.179140527388768
 20
52.195120973337993
 30
0.0
 11
94.52914052738879
 21
52.895120973337981
 31
0.0
  0
LINE
  5
58E
  8
2
 10
96.179140527388768
 20
54.120449520196843
 30
0.0
 11
94.52914052738879
 21
53.167821576033958
 31
0.0
  0
LINE
  5
590
  8
0
 10
87.179140527388753
 20
61.195120973338
 30
0.0
 11
105.1791405273887
 21
61.195120973338
 31
0.0
  0
LINE
  5
591
  8
0
 10
87.679140527388768
 20
61.695120973338
 30
0.0
 11
87.179140527388753
 21
61.195120973338
 31
0.0
1001
GENIUS_GENFIL_13
1070
     0
1040
0.5
1040
0.5
1040
0.0
1040
0.0
1002
{
1002
}
1001
GENIUS_GENODEF_13
1002
{
1000
HIER
1070
     0
1002
}
1002
{
1000
MANEDIT
1070
     0
1002
}
1002
{
1000
NOSEL
1070
     0
1002
}
1002
{
1000
BEHIND
1070
     0
1002
}
1002
{
1000
REACTOR
1002
}
1001
GENIUS_GENOBJ-N-CHA_13
1002
{
1000
OWNER
1000
GEN
1002
}
  0
ARC
  5
592
  8
2
 10
96.179140527388768
 20
78.238642100098431
 30
0.0
 40
17.96352112676038
 50
247.06549674593131
 51
270.0
  0
LINE
  5
593
  8
0
 10
97.479140527388722
 20
59.495120973337961
 30
0.0
 11
97.479140527388722
 21
61.195120973338
 31
0.0
  0
LINE
  5
594
  8
0
 10
98.179140527388782
 20
59.495120973337961
 30
0.0
 11
98.179140527388782
 21
61.195120973338
 31
0.0
  0
LINE
  5
595
  8
0
 10
98.879140527388714
 20
59.495120973337961
 30
0.0
 11
98.879140527388813
 21
61.195120973338
 31
0.0
  0
LINE
  5
596
  8
0
 10
99.579140527388745
 20
59.495120973337961
 30
0.0
 11
99.579140527388745
 21
61.195120973338
 31
0.0
  0
LINE
  5
597
  8
0
 10
100.27914052738871
 20
59.495120973337961
 30
0.0
 11
100.27914052738871
 21
61.195120973338
 31
0.0
  0
LINE
  5
598
  8
0
 10
100.97914052738869
 20
59.495120973337961
 30
0.0
 11
100.97914052738869
 21
61.195120973338
 31
0.0
  0
LINE
  5
599
  8
0
 10
101.6791405273888
 20
59.495120973337961
 30
0.0
 11
101.6791405273888
 21
61.195120973338
 31
0.0
  0
LINE
  5
59A
  8
0
 10
102.3791405273888
 20
59.495120973337961
 30
0.0
 11
102.3791405273888
 21
61.195120973338
 31
0.0
  0
LINE
  5
59B
  8
0
 10
103.0791405273887
 20
59.495120973337961
 30
0.0
 11
103.0791405273887
 21
61.195120973338
 31
0.0
  0
LINE
  5
59C
  8
0
 10
103.77914052738871
 20
59.495120973337961
 30
0.0
 11
103.7791405273888
 21
61.195120973338
 31
0.0
  0
LINE
  5
59D
  8
0
 10
104.47914052738869
 20
59.495120973337961
 30
0.0
 11
104.47914052738869
 21
61.195120973338
 31
0.0
  0
LINE
  5
59E
  8
0
 10
105.1791405273887
 20
59.210109481788457
 30
0.0
 11
105.1791405273887
 21
61.195120973338
 31
0.0
  0
ARC
  5
59F
  8
0
 10
103.3791405273887
 20
59.210109481788457
 30
0.0
 40
1.8
 50
285.00000000000171
 51
0.0
1001
GENIUS_GENODEF_13
1002
{
1000
HIER
1070
     0
1002
}
1002
{
1000
MANEDIT
1070
     0
1002
}
1002
{
1000
NOSEL
1070
     0
1002
}
1002
{
1000
BEHIND
1070
     0
1002
}
1002
{
1000
REACTOR
1002
}
1001
GENIUS_GENOBJ-N-FIL_13
1002
{
1000
OWNER
1000
GEN
1002
}
  0
LINE
  5
5A0
  8
2
 10
97.679140527388768
 20
55.150177604215678
 30
0.0
 11
99.679140527388753
 21
53.150177604215678
 31
0.0
1001
GENIUS_GENFIL_13
1070
     0
1040
2.0
1040
2.0
1040
20.0
1040
0.0
1002
{
1002
}
1001
GENIUS_GENODEF_13
1002
{
1000
HIER
1070
     0
1002
}
1002
{
1000
MANEDIT
1070
     0
1002
}
1002
{
1000
NOSEL
1070
     0
1002
}
1002
{
1000
BEHIND
1070
     0
1002
}
1002
{
1000
REACTOR
1002
}
1001
GENIUS_GENOBJ-N-CHA_13
1002
{
1000
OWNER
1000
GEN
1002
}
  0
LINE
  5
5A1
  8
2
 10
98.179140527388782
 20
52.195120973337993
 30
0.0
 11
97.829140527388745
 21
52.895120973337981
 31
0.0
  0
LINE
  5
5A2
  8
0
 10
101.9479671958169
 20
56.9631306186266
 30
0.0
 11
103.8450148085733
 21
57.471442994468163
 31
0.0
  0
LINE
  5
5A4
  8
0
 10
104.6791405273887
 20
61.695120973338
 30
0.0
 11
105.1791405273887
 21
61.195120973338
 31
0.0
  0
LINE
  5
5A5
  8
1
 10
96.179140527388768
 20
104.2381294502561
 30
0.0
 11
96.179140527388768
 21
81.238129450256167
 31
0.0
  0
LINE
  5
5A6
  8
1
 10
107.6791405273887
 20
92.738129450256153
 30
0.0
 11
84.679140527388753
 21
92.738129450256153
 31
0.0
  0
LINE
  5
5A7
  8
0
 10
101.56043760018029
 20
56.695120973337993
 30
0.0
 11
90.779989282454352
 21
56.695120973337993
 31
0.0
  0
LINE
  5
5A8
  8
0
 10
101.4291405273887
 20
46.395120973337988
 30
0.0
 11
101.4291405273887
 21
56.286982540224272
 31
0.0
  0
ARC
  5
5AB
  8
0
 10
102.1291405273887
 20
56.286982540224272
 30
0.0
 40
0.7
 50
105.0000000000032
 51
180.0
  0
LINE
  5
5AC
  8
0
 10
90.929140527388753
 20
46.395120973337988
 30
0.0
 11
90.929140527388796
 21
56.286982540224272
 31
0.0
  0
ARC
  5
5AD
  8
0
 10
90.229140527388779
 20
56.286982540224272
 30
0.0
 40
0.7
 50
0.000000000000007
 51
74.999999999996831
  0
LINE
  5
5AE
  8
0
 10
99.677133037726378
 20
46.195120973337993
 30
0.0
 11
92.679290520206621
 21
46.195120973338
 31
0.0
  0
LINE
  5
5B0
  8
0
 10
99.677133037726378
 20
46.395120973337988
 30
0.0
 11
99.677133037726378
 21
46.195120973337993
 31
0.0
  0
LINE
  5
5B1
  8
0
 10
92.679290520206621
 20
46.39512097333801
 30
0.0
 11
92.679290520206621
 21
46.195120973338
 31
0.0
  0
TEXT
  5
6C7
  8
0
 62
     3
 10
0.0
 20
0.0
 30
0.0
 40
10.0
  1
EKK18-GR
  7
STANDARD1
  0
ENDSEC
  0
EOF
