  0
SECTION
  2
HEADER
  9
$ACADVER
  1
AC1009
  9
$INSBASE
 10
0.0
 20
0.0
 30
0.0
  9
$EXTMIN
 10
0.0
 20
-1.4802182810368341
 30
0.0
  9
$EXTMAX
 10
290.50000000000011
 20
167.5
 30
0.0
  9
$LIMMIN
 10
0.0
 20
0.0
  9
$LIMMAX
 10
279.39999999999998
 20
215.90000000000001
  9
$ORTHOMODE
 70
     1
  9
$REGENMODE
 70
     1
  9
$FILLMODE
 70
     1
  9
$QTEXTMODE
 70
     0
  9
$MIRRTEXT
 70
     1
  9
$DRAGMODE
 70
     2
  9
$LTSCALE
 40
5.0
  9
$OSMODE
 70
    37
  9
$ATTMODE
 70
     1
  9
$TEXTSIZE
 40
2.5
  9
$TRACEWID
 40
1.0
  9
$TEXTSTYLE
  7
STANDARD
  9
$CLAYER
  8
0
  9
$CELTYPE
  6
BYLAYER
  9
$CECOLOR
 62
   256
  9
$DIMSCALE
 40
1.0
  9
$DIMASZ
 40
6.0
  9
$DIMEXO
 40
1.0
  9
$DIMDLI
 40
3.75
  9
$DIMRND
 40
0.0
  9
$DIMDLE
 40
0.0
  9
$DIMEXE
 40
1.0
  9
$DIMTP
 40
0.0
  9
$DIMTM
 40
0.0
  9
$DIMTXT
 40
3.5
  9
$DIMCEN
 40
2.5
  9
$DIMTSZ
 40
0.0
  9
$DIMTOL
 70
     0
  9
$DIMLIM
 70
     0
  9
$DIMTIH
 70
     1
  9
$DIMTOH
 70
     1
  9
$DIMSE1
 70
     0
  9
$DIMSE2
 70
     0
  9
$DIMTAD
 70
     1
  9
$DIMZIN
 70
     0
  9
$DIMBLK
  1

  9
$DIMASO
 70
     1
  9
$DIMSHO
 70
     1
  9
$DIMPOST
  1

  9
$DIMAPOST
  1

  9
$DIMALT
 70
     0
  9
$DIMALTD
 70
     3
  9
$DIMALTF
 40
0.0393700787401575
  9
$DIMLFAC
 40
1.0
  9
$DIMTOFL
 70
     1
  9
$DIMTVP
 40
0.0
  9
$DIMTIX
 70
     0
  9
$DIMSOXD
 70
     0
  9
$DIMSAH
 70
     0
  9
$DIMBLK1
  1

  9
$DIMBLK2
  1

  9
$DIMSTYLE
  2
ISO-25
  9
$DIMCLRD
 70
     0
  9
$DIMCLRE
 70
     0
  9
$DIMCLRT
 70
     0
  9
$DIMTFAC
 40
1.0
  9
$DIMGAP
 40
1.524
  9
$LUNITS
 70
     2
  9
$LUPREC
 70
     1
  9
$SKETCHINC
 40
1.0
  9
$FILLETRAD
 40
10.0
  9
$AUNITS
 70
     0
  9
$AUPREC
 70
     1
  9
$MENU
  1
.
  9
$ELEVATION
 40
0.0
  9
$PELEVATION
 40
0.0
  9
$THICKNESS
 40
0.0
  9
$LIMCHECK
 70
     0
  9
$BLIPMODE
 70
     0
  9
$CHAMFERA
 40
10.0
  9
$CHAMFERB
 40
10.0
  9
$SKPOLY
 70
     0
  9
$TDCREATE
 40
2455132.3992460528
  9
$TDUPDATE
 40
2457165.4714721758
  9
$TDINDWG
 40
0.2479043171
  9
$TDUSRTIMER
 40
0.2479043171
  9
$USRTIMER
 70
     1
  9
$ANGBASE
 50
0.0
  9
$ANGDIR
 70
     0
  9
$PDMODE
 70
     0
  9
$PDSIZE
 40
-1.0
  9
$PLINEWID
 40
0.0
  9
$COORDS
 70
     1
  9
$SPLFRAME
 70
     0
  9
$SPLINETYPE
 70
     6
  9
$SPLINESEGS
 70
     8
  9
$ATTDIA
 70
     0
  9
$ATTREQ
 70
     1
  9
$HANDLING
 70
     1
  9
$HANDSEED
  5
504B
  9
$SURFTAB1
 70
     6
  9
$SURFTAB2
 70
     6
  9
$SURFTYPE
 70
     6
  9
$SURFU
 70
     6
  9
$SURFV
 70
     6
  9
$UCSNAME
  2

  9
$UCSORG
 10
0.0
 20
0.0
 30
0.0
  9
$UCSXDIR
 10
1.0
 20
0.0
 30
0.0
  9
$UCSYDIR
 10
0.0
 20
1.0
 30
0.0
  9
$PUCSNAME
  2

  9
$PUCSORG
 10
0.0
 20
0.0
 30
0.0
  9
$PUCSXDIR
 10
1.0
 20
0.0
 30
0.0
  9
$PUCSYDIR
 10
0.0
 20
1.0
 30
0.0
  9
$USERI1
 70
     0
  9
$USERI2
 70
     0
  9
$USERI3
 70
     0
  9
$USERI4
 70
     0
  9
$USERI5
 70
     0
  9
$USERR1
 40
0.0
  9
$USERR2
 40
0.0
  9
$USERR3
 40
0.0
  9
$USERR4
 40
0.0
  9
$USERR5
 40
0.0
  9
$WORLDVIEW
 70
     1
  9
$SHADEDGE
 70
     3
  9
$SHADEDIF
 70
    70
  9
$TILEMODE
 70
     1
  9
$MAXACTVP
 70
    64
  9
$PLIMCHECK
 70
     0
  9
$PEXTMIN
 10
1.0000000000000000E+020
 20
1.0000000000000000E+020
 30
1.0000000000000000E+020
  9
$PEXTMAX
 10
-1.0000000000000000E+020
 20
-1.0000000000000000E+020
 30
-1.0000000000000000E+020
  9
$PLIMMIN
 10
0.0
 20
0.0
  9
$PLIMMAX
 10
420.0
 20
297.0
  9
$UNITMODE
 70
     0
  9
$VISRETAIN
 70
     1
  9
$PLINEGEN
 70
     0
  9
$PSLTSCALE
 70
     1
  0
ENDSEC
  0
SECTION
  2
TABLES
  0
TABLE
  2
VPORT
 70
     1
  0
VPORT
  2
*ACTIVE
 70
     0
 10
0.0
 20
0.0
 11
1.0
 21
1.0
 12
208.86752136752139
 22
115.0
 13
0.0
 23
0.0
 14
10.0
 24
10.0
 15
10.0
 25
10.0
 16
0.0
 26
0.0
 36
1.0
 17
0.0
 27
0.0
 37
0.0
 40
230.0
 41
1.816239316239316
 42
50.0
 43
0.0
 44
0.0
 50
0.0
 51
0.0
 71
     0
 72
  2000
 73
     1
 74
     3
 75
     0
 76
     0
 77
     0
 78
     0
  0
ENDTAB
  0
TABLE
  2
LTYPE
 70
     2
  0
LTYPE
  2
CONTINUOUS
 70
     0
  3
Solid line
 72
    65
 73
     0
 40
0.0
  0
LTYPE
  2
CENTER
 70
     0
  3
____ _ ____ _ ____ _ ____ _ ____ _ ____ _ ____
 72
    65
 73
     4
 40
2.0
 49
1.25
 49
-0.25
 49
0.25
 49
-0.25
  0
ENDTAB
  0
TABLE
  2
LAYER
 70
     4
  0
LAYER
  2
0
 70
     0
 62
     7
  6
CONTINUOUS
  0
LAYER
  2
1
 70
     0
 62
     1
  6
CENTER
  0
LAYER
  2
DEFPOINTS
 70
     0
 62
     7
  6
CONTINUOUS
  0
LAYER
  2
3
 70
     0
 62
     3
  6
CONTINUOUS
  0
ENDTAB
  0
TABLE
  2
STYLE
 70
     2
  0
STYLE
  2
STANDARD
 70
     0
 40
0.0
 41
1.0
 50
0.0
 71
     0
 42
2.5
  3
txt
  4
bigfont
  0
STYLE
  2
STANDARD1
 70
     0
 40
0.0
 41
1.0
 50
0.0
 71
     0
 42
3.0
  3
txt
  4

  0
ENDTAB
  0
TABLE
  2
VIEW
 70
     0
  0
ENDTAB
  0
TABLE
  2
UCS
 70
     0
  0
ENDTAB
  0
TABLE
  2
APPID
 70
     4
  0
APPID
  2
ACAD
 70
     0
  0
APPID
  2
ACAD_MLEADERVER
 70
     0
  0
APPID
  2
ACAD_NAV_VCDISPLAY
 70
     0
  0
APPID
  2
ACAD_EXEMPT_FROM_CAD_STANDARDS
 70
     0
  0
ENDTAB
  0
TABLE
  2
DIMSTYLE
 70
     2
  0
DIMSTYLE
  2
ISO-25
 70
     0
  3

  4

  5

  6

  7

 40
1.0
 41
2.5
 42
0.625
 43
3.75
 44
1.25
 45
0.0
 46
0.0
 47
0.0
 48
0.0
140
2.5
141
2.5
142
0.0
143
0.03937007874016
144
1.0
145
0.0
146
1.0
147
0.625
 71
     0
 72
     0
 73
     0
 74
     0
 75
     0
 76
     0
 77
     1
 78
     8
170
     0
171
     3
172
     1
173
     0
174
     0
175
     0
176
     0
177
     0
178
     0
  0
DIMSTYLE
  2
STANDARD
 70
     0
  3

  4

  5

  6

  7

 40
1.0
 41
0.18
 42
0.0625
 43
0.38
 44
0.18
 45
0.0
 46
0.0
 47
0.0
 48
0.0
140
0.18
141
0.09
142
0.0
143
25.399999999999999
144
1.0
145
0.0
146
1.0
147
0.09
 71
     0
 72
     0
 73
     1
 74
     1
 75
     0
 76
     0
 77
     0
 78
     0
170
     0
171
     2
172
     0
173
     0
174
     0
175
     0
176
     0
177
     0
178
     0
  0
ENDTAB
  0
ENDSEC
  0
SECTION
  2
BLOCKS
  0
BLOCK
  8
0
  2
$MODEL_SPACE
 70
     0
 10
0.0
 20
0.0
 30
0.0
  3
$MODEL_SPACE
  1

  0
ENDBLK
  5
21
  8
0
  0
BLOCK
 67
     1
  8
0
  2
$PAPER_SPACE
 70
     0
 10
0.0
 20
0.0
 30
0.0
  3
$PAPER_SPACE
  1

  0
ENDBLK
  5
1D
 67
     1
  8
0
  0
ENDSEC
  0
SECTION
  2
ENTITIES
  0
TEXT
  5
40D4
  8
0
 62
     3
 10
0.0
 20
0.0
 30
0.0
 40
5.0
  1
EKIP16-SUS
  7
STANDARD1
  0
LINE
  5
4C5F
  8
1
 10
235.5
 20
50.0
 30
0.0
 11
290.50000000000011
 21
50.0
 31
0.0
  0
LINE
  5
4C60
  8
1
 10
263.00000000000011
 20
22.5
 30
0.0
 11
263.00000000000011
 21
77.5
 31
0.0
  0
CIRCLE
  5
4C61
  8
0
 10
263.00000000000011
 20
50.0
 30
0.0
 40
22.5
  0
LINE
  5
4C62
  8
3
 10
156.5
 20
152.0799999999999
 30
0.0
 11
130.5
 21
152.0800000000001
 31
0.0
  0
LINE
  5
4C63
  8
3
 10
156.5
 20
137.92000000000019
 30
0.0
 11
130.5
 21
137.91999999999999
 31
0.0
  0
LINE
  5
4C64
  8
1
 10
195.5
 20
145.0
 30
0.0
 11
117.5
 21
145.0
 31
0.0
  0
LINE
  5
4C65
  8
0
 10
130.5
 20
137.91999999999999
 30
0.0
 11
130.5
 21
152.0800000000001
 31
0.0
  0
LINE
  5
4C66
  8
0
 10
130.5
 20
137.91999999999999
 30
0.0
 11
131.41999999999999
 21
137.0
 31
0.0
  0
LINE
  5
4C67
  8
0
 10
131.41999999999999
 20
153.0
 30
0.0
 11
130.5
 21
152.0800000000001
 31
0.0
  0
LINE
  5
4C68
  8
0
 10
131.41999999999999
 20
137.0
 30
0.0
 11
131.41999999999999
 21
153.0
 31
0.0
  0
LINE
  5
4C69
  8
0
 10
156.5
 20
153.0
 30
0.0
 11
131.41999999999999
 21
153.0
 31
0.0
  0
LINE
  5
4C6A
  8
0
 10
131.41999999999999
 20
137.0
 30
0.0
 11
156.5
 21
137.0
 31
0.0
  0
LINE
  5
4C6B
  8
0
 10
156.5
 20
154.5
 30
0.0
 11
164.5
 21
154.5
 31
0.0
  0
LINE
  5
4C6C
  8
0
 10
156.5
 20
135.5
 30
0.0
 11
156.5
 21
154.5
 31
0.0
  0
LINE
  5
4C6D
  8
0
 10
164.5
 20
135.5
 30
0.0
 11
156.5
 21
135.5
 31
0.0
  0
POLYLINE
  5
4C6E
  8
0
 66
     1
 10
0.0
 20
0.0
 30
0.0
  0
VERTEX
  5
4D7F
  8
0
 10
164.10620709888991
 20
145.0
 30
0.0
  0
VERTEX
  5
4D80
  8
0
 10
164.27066172505019
 20
146.17984158068521
 30
0.0
  0
VERTEX
  5
4D81
  8
0
 10
164.39514063075941
 20
147.36432136047739
 30
0.0
  0
VERTEX
  5
4D82
  8
0
 10
164.47331045835361
 20
148.55549719022761
 30
0.0
  0
VERTEX
  5
4D83
  8
0
 10
164.5
 20
149.75
 30
0.0
  0
SEQEND
  5
4D84
  8
0
  0
POLYLINE
  5
4C6F
  8
0
 66
     1
 10
0.0
 20
0.0
 30
0.0
  0
VERTEX
  5
4D85
  8
0
 10
164.5
 20
149.75
 30
0.0
  0
VERTEX
  5
4D86
  8
0
 10
164.47362087754061
 20
150.9375
 30
0.0
  0
VERTEX
  5
4D87
  8
0
 10
164.39605889162141
 20
152.125
 30
0.0
  0
VERTEX
  5
4D88
  8
0
 10
164.27144339792429
 20
153.31380716358791
 30
0.0
  0
VERTEX
  5
4D89
  8
0
 10
164.10620709888991
 20
154.5
 30
0.0
  0
SEQEND
  5
4D8A
  8
0
  0
POLYLINE
  5
4C70
  8
0
 66
     1
 10
0.0
 20
0.0
 30
0.0
  0
VERTEX
  5
4D8B
  8
0
 10
164.10620709888991
 20
135.5
 30
0.0
  0
VERTEX
  5
4D8C
  8
0
 10
164.27066172505019
 20
136.67984158068521
 30
0.0
  0
VERTEX
  5
4D8D
  8
0
 10
164.39514063075941
 20
137.86432136047739
 30
0.0
  0
VERTEX
  5
4D8E
  8
0
 10
164.47331045835361
 20
139.05549719022761
 30
0.0
  0
VERTEX
  5
4D8F
  8
0
 10
164.5
 20
140.25
 30
0.0
  0
SEQEND
  5
4D90
  8
0
  0
POLYLINE
  5
4C71
  8
0
 66
     1
 10
0.0
 20
0.0
 30
0.0
  0
VERTEX
  5
4D91
  8
0
 10
164.5
 20
140.25
 30
0.0
  0
VERTEX
  5
4D92
  8
0
 10
164.47362087754061
 20
141.4375
 30
0.0
  0
VERTEX
  5
4D93
  8
0
 10
164.39605889162141
 20
142.625
 30
0.0
  0
VERTEX
  5
4D94
  8
0
 10
164.27144339792429
 20
143.81380716358791
 30
0.0
  0
VERTEX
  5
4D95
  8
0
 10
164.10620709888991
 20
145.0
 30
0.0
  0
SEQEND
  5
4D96
  8
0
  0
LINE
  5
4C72
  8
0
 10
164.10620709888991
 20
145.0
 30
0.0
 11
156.5
 21
145.0
 31
0.0
  0
ARC
  5
4C73
  8
0
 10
128.09999999999999
 20
145.0
 30
0.0
 40
5.599999999999997
 50
141.78678929826069
 51
218.21321070173931
  0
LINE
  5
4C74
  8
0
 10
130.5
 20
149.0
 30
0.0
 11
125.6999999999999
 21
149.0
 31
0.0
  0
LINE
  5
4C75
  8
0
 10
125.6999999999999
 20
141.0
 30
0.0
 11
130.5
 21
141.0
 31
0.0
  0
LINE
  5
4C76
  8
0
 10
123.7
 20
141.53589838486229
 30
0.0
 11
123.7
 21
148.46410161513779
 31
0.0
  0
LINE
  5
4C77
  8
0
 10
125.6999999999999
 20
141.0
 30
0.0
 11
125.6999999999999
 21
149.0
 31
0.0
  0
LINE
  5
4C78
  8
0
 10
123.7
 20
141.53589838486229
 30
0.0
 11
125.6999999999999
 21
141.0
 31
0.0
  0
LINE
  5
4C79
  8
0
 10
125.6999999999999
 20
149.0
 30
0.0
 11
123.7
 21
148.46410161513779
 31
0.0
  0
LINE
  5
4C7A
  8
0
 10
175.19999999999999
 20
156.11111111111109
 30
0.0
 11
165.34999999999999
 21
156.11111111111109
 31
0.0
  0
LINE
  5
4C7B
  8
0
 10
165.34999999999999
 20
133.88888888888891
 30
0.0
 11
175.19999999999999
 21
133.88888888888891
 31
0.0
  0
LINE
  5
4C7C
  8
0
 10
164.5
 20
134.73888888888891
 30
0.0
 11
164.5
 21
155.26111111111121
 31
0.0
  0
LINE
  5
4C7D
  8
0
 10
165.34999999999999
 20
133.88888888888891
 30
0.0
 11
165.34999999999999
 21
156.11111111111109
 31
0.0
  0
LINE
  5
4C7E
  8
0
 10
164.5
 20
134.73888888888891
 30
0.0
 11
165.34999999999999
 21
133.88888888888891
 31
0.0
  0
LINE
  5
4C7F
  8
0
 10
165.34999999999999
 20
156.11111111111109
 30
0.0
 11
164.5
 21
155.26111111111121
 31
0.0
  0
LINE
  5
4C80
  8
0
 10
175.19999999999999
 20
127.1481731692454
 30
0.0
 11
175.19999999999999
 21
162.8518268307547
 31
0.0
  0
POLYLINE
  5
4C81
  8
0
 66
     1
 10
0.0
 20
0.0
 30
0.0
  0
VERTEX
  5
4D97
  8
0
 10
177.26911364977201
 20
164.91301722892791
 30
0.0
  0
VERTEX
  5
4D98
  8
0
 10
176.94841487022981
 20
164.79772731460079
 30
0.0
  0
VERTEX
  5
4D99
  8
0
 10
176.6186319035686
 20
164.641243462749
 30
0.0
  0
VERTEX
  5
4D9A
  8
0
 10
176.30422383817819
 20
164.45133280413009
 30
0.0
  0
VERTEX
  5
4D9B
  8
0
 10
175.99839227705959
 20
164.21927799819349
 30
0.0
  0
VERTEX
  5
4D9C
  8
0
 10
175.77047994186529
 20
164.0051106420853
 30
0.0
  0
VERTEX
  5
4D9D
  8
0
 10
175.5691357205944
 20
163.77126226287959
 30
0.0
  0
VERTEX
  5
4D9E
  8
0
 10
175.43317498428189
 20
163.57354267223019
 30
0.0
  0
VERTEX
  5
4D9F
  8
0
 10
175.327175122705
 20
163.37586274981999
 30
0.0
  0
VERTEX
  5
4DA0
  8
0
 10
175.25478847287329
 20
163.1887809709749
 30
0.0
  0
VERTEX
  5
4DA1
  8
0
 10
175.21308485354581
 20
163.01259152126701
 30
0.0
  0
VERTEX
  5
4DA2
  8
0
 10
175.19999999999999
 20
162.8518268307547
 30
0.0
  0
SEQEND
  5
4DA3
  8
0
  0
POLYLINE
  5
4C82
  8
0
 66
     1
 10
0.0
 20
0.0
 30
0.0
  0
VERTEX
  5
4DA4
  8
0
 10
175.19999999999999
 20
127.1481731692454
 30
0.0
  0
VERTEX
  5
4DA5
  8
0
 10
175.2220949330798
 20
126.93774341593939
 30
0.0
  0
VERTEX
  5
4DA6
  8
0
 10
175.2973053979704
 20
126.693002519912
 30
0.0
  0
VERTEX
  5
4DA7
  8
0
 10
175.39170870025399
 20
126.4973920423319
 30
0.0
  0
VERTEX
  5
4DA8
  8
0
 10
175.52490924547419
 20
126.288405497819
 30
0.0
  0
VERTEX
  5
4DA9
  8
0
 10
175.6886796988218
 20
126.0835892816835
 30
0.0
  0
VERTEX
  5
4DAA
  8
0
 10
175.8887053084909
 20
125.8784790860704
 30
0.0
  0
VERTEX
  5
4DAB
  8
0
 10
176.09669464870021
 20
125.70018027888879
 30
0.0
  0
VERTEX
  5
4DAC
  8
0
 10
176.3263196906118
 20
125.53385759736889
 30
0.0
  0
VERTEX
  5
4DAD
  8
0
 10
176.58089174429739
 20
125.379317397836
 30
0.0
  0
VERTEX
  5
4DAE
  8
0
 10
176.8471242721628
 20
125.24606947105499
 30
0.0
  0
VERTEX
  5
4DAF
  8
0
 10
177.26911364977201
 20
125.0869827710721
 30
0.0
  0
SEQEND
  5
4DB0
  8
0
  0
LINE
  5
4C83
  8
0
 10
190.5
 20
124.76666666666669
 30
0.0
 11
190.5
 21
165.23333333333341
 31
0.0
  0
ARC
  5
4C84
  8
0
 10
188.23333333333341
 20
165.23333333333341
 30
0.0
 40
2.2666666666666511
 50
0.0
 51
90.0
  0
ARC
  5
4C85
  8
0
 10
188.23333333333341
 20
124.76666666666659
 30
0.0
 40
2.2666666666666431
 50
270.0
 51
0.0
  0
POLYLINE
  5
4C86
  8
0
 66
     1
 10
0.0
 20
0.0
 30
0.0
  0
VERTEX
  5
4DB1
  8
0
 10
175.19999999999999
 20
142.38689075526551
 30
0.0
  0
VERTEX
  5
4DB2
  8
0
 10
175.22293911576571
 20
142.5580520373467
 30
0.0
  0
VERTEX
  5
4DB3
  8
0
 10
175.2973053979704
 20
142.69007719314951
 30
0.0
  0
VERTEX
  5
4DB4
  8
0
 10
175.39345000547181
 20
142.75780717947831
 30
0.0
  0
VERTEX
  5
4DB5
  8
0
 10
175.52490924547419
 20
142.79417119103579
 30
0.0
  0
VERTEX
  5
4DB6
  8
0
 10
175.691726557659
 20
142.7968083758924
 30
0.0
  0
VERTEX
  5
4DB7
  8
0
 10
175.8887053084909
 20
142.76687861443301
 30
0.0
  0
VERTEX
  5
4DB8
  8
0
 10
176.09941865074609
 20
142.71002954061851
 30
0.0
  0
VERTEX
  5
4DB9
  8
0
 10
176.3263196906118
 20
142.6294951238601
 30
0.0
  0
VERTEX
  5
4DBA
  8
0
 10
176.5836346018321
 20
142.5199438780466
 30
0.0
  0
VERTEX
  5
4DBB
  8
0
 10
176.8471242721628
 20
142.39174440472081
 30
0.0
  0
VERTEX
  5
4DBC
  8
0
 10
177.26911364977201
 20
142.15734445371331
 30
0.0
  0
SEQEND
  5
4DBD
  8
0
  0
POLYLINE
  5
4C87
  8
0
 66
     1
 10
0.0
 20
0.0
 30
0.0
  0
VERTEX
  5
4DBE
  8
0
 10
177.26911364977201
 20
127.92963831735889
 30
0.0
  0
VERTEX
  5
4DBF
  8
0
 10
176.94841487022981
 20
127.8636473109207
 30
0.0
  0
VERTEX
  5
4DC0
  8
0
 10
176.6186319035686
 20
127.85494915413599
 30
0.0
  0
VERTEX
  5
4DC1
  8
0
 10
176.30422383817819
 20
127.91059896839231
 30
0.0
  0
VERTEX
  5
4DC2
  8
0
 10
175.99839227705959
 20
128.04085295004791
 30
0.0
  0
VERTEX
  5
4DC3
  8
0
 10
175.77047994186529
 20
128.2065887759299
 30
0.0
  0
VERTEX
  5
4DC4
  8
0
 10
175.5691357205944
 20
128.4303181793681
 30
0.0
  0
VERTEX
  5
4DC5
  8
0
 10
175.433174984282
 20
128.65278413556999
 30
0.0
  0
VERTEX
  5
4DC6
  8
0
 10
175.327175122705
 20
128.90664097902379
 30
0.0
  0
VERTEX
  5
4DC7
  8
0
 10
175.25478847287329
 20
129.1784206610383
 30
0.0
  0
VERTEX
  5
4DC8
  8
0
 10
175.21308485354581
 20
129.46638287855069
 30
0.0
  0
VERTEX
  5
4DC9
  8
0
 10
175.19999999999999
 20
129.7612824139799
 30
0.0
  0
SEQEND
  5
4DCA
  8
0
  0
POLYLINE
  5
4C88
  8
0
 66
     1
 10
0.0
 20
0.0
 30
0.0
  0
VERTEX
  5
4DCB
  8
0
 10
175.19999999999999
 20
160.23871758602019
 30
0.0
  0
VERTEX
  5
4DCC
  8
0
 10
175.2220949330798
 20
160.61823324505559
 30
0.0
  0
VERTEX
  5
4DCD
  8
0
 10
175.2973053979704
 20
160.99707467323739
 30
0.0
  0
VERTEX
  5
4DCE
  8
0
 10
175.39170870025399
 20
161.2598456255273
 30
0.0
  0
VERTEX
  5
4DCF
  8
0
 10
175.52490924547419
 20
161.5057656932168
 30
0.0
  0
VERTEX
  5
4DD0
  8
0
 10
175.6886796988218
 20
161.71361344078659
 30
0.0
  0
VERTEX
  5
4DD1
  8
0
 10
175.8887053084909
 20
161.88839952836261
 30
0.0
  0
VERTEX
  5
4DD2
  8
0
 10
176.09669464870021
 20
162.0107614314183
 30
0.0
  0
VERTEX
  5
4DD3
  8
0
 10
176.3263196906118
 20
162.0956375264912
 30
0.0
  0
VERTEX
  5
4DD4
  8
0
 10
176.58089174429739
 20
162.1419008744964
 30
0.0
  0
VERTEX
  5
4DD5
  8
0
 10
176.8471242721628
 20
162.14567493366579
 30
0.0
  0
VERTEX
  5
4DD6
  8
0
 10
177.26911364977201
 20
162.07036168264111
 30
0.0
  0
SEQEND
  5
4DD7
  8
0
  0
POLYLINE
  5
4C89
  8
0
 66
     1
 10
0.0
 20
0.0
 30
0.0
  0
VERTEX
  5
4DD8
  8
0
 10
177.26911364977201
 20
147.84265554628681
 30
0.0
  0
VERTEX
  5
4DD9
  8
0
 10
176.94431169673351
 20
147.65920343897781
 30
0.0
  0
VERTEX
  5
4DDA
  8
0
 10
176.6186319035686
 20
147.496192616885
 30
0.0
  0
VERTEX
  5
4DDB
  8
0
 10
176.2982665288431
 20
147.35975155926459
 30
0.0
  0
VERTEX
  5
4DDC
  8
0
 10
175.99839227705951
 20
147.26013094824131
 30
0.0
  0
VERTEX
  5
4DDD
  8
0
 10
175.76657545976011
 20
147.21136979860179
 30
0.0
  0
VERTEX
  5
4DDE
  8
0
 10
175.5691357205944
 20
147.20158044224769
 30
0.0
  0
VERTEX
  5
4DDF
  8
0
 10
175.43169276732601
 20
147.22702601527061
 30
0.0
  0
VERTEX
  5
4DE0
  8
0
 10
175.327175122705
 20
147.28250372884369
 30
0.0
  0
VERTEX
  5
4DE1
  8
0
 10
175.25431324118981
 20
147.36825201661591
 30
0.0
  0
VERTEX
  5
4DE2
  8
0
 10
175.21308485354581
 20
147.4789743998177
 30
0.0
  0
VERTEX
  5
4DE3
  8
0
 10
175.19999999999999
 20
147.61310924473449
 30
0.0
  0
SEQEND
  5
4DE4
  8
0
  0
POLYLINE
  5
4C8A
  8
0
 66
     1
 10
0.0
 20
0.0
 30
0.0
  0
VERTEX
  5
4DE5
  8
0
 10
177.26911364977201
 20
164.91301722892791
 30
0.0
  0
VERTEX
  5
4DE6
  8
0
 10
179.52639870000621
 20
165.5769892052509
 30
0.0
  0
VERTEX
  5
4DE7
  8
0
 10
180.64337719843471
 20
165.88632398196839
 30
0.0
  0
VERTEX
  5
4DE8
  8
0
 10
181.74733094336759
 20
166.17954847098389
 30
0.0
  0
VERTEX
  5
4DE9
  8
0
 10
182.82856220989169
 20
166.45468880316349
 30
0.0
  0
VERTEX
  5
4DEA
  8
0
 10
183.8820497874988
 20
166.71130072937811
 30
0.0
  0
VERTEX
  5
4DEB
  8
0
 10
184.89852121064769
 20
166.94816631028689
 30
0.0
  0
VERTEX
  5
4DEC
  8
0
 10
185.38199563388309
 20
167.05712225351931
 30
0.0
  0
VERTEX
  5
4DED
  8
0
 10
185.83376118091189
 20
167.15679435552661
 30
0.0
  0
VERTEX
  5
4DEE
  8
0
 10
186.20712407112961
 20
167.23759045766079
 30
0.0
  0
VERTEX
  5
4DEF
  8
0
 10
186.52834839334909
 20
167.3059659079957
 30
0.0
  0
VERTEX
  5
4DF0
  8
0
 10
186.73421751019779
 20
167.34923360930401
 30
0.0
  0
VERTEX
  5
4DF1
  8
0
 10
186.86425630071469
 20
167.37634122547291
 30
0.0
  0
VERTEX
  5
4DF2
  8
0
 10
186.89655202955649
 20
167.38304679030509
 30
0.0
  0
SEQEND
  5
4DF3
  8
0
  0
POLYLINE
  5
4C8B
  8
0
 66
     1
 10
0.0
 20
0.0
 30
0.0
  0
VERTEX
  5
4DF4
  8
0
 10
177.26911364977201
 20
147.84265554628681
 30
0.0
  0
VERTEX
  5
4DF5
  8
0
 10
178.7795669256399
 20
148.75437394870431
 30
0.0
  0
VERTEX
  5
4DF6
  8
0
 10
180.27518018420631
 20
149.68936312403591
 30
0.0
  0
VERTEX
  5
4DF7
  8
0
 10
181.74733094336781
 20
150.6554503955962
 30
0.0
  0
VERTEX
  5
4DF8
  8
0
 10
182.6264812344252
 20
151.256809174827
 30
0.0
  0
VERTEX
  5
4DF9
  8
0
 10
183.4929306602298
 20
151.87951041357169
 30
0.0
  0
VERTEX
  5
4DFA
  8
0
 10
184.32844796426019
 20
152.53305255597039
 30
0.0
  0
VERTEX
  5
4DFB
  8
0
 10
185.11480188999491
 20
153.2269340461626
 30
0.0
  0
VERTEX
  5
4DFC
  8
0
 10
185.83376118091209
 20
153.97065332828799
 30
0.0
  0
VERTEX
  5
4DFD
  8
0
 10
186.2095399178985
 20
154.43499972960609
 30
0.0
  0
VERTEX
  5
4DFE
  8
0
 10
186.52834839334921
 20
154.92712797368091
 30
0.0
  0
VERTEX
  5
4DFF
  8
0
 10
186.73614772538781
 20
155.3697497149092
 30
0.0
  0
VERTEX
  5
4E00
  8
0
 10
186.8642563007148
 20
155.827278063167
 30
0.0
  0
VERTEX
  5
4E01
  8
0
 10
186.89285641752829
 20
156.29295029486519
 30
0.0
  0
VERTEX
  5
4E02
  8
0
 10
186.81871997381751
 20
156.7441446501274
 30
0.0
  0
VERTEX
  5
4E03
  8
0
 10
186.63262825901879
 20
157.19935316179581
 30
0.0
  0
VERTEX
  5
4E04
  8
0
 10
186.3636441923189
 20
157.6145347417995
 30
0.0
  0
VERTEX
  5
4E05
  8
0
 10
185.95784626538591
 20
158.0702533322316
 30
0.0
  0
VERTEX
  5
4E06
  8
0
 10
185.4923096516747
 20
158.47880126793819
 30
0.0
  0
VERTEX
  5
4E07
  8
0
 10
184.9886557610366
 20
158.84801291399111
 30
0.0
  0
VERTEX
  5
4E08
  8
0
 10
183.97263359115539
 20
159.47982764945391
 30
0.0
  0
VERTEX
  5
4E09
  8
0
 10
182.90274004089761
 20
160.03717744009111
 30
0.0
  0
VERTEX
  5
4E0A
  8
0
 10
181.7913738232678
 20
160.5314618160352
 30
0.0
  0
VERTEX
  5
4E0B
  8
0
 10
180.6509336512708
 20
160.9740803074192
 30
0.0
  0
VERTEX
  5
4E0C
  8
0
 10
179.49381823791131
 20
161.37643244437569
 30
0.0
  0
VERTEX
  5
4E0D
  8
0
 10
178.332426296194
 20
161.74991775703751
 30
0.0
  0
VERTEX
  5
4E0E
  8
0
 10
177.26911364977201
 20
162.07036168264111
 30
0.0
  0
SEQEND
  5
4E0F
  8
0
  0
POLYLINE
  5
4C8C
  8
0
 66
     1
 10
0.0
 20
0.0
 30
0.0
  0
VERTEX
  5
4E10
  8
0
 10
177.26911364977201
 20
127.92963831735889
 30
0.0
  0
VERTEX
  5
4E11
  8
0
 10
178.7795669256399
 20
128.39139581584789
 30
0.0
  0
VERTEX
  5
4E12
  8
0
 10
180.27518018420619
 20
128.90368661208731
 30
0.0
  0
VERTEX
  5
4E13
  8
0
 10
181.74733094336781
 20
129.47590192461229
 30
0.0
  0
VERTEX
  5
4E14
  8
0
 10
182.6264812344252
 20
129.85302355036399
 30
0.0
  0
VERTEX
  5
4E15
  8
0
 10
183.4929306602298
 20
130.26252319890429
 30
0.0
  0
VERTEX
  5
4E16
  8
0
 10
184.32844796426011
 20
130.71725773938371
 30
0.0
  0
VERTEX
  5
4E17
  8
0
 10
185.11480188999471
 20
131.23008404095251
 30
0.0
  0
VERTEX
  5
4E18
  8
0
 10
185.83376118091201
 20
131.8138589727613
 30
0.0
  0
VERTEX
  5
4E19
  8
0
 10
186.2095399178985
 20
132.1969011476906
 30
0.0
  0
VERTEX
  5
4E1A
  8
0
 10
186.52834839334921
 20
132.62116206568521
 30
0.0
  0
VERTEX
  5
4E1B
  8
0
 10
186.73614772538781
 20
133.0201108157986
 30
0.0
  0
VERTEX
  5
4E1C
  8
0
 10
186.86425630071469
 20
133.45093683769409
 30
0.0
  0
VERTEX
  5
4E1D
  8
0
 10
186.89285641752829
 20
133.91065700083041
 30
0.0
  0
VERTEX
  5
4E1E
  8
0
 10
186.81871997381751
 20
134.37727620987161
 30
0.0
  0
VERTEX
  5
4E1F
  8
0
 10
186.6326282590189
 20
134.8714192761839
 30
0.0
  0
VERTEX
  5
4E20
  8
0
 10
186.3636441923189
 20
135.343496120824
 30
0.0
  0
VERTEX
  5
4E21
  8
0
 10
185.95784626538611
 20
135.8865024097295
 30
0.0
  0
VERTEX
  5
4E22
  8
0
 10
185.49230965167479
 20
136.39719895058661
 30
0.0
  0
VERTEX
  5
4E23
  8
0
 10
184.98865576103671
 20
136.87935144510089
 30
0.0
  0
VERTEX
  5
4E24
  8
0
 10
183.97263359115561
 20
137.74753080996339
 30
0.0
  0
VERTEX
  5
4E25
  8
0
 10
182.90274004089781
 20
138.5654561386259
 30
0.0
  0
VERTEX
  5
4E26
  8
0
 10
181.79137382326809
 20
139.34227941673461
 30
0.0
  0
VERTEX
  5
4E27
  8
0
 10
180.65093365127109
 20
140.0871526299355
 30
0.0
  0
VERTEX
  5
4E28
  8
0
 10
179.49381823791171
 20
140.80922776387479
 30
0.0
  0
VERTEX
  5
4E29
  8
0
 10
178.3324262961946
 20
141.51765680419871
 30
0.0
  0
VERTEX
  5
4E2A
  8
0
 10
177.26911364977201
 20
142.15734445371331
 30
0.0
  0
SEQEND
  5
4E2B
  8
0
  0
LINE
  5
4C8D
  8
0
 10
188.23333333333329
 20
122.5
 30
0.0
 11
188.23333333333329
 21
167.5
 31
0.0
  0
LINE
  5
4C8E
  8
0
 10
186.8881861717401
 20
122.61768512741349
 30
0.0
 11
188.23333333333329
 21
122.5
 31
0.0
  0
LINE
  5
4C8F
  8
0
 10
188.23333333333329
 20
167.5
 30
0.0
 11
186.8881861717401
 21
167.38231487258651
 31
0.0
  0
POLYLINE
  5
4C90
  8
0
 66
     1
 10
0.0
 20
0.0
 30
0.0
  0
VERTEX
  5
4E2C
  8
0
 10
186.89655202955649
 20
122.6169532096949
 30
0.0
  0
VERTEX
  5
4E2D
  8
0
 10
186.89442788395689
 20
122.617393919393
 30
0.0
  0
VERTEX
  5
4E2E
  8
0
 10
186.81871997381751
 20
122.6331315597443
 30
0.0
  0
VERTEX
  5
4E2F
  8
0
 10
186.63584381204771
 20
122.6713877543297
 30
0.0
  0
VERTEX
  5
4E30
  8
0
 10
186.3636441923189
 20
122.7289613790245
 30
0.0
  0
VERTEX
  5
4E31
  8
0
 10
186.06890714826781
 20
122.7921540796092
 30
0.0
  0
VERTEX
  5
4E32
  8
0
 10
185.7368549680628
 20
122.8644086445286
 30
0.0
  0
VERTEX
  5
4E33
  8
0
 10
184.9886557610366
 20
123.0313385311099
 30
0.0
  0
VERTEX
  5
4E34
  8
0
 10
184.23677249398739
 20
123.204860963711
 30
0.0
  0
VERTEX
  5
4E35
  8
0
 10
183.4509187235154
 20
123.39234726568451
 30
0.0
  0
VERTEX
  5
4E36
  8
0
 10
182.6354646777171
 20
123.5935817962408
 30
0.0
  0
VERTEX
  5
4E37
  8
0
 10
181.8036885385244
 20
123.8058156926445
 30
0.0
  0
VERTEX
  5
4E38
  8
0
 10
180.08406312454389
 20
124.2669812190818
 30
0.0
  0
VERTEX
  5
4E39
  8
0
 10
178.33242629619409
 20
124.7677390471616
 30
0.0
  0
VERTEX
  5
4E3A
  8
0
 10
177.26911364977201
 20
125.0869827710721
 30
0.0
  0
SEQEND
  5
4E3B
  8
0
  0
LINE
  5
4C91
  8
1
 10
195.5
 20
50.0
 30
0.0
 11
117.5
 21
50.0
 31
0.0
  0
LINE
  5
4C92
  8
0
 10
156.5
 20
39.030344885397092
 30
0.0
 11
156.5
 21
60.969655114602901
 31
0.0
  0
LINE
  5
4C93
  8
0
 10
164.10620709888991
 20
39.030344885397092
 30
0.0
 11
164.5
 21
40.499999999999993
 31
0.0
  0
LINE
  5
4C94
  8
0
 10
164.5
 20
59.5
 30
0.0
 11
164.10620709888991
 21
60.969655114602908
 31
0.0
  0
LINE
  5
4C95
  8
0
 10
130.5
 20
42.919999999999959
 30
0.0
 11
130.5
 21
57.079999999999977
 31
0.0
  0
LINE
  5
4C96
  8
0
 10
130.5
 20
42.919999999999959
 30
0.0
 11
131.41999999999999
 21
42.0
 31
0.0
  0
LINE
  5
4C97
  8
0
 10
131.41999999999999
 20
58.0
 30
0.0
 11
130.5
 21
57.079999999999977
 31
0.0
  0
LINE
  5
4C98
  8
0
 10
131.41999999999999
 20
42.0
 30
0.0
 11
131.41999999999999
 21
58.0
 31
0.0
  0
LINE
  5
4C99
  8
0
 10
156.5
 20
58.0
 30
0.0
 11
131.41999999999999
 21
58.0
 31
0.0
  0
LINE
  5
4C9A
  8
0
 10
131.41999999999999
 20
42.0
 30
0.0
 11
156.5
 21
42.0
 31
0.0
  0
POLYLINE
  5
4C9B
  8
0
 66
     1
 10
0.0
 20
0.0
 30
0.0
  0
VERTEX
  5
4E3C
  8
0
 10
164.10620709888991
 20
44.515172442698542
 30
0.0
  0
VERTEX
  5
4E3D
  8
0
 10
164.25976771831679
 20
45.776442172549991
 30
0.0
  0
VERTEX
  5
4E3E
  8
0
 10
164.43750108007859
 20
47.881949266382428
 30
0.0
  0
VERTEX
  5
4E3F
  8
0
 10
164.5
 20
50.0
 30
0.0
  0
SEQEND
  5
4E40
  8
0
  0
POLYLINE
  5
4C9C
  8
0
 66
     1
 10
0.0
 20
0.0
 30
0.0
  0
VERTEX
  5
4E41
  8
0
 10
164.5
 20
50.0
 30
0.0
  0
VERTEX
  5
4E42
  8
0
 10
164.47362087754061
 20
51.371206889325322
 30
0.0
  0
VERTEX
  5
4E43
  8
0
 10
164.39605889162141
 20
52.7424137786507
 30
0.0
  0
VERTEX
  5
4E44
  8
0
 10
164.27144339792429
 20
54.115130050474711
 30
0.0
  0
VERTEX
  5
4E45
  8
0
 10
164.10620709888991
 20
55.48482755730145
 30
0.0
  0
SEQEND
  5
4E46
  8
0
  0
LINE
  5
4C9D
  8
0
 10
164.10620709888991
 20
55.48482755730145
 30
0.0
 11
156.5
 21
55.48482755730145
 31
0.0
  0
POLYLINE
  5
4C9E
  8
0
 66
     1
 10
0.0
 20
0.0
 30
0.0
  0
VERTEX
  5
4E47
  8
0
 10
164.10620709888991
 20
55.48482755730145
 30
0.0
  0
VERTEX
  5
4E48
  8
0
 10
164.27066172505019
 20
56.166009411511141
 30
0.0
  0
VERTEX
  5
4E49
  8
0
 10
164.39514063075941
 20
56.849869131223841
 30
0.0
  0
VERTEX
  5
4E4A
  8
0
 10
164.47331045835361
 20
57.537594817182253
 30
0.0
  0
VERTEX
  5
4E4B
  8
0
 10
164.5
 20
58.227241335952151
 30
0.0
  0
SEQEND
  5
4E4C
  8
0
  0
POLYLINE
  5
4C9F
  8
0
 66
     1
 10
0.0
 20
0.0
 30
0.0
  0
VERTEX
  5
4E4D
  8
0
 10
164.5
 20
58.227241335952151
 30
0.0
  0
VERTEX
  5
4E4E
  8
0
 10
164.47362087754061
 20
58.912844780614819
 30
0.0
  0
VERTEX
  5
4E4F
  8
0
 10
164.39593619479021
 20
59.599273506487059
 30
0.0
  0
VERTEX
  5
4E50
  8
0
 10
164.27144339792429
 20
60.28480636118951
 30
0.0
  0
VERTEX
  5
4E51
  8
0
 10
164.10620709888991
 20
60.969655114602908
 30
0.0
  0
SEQEND
  5
4E52
  8
0
  0
LINE
  5
4CA0
  8
0
 10
164.10620709888991
 20
60.969655114602908
 30
0.0
 11
156.5
 21
60.969655114602908
 31
0.0
  0
LINE
  5
4CA1
  8
0
 10
164.10620709888991
 20
39.030344885397092
 30
0.0
 11
156.5
 21
39.030344885397092
 31
0.0
  0
POLYLINE
  5
4CA2
  8
0
 66
     1
 10
0.0
 20
0.0
 30
0.0
  0
VERTEX
  5
4E53
  8
0
 10
164.10620709888991
 20
39.030344885397092
 30
0.0
  0
VERTEX
  5
4E54
  8
0
 10
164.27066172505019
 20
39.711526739606832
 30
0.0
  0
VERTEX
  5
4E55
  8
0
 10
164.39514063075941
 20
40.395386459319518
 30
0.0
  0
VERTEX
  5
4E56
  8
0
 10
164.47331045835361
 20
41.083112145277937
 30
0.0
  0
VERTEX
  5
4E57
  8
0
 10
164.5
 20
41.772758664047842
 30
0.0
  0
SEQEND
  5
4E58
  8
0
  0
POLYLINE
  5
4CA3
  8
0
 66
     1
 10
0.0
 20
0.0
 30
0.0
  0
VERTEX
  5
4E59
  8
0
 10
164.5
 20
41.772758664047842
 30
0.0
  0
VERTEX
  5
4E5A
  8
0
 10
164.47362087754061
 20
42.458362108710503
 30
0.0
  0
VERTEX
  5
4E5B
  8
0
 10
164.39593619479021
 20
43.14479083458275
 30
0.0
  0
VERTEX
  5
4E5C
  8
0
 10
164.27144339792429
 20
43.83032368928513
 30
0.0
  0
VERTEX
  5
4E5D
  8
0
 10
164.10620709888991
 20
44.515172442698542
 30
0.0
  0
SEQEND
  5
4E5E
  8
0
  0
LINE
  5
4CA4
  8
0
 10
164.10620709888991
 20
44.515172442698542
 30
0.0
 11
156.5
 21
44.515172442698542
 31
0.0
  0
ARC
  5
4CA5
  8
0
 10
177.4666666666667
 20
69.282713757605961
 30
0.0
 40
2.266666666666679
 50
94.999999999999744
 51
180.0
  0
ARC
  5
4CA6
  8
0
 10
177.4666666666667
 20
30.717286242394039
 30
0.0
 40
2.2666666666666799
 50
180.0
 51
265.00000000000028
  0
ARC
  5
4CA7
  8
0
 10
128.09999999999999
 20
50.0
 30
0.0
 40
5.599999999999997
 50
141.78678929826069
 51
218.21321070173701
  0
LINE
  5
4CA8
  8
0
 10
130.5
 20
54.0
 30
0.0
 11
125.7
 21
54.0
 31
0.0
  0
LINE
  5
4CA9
  8
0
 10
125.7
 20
46.0
 30
0.0
 11
130.5
 21
46.0
 31
0.0
  0
LINE
  5
4CAA
  8
0
 10
123.7
 20
46.535898384862257
 30
0.0
 11
123.7
 21
53.464101615137793
 31
0.0
  0
LINE
  5
4CAB
  8
0
 10
125.7
 20
46.0
 30
0.0
 11
125.7
 21
54.0
 31
0.0
  0
LINE
  5
4CAC
  8
0
 10
123.7
 20
46.535898384862257
 30
0.0
 11
125.7
 21
46.0
 31
0.0
  0
LINE
  5
4CAD
  8
0
 10
125.7
 20
54.0
 30
0.0
 11
123.7
 21
53.464101615137793
 31
0.0
  0
LINE
  5
4CAE
  8
0
 10
164.5
 20
39.73888888888888
 30
0.0
 11
164.5
 21
60.26111111111112
 31
0.0
  0
LINE
  5
4CAF
  8
0
 10
164.5
 20
39.73888888888888
 30
0.0
 11
165.34999999999999
 21
38.888888888888907
 31
0.0
  0
LINE
  5
4CB0
  8
0
 10
165.34999999999999
 20
61.111111111111079
 30
0.0
 11
164.5
 21
60.26111111111112
 31
0.0
  0
LINE
  5
4CB1
  8
0
 10
165.34999999999999
 20
38.888888888888907
 30
0.0
 11
165.34999999999999
 21
61.111111111111079
 31
0.0
  0
LINE
  5
4CB2
  8
0
 10
175.19999999999999
 20
61.111111111111079
 30
0.0
 11
165.34999999999999
 21
61.111111111111079
 31
0.0
  0
LINE
  5
4CB3
  8
0
 10
165.34999999999999
 20
38.888888888888907
 30
0.0
 11
175.19999999999999
 21
38.888888888888907
 31
0.0
  0
POLYLINE
  5
4CB4
  8
0
 66
     1
 10
0.0
 20
0.0
 30
0.0
  0
VERTEX
  5
4E5F
  8
0
 10
175.19999999999999
 20
69.104834726656236
 30
0.0
  0
VERTEX
  5
4E60
  8
0
 10
175.22293911576571
 20
69.45061676938451
 30
0.0
  0
VERTEX
  5
4E61
  8
0
 10
175.29730539797049
 20
69.805465292022916
 30
0.0
  0
VERTEX
  5
4E62
  8
0
 10
175.39345000547189
 20
70.073740201731312
 30
0.0
  0
VERTEX
  5
4E63
  8
0
 10
175.52490924547419
 20
70.332752388961012
 30
0.0
  0
VERTEX
  5
4E64
  8
0
 10
175.69172655765911
 20
70.574484106026432
 30
0.0
  0
VERTEX
  5
4E65
  8
0
 10
175.8887053084911
 20
70.790337260854471
 30
0.0
  0
VERTEX
  5
4E66
  8
0
 10
176.0994186507462
 20
70.965742511474502
 30
0.0
  0
VERTEX
  5
4E67
  8
0
 10
176.32631969061191
 20
71.108953484130723
 30
0.0
  0
VERTEX
  5
4E68
  8
0
 10
176.5836346018323
 20
71.225808928763342
 30
0.0
  0
VERTEX
  5
4E69
  8
0
 10
176.84712427216289
 20
71.303997146829374
 30
0.0
  0
VERTEX
  5
4E6A
  8
0
 10
177.26911364977201
 20
71.352363770136265
 30
0.0
  0
SEQEND
  5
4E6B
  8
0
  0
POLYLINE
  5
4CB5
  8
0
 66
     1
 10
0.0
 20
0.0
 30
0.0
  0
VERTEX
  5
4E6C
  8
0
 10
182.93512784986041
 20
66.145305005951855
 30
0.0
  0
VERTEX
  5
4E6D
  8
0
 10
183.4929306602298
 20
66.452460576625356
 30
0.0
  0
VERTEX
  5
4E6E
  8
0
 10
184.32844796426019
 20
66.94456493095106
 30
0.0
  0
VERTEX
  5
4E6F
  8
0
 10
185.11480188999479
 20
67.449709857989035
 30
0.0
  0
VERTEX
  5
4E70
  8
0
 10
185.83376118091201
 20
67.971440299436267
 30
0.0
  0
VERTEX
  5
4E71
  8
0
 10
186.2095399178985
 20
68.286471836226326
 30
0.0
  0
VERTEX
  5
4E72
  8
0
 10
186.52834839334921
 20
68.609785429400404
 30
0.0
  0
VERTEX
  5
4E73
  8
0
 10
186.73614772538781
 20
68.890547824024168
 30
0.0
  0
VERTEX
  5
4E74
  8
0
 10
186.8642563007148
 20
69.170118534366054
 30
0.0
  0
VERTEX
  5
4E75
  8
0
 10
186.89285641752829
 20
69.442410951077591
 30
0.0
  0
VERTEX
  5
4E76
  8
0
 10
186.81871997381751
 20
69.694002590063519
 30
0.0
  0
VERTEX
  5
4E77
  8
0
 10
186.63262825901879
 20
69.934338471208207
 30
0.0
  0
VERTEX
  5
4E78
  8
0
 10
186.3636441923189
 20
70.141195171832564
 30
0.0
  0
VERTEX
  5
4E79
  8
0
 10
185.95784626538611
 20
70.353908846482625
 30
0.0
  0
VERTEX
  5
4E7A
  8
0
 10
185.49230965167479
 20
70.530808582458747
 30
0.0
  0
VERTEX
  5
4E7B
  8
0
 10
184.98865576103671
 20
70.678766596433661
 30
0.0
  0
VERTEX
  5
4E7C
  8
0
 10
183.97263359115561
 20
70.907079821620243
 30
0.0
  0
VERTEX
  5
4E7D
  8
0
 10
182.90274004089781
 20
71.078422516254136
 30
0.0
  0
VERTEX
  5
4E7E
  8
0
 10
181.79137382326809
 20
71.200673822540466
 30
0.0
  0
VERTEX
  5
4E7F
  8
0
 10
180.6509336512712
 20
71.281712882684417
 30
0.0
  0
VERTEX
  5
4E80
  8
0
 10
179.49381823791171
 20
71.329418838891115
 30
0.0
  0
VERTEX
  5
4E81
  8
0
 10
178.3324262961946
 20
71.351670833365674
 30
0.0
  0
VERTEX
  5
4E82
  8
0
 10
177.26911364977201
 20
71.352363770136265
 30
0.0
  0
SEQEND
  5
4E83
  8
0
  0
POLYLINE
  5
4CB6
  8
0
 66
     1
 10
0.0
 20
0.0
 30
0.0
  0
VERTEX
  5
4E84
  8
0
 10
177.26911364977201
 20
28.647636229863728
 30
0.0
  0
VERTEX
  5
4E85
  8
0
 10
176.94431169673351
 20
28.676945639115502
 30
0.0
  0
VERTEX
  5
4E86
  8
0
 10
176.6186319035686
 20
28.761423078433499
 30
0.0
  0
VERTEX
  5
4E87
  8
0
 10
176.2982665288431
 20
28.906922373693419
 30
0.0
  0
VERTEX
  5
4E88
  8
0
 10
175.99839227705951
 20
29.112376559596498
 30
0.0
  0
VERTEX
  5
4E89
  8
0
 10
175.76657545976011
 20
29.33659534592471
 30
0.0
  0
VERTEX
  5
4E8A
  8
0
 10
175.5691357205944
 20
29.595896419969169
 30
0.0
  0
VERTEX
  5
4E8B
  8
0
 10
175.43169276732601
 20
29.841960716389959
 30
0.0
  0
VERTEX
  5
4E8C
  8
0
 10
175.327175122705
 20
30.09918553187401
 30
0.0
  0
VERTEX
  5
4E8D
  8
0
 10
175.25431324118981
 20
30.366729111879071
 30
0.0
  0
VERTEX
  5
4E8E
  8
0
 10
175.21308485354581
 20
30.632087409836458
 30
0.0
  0
VERTEX
  5
4E8F
  8
0
 10
175.19999999999999
 20
30.895165273343771
 30
0.0
  0
SEQEND
  5
4E90
  8
0
  0
POLYLINE
  5
4CB7
  8
0
 66
     1
 10
0.0
 20
0.0
 30
0.0
  0
VERTEX
  5
4E91
  8
0
 10
182.96351626970201
 20
33.838784467491223
 30
0.0
  0
VERTEX
  5
4E92
  8
0
 10
182.90274004089761
 20
33.888310296157897
 30
0.0
  0
VERTEX
  5
4E93
  8
0
 10
181.7913738232678
 20
34.499933336107908
 30
0.0
  0
VERTEX
  5
4E94
  8
0
 10
180.6509336512708
 20
35.104492931266577
 30
0.0
  0
VERTEX
  5
4E95
  8
0
 10
179.49381823791131
 20
35.705975362595723
 30
0.0
  0
VERTEX
  5
4E96
  8
0
 10
178.332426296194
 20
36.308366911057647
 30
0.0
  0
VERTEX
  5
4E97
  8
0
 10
177.26911364977201
 20
36.862006197638777
 30
0.0
  0
SEQEND
  5
4E98
  8
0
  0
POLYLINE
  5
4CB8
  8
0
 66
     1
 10
0.0
 20
0.0
 30
0.0
  0
VERTEX
  5
4E99
  8
0
 10
177.26911364977201
 20
63.137993802361223
 30
0.0
  0
VERTEX
  5
4E9A
  8
0
 10
176.94841487022981
 20
62.966768550886798
 30
0.0
  0
VERTEX
  5
4E9B
  8
0
 10
176.6186319035686
 20
62.781054679744841
 30
0.0
  0
VERTEX
  5
4E9C
  8
0
 10
176.30422383817819
 20
62.593894175234823
 30
0.0
  0
VERTEX
  5
4E9D
  8
0
 10
175.99839227705959
 20
62.401142537258181
 30
0.0
  0
VERTEX
  5
4E9E
  8
0
 10
175.77047994186529
 20
62.249530999544113
 30
0.0
  0
VERTEX
  5
4E9F
  8
0
 10
175.5691357205944
 20
62.108676381476933
 30
0.0
  0
VERTEX
  5
4EA0
  8
0
 10
175.433174984282
 20
62.008810243404582
 30
0.0
  0
VERTEX
  5
4EA1
  8
0
 10
175.327175122705
 20
61.927113447474433
 30
0.0
  0
VERTEX
  5
4EA2
  8
0
 10
175.25478847287329
 20
61.868002089292411
 30
0.0
  0
VERTEX
  5
4EA3
  8
0
 10
175.21308485354581
 20
61.830811100655183
 30
0.0
  0
VERTEX
  5
4EA4
  8
0
 10
175.19999999999999
 20
61.81543635213216
 30
0.0
  0
SEQEND
  5
4EA5
  8
0
  0
LINE
  5
4CB9
  8
0
 10
175.19999999999999
 20
30.717286242394039
 30
0.0
 11
175.19999999999999
 21
69.282713757605961
 31
0.0
  0
POLYLINE
  5
4CBA
  8
0
 66
     1
 10
0.0
 20
0.0
 30
0.0
  0
VERTEX
  5
4EA6
  8
0
 10
175.19999999999999
 20
38.18456364786789
 30
0.0
  0
VERTEX
  5
4EA7
  8
0
 10
175.2220949330798
 20
38.16069376634016
 30
0.0
  0
VERTEX
  5
4EA8
  8
0
 10
175.2973053979704
 20
38.096815522474969
 30
0.0
  0
VERTEX
  5
4EA9
  8
0
 10
175.39170870025399
 20
38.022654878740362
 30
0.0
  0
VERTEX
  5
4EAA
  8
0
 10
175.52490924547419
 20
37.923320020556901
 30
0.0
  0
VERTEX
  5
4EAB
  8
0
 10
175.6886796988218
 20
37.806819578526301
 30
0.0
  0
VERTEX
  5
4EAC
  8
0
 10
175.8887053084909
 20
37.670891519937527
 30
0.0
  0
VERTEX
  5
4EAD
  8
0
 10
176.09669464870021
 20
37.535655468960222
 30
0.0
  0
VERTEX
  5
4EAE
  8
0
 10
176.3263196906118
 20
37.39260581540259
 30
0.0
  0
VERTEX
  5
4EAF
  8
0
 10
176.58089174429739
 20
37.240868320225111
 30
0.0
  0
VERTEX
  5
4EB0
  8
0
 10
176.8471242721628
 20
37.089185821510632
 30
0.0
  0
VERTEX
  5
4EB1
  8
0
 10
177.26911364977201
 20
36.862006197638777
 30
0.0
  0
SEQEND
  5
4EB2
  8
0
  0
LINE
  5
4CBB
  8
0
 10
190.5
 20
29.766666666666652
 30
0.0
 11
190.5
 21
70.233333333276846
 31
0.0
  0
ARC
  5
4CBC
  8
0
 10
188.23333333333341
 20
70.233333333333348
 30
0.0
 40
2.2666666666666511
 50
0.0
 51
90.0
  0
ARC
  5
4CBD
  8
0
 10
188.23333333333341
 20
29.766666666666652
 30
0.0
 40
2.2666666666666431
 50
270.0
 51
0.0
  0
POLYLINE
  5
4CBE
  8
0
 66
     1
 10
0.0
 20
0.0
 30
0.0
  0
VERTEX
  5
4EB3
  8
0
 10
175.19999999999999
 20
57.289398374524069
 30
0.0
  0
VERTEX
  5
4EB4
  8
0
 10
175.2220949330798
 20
57.606133635618839
 30
0.0
  0
VERTEX
  5
4EB5
  8
0
 10
175.2973053979704
 20
57.902280814497772
 30
0.0
  0
VERTEX
  5
4EB6
  8
0
 10
175.39170870025399
 20
58.092766812690058
 30
0.0
  0
VERTEX
  5
4EB7
  8
0
 10
175.52490924547419
 20
58.256072409517799
 30
0.0
  0
VERTEX
  5
4EB8
  8
0
 10
175.6886796988218
 20
58.37782361801743
 30
0.0
  0
VERTEX
  5
4EB9
  8
0
 10
175.8887053084909
 20
58.461228780791892
 30
0.0
  0
VERTEX
  5
4EBA
  8
0
 10
176.09669464870021
 20
58.499579271804862
 30
0.0
  0
VERTEX
  5
4EBB
  8
0
 10
176.3263196906118
 20
58.501559299533248
 30
0.0
  0
VERTEX
  5
4EBC
  8
0
 10
176.58089174429739
 20
58.465755786581099
 30
0.0
  0
VERTEX
  5
4EBD
  8
0
 10
176.84712427216269
 20
58.39318296834
 30
0.0
  0
VERTEX
  5
4EBE
  8
0
 10
177.26911364977201
 20
58.214369967775042
 30
0.0
  0
SEQEND
  5
4EBF
  8
0
  0
POLYLINE
  5
4CBF
  8
0
 66
     1
 10
0.0
 20
0.0
 30
0.0
  0
VERTEX
  5
4EC0
  8
0
 10
177.26911364977201
 20
41.785630032224951
 30
0.0
  0
VERTEX
  5
4EC1
  8
0
 10
176.94841487022981
 20
41.642867518490903
 30
0.0
  0
VERTEX
  5
4EC2
  8
0
 10
176.6186319035686
 20
41.542477758178279
 30
0.0
  0
VERTEX
  5
4EC3
  8
0
 10
176.30422383817819
 20
41.497091658785109
 30
0.0
  0
VERTEX
  5
4EC4
  8
0
 10
175.99839227705959
 20
41.513519096854623
 30
0.0
  0
VERTEX
  5
4EC5
  8
0
 10
175.77047994186529
 20
41.581244763528673
 30
0.0
  0
VERTEX
  5
4EC6
  8
0
 10
175.5691357205944
 20
41.704572801446027
 30
0.0
  0
VERTEX
  5
4EC7
  8
0
 10
175.43317498428189
 20
41.847300901957851
 30
0.0
  0
VERTEX
  5
4EC8
  8
0
 10
175.327175122705
 20
42.026298979348333
 30
0.0
  0
VERTEX
  5
4EC9
  8
0
 10
175.25478847287329
 20
42.232111409114331
 30
0.0
  0
VERTEX
  5
4ECA
  8
0
 10
175.21308485354581
 20
42.462898510491577
 30
0.0
  0
VERTEX
  5
4ECB
  8
0
 10
175.19999999999999
 20
42.710601625475931
 30
0.0
  0
SEQEND
  5
4ECC
  8
0
  0
POLYLINE
  5
4CC0
  8
0
 66
     1
 10
0.0
 20
0.0
 30
0.0
  0
VERTEX
  5
4ECD
  8
0
 10
177.26911364977201
 20
41.785630032224951
 30
0.0
  0
VERTEX
  5
4ECE
  8
0
 10
179.52639870000621
 20
42.990101480082657
 30
0.0
  0
VERTEX
  5
4ECF
  8
0
 10
180.64337719843471
 20
43.63047624794558
 30
0.0
  0
VERTEX
  5
4ED0
  8
0
 10
181.74733094336759
 20
44.30233360553467
 30
0.0
  0
VERTEX
  5
4ED1
  8
0
 10
182.82856220989169
 20
45.010872596734252
 30
0.0
  0
VERTEX
  5
4ED2
  8
0
 10
183.8820497874988
 20
45.771124879350047
 30
0.0
  0
VERTEX
  5
4ED3
  8
0
 10
184.89852121064769
 20
46.611195345228793
 30
0.0
  0
VERTEX
  5
4ED4
  8
0
 10
185.38199563388309
 20
47.072363289906257
 30
0.0
  0
VERTEX
  5
4ED5
  8
0
 10
185.83376118091189
 20
47.566187042245019
 30
0.0
  0
VERTEX
  5
4ED6
  8
0
 10
186.20712407112961
 20
48.052224321412837
 30
0.0
  0
VERTEX
  5
4ED7
  8
0
 10
186.52834839334909
 20
48.584504594252962
 30
0.0
  0
VERTEX
  5
4ED8
  8
0
 10
186.73421751019779
 20
49.063541199001861
 30
0.0
  0
VERTEX
  5
4ED9
  8
0
 10
186.86425630071469
 20
49.583277178714923
 30
0.0
  0
VERTEX
  5
4EDA
  8
0
 10
186.89442788395689
 20
50.106814891815588
 30
0.0
  0
VERTEX
  5
4EDB
  8
0
 10
186.81871997381751
 20
50.647452635395211
 30
0.0
  0
VERTEX
  5
4EDC
  8
0
 10
186.6358438120478
 20
51.188826571418417
 30
0.0
  0
VERTEX
  5
4EDD
  8
0
 10
186.36364419231899
 20
51.707819914806798
 30
0.0
  0
VERTEX
  5
4EDE
  8
0
 10
186.0689071482679
 20
52.139185332886093
 30
0.0
  0
VERTEX
  5
4EDF
  8
0
 10
185.736854968063
 20
52.546505413000723
 30
0.0
  0
VERTEX
  5
4EE0
  8
0
 10
184.9886557610368
 20
53.306695354468623
 30
0.0
  0
VERTEX
  5
4EE1
  8
0
 10
184.23677249398779
 20
53.951278001575929
 30
0.0
  0
VERTEX
  5
4EE2
  8
0
 10
183.4509187235158
 20
54.550394484492692
 30
0.0
  0
VERTEX
  5
4EE3
  8
0
 10
182.63546467771761
 20
55.120311856629087
 30
0.0
  0
VERTEX
  5
4EE4
  8
0
 10
181.80368853852519
 20
55.662114013607777
 30
0.0
  0
VERTEX
  5
4EE5
  8
0
 10
180.0840631245448
 20
56.69452481616549
 30
0.0
  0
VERTEX
  5
4EE6
  8
0
 10
178.33242629619531
 20
57.660037744422652
 30
0.0
  0
VERTEX
  5
4EE7
  8
0
 10
177.26911364977201
 20
58.214369967775042
 30
0.0
  0
SEQEND
  5
4EE8
  8
0
  0
POLYLINE
  5
4CC1
  8
0
 66
     1
 10
0.0
 20
0.0
 30
0.0
  0
VERTEX
  5
4EE9
  8
0
 10
177.26911364977201
 20
28.647636229863728
 30
0.0
  0
VERTEX
  5
4EEA
  8
0
 10
178.7795669256399
 20
28.654446996908749
 30
0.0
  0
VERTEX
  5
4EEB
  8
0
 10
180.27518018420631
 20
28.706173203066101
 30
0.0
  0
VERTEX
  5
4EEC
  8
0
 10
181.74733094336781
 20
28.80913978621146
 30
0.0
  0
VERTEX
  5
4EED
  8
0
 10
182.6264812344252
 20
28.89740767743308
 30
0.0
  0
VERTEX
  5
4EEE
  8
0
 10
183.4929306602298
 20
29.010740414254709
 30
0.0
  0
VERTEX
  5
4EEF
  8
0
 10
184.32844796426019
 20
29.1584999011252
 30
0.0
  0
VERTEX
  5
4EF0
  8
0
 10
185.11480188999491
 20
29.350048042493601
 30
0.0
  0
VERTEX
  5
4EF1
  8
0
 10
185.83376118091209
 20
29.594746742808919
 30
0.0
  0
VERTEX
  5
4EF2
  8
0
 10
186.2095399178985
 20
29.76895522862355
 30
0.0
  0
VERTEX
  5
4EF3
  8
0
 10
186.52834839334921
 20
29.974719164852729
 30
0.0
  0
VERTEX
  5
4EF4
  8
0
 10
186.73614772538781
 20
30.179837719947159
 30
0.0
  0
VERTEX
  5
4EF5
  8
0
 10
186.8642563007148
 20
30.413158644349039
 30
0.0
  0
VERTEX
  5
4EF6
  8
0
 10
186.89285641752829
 20
30.675141775901238
 30
0.0
  0
VERTEX
  5
4EF7
  8
0
 10
186.81871997381751
 20
30.953450045331749
 30
0.0
  0
VERTEX
  5
4EF8
  8
0
 10
186.63262825901879
 20
31.26122255328983
 30
0.0
  0
VERTEX
  5
4EF9
  8
0
 10
186.3636441923189
 20
31.566624742974291
 30
0.0
  0
VERTEX
  5
4EFA
  8
0
 10
185.95784626538591
 20
31.930525146256169
 30
0.0
  0
VERTEX
  5
4EFB
  8
0
 10
185.4923096516747
 20
32.28435145627526
 30
0.0
  0
VERTEX
  5
4EFC
  8
0
 10
184.9886557610366
 20
32.627928758035239
 30
0.0
  0
VERTEX
  5
4EFD
  8
0
 10
183.97263359115539
 20
33.265637530454342
 30
0.0
  0
VERTEX
  5
4EFE
  8
0
 10
182.96351626970201
 20
33.838784467491223
 30
0.0
  0
SEQEND
  5
4EFF
  8
0
  0
POLYLINE
  5
4CC2
  8
0
 66
     1
 10
0.0
 20
0.0
 30
0.0
  0
VERTEX
  5
4F00
  8
0
 10
177.26911364977201
 20
63.137993802361223
 30
0.0
  0
VERTEX
  5
4F01
  8
0
 10
178.7795669256399
 20
63.92415971643004
 30
0.0
  0
VERTEX
  5
4F02
  8
0
 10
180.27518018420619
 20
64.708020991451917
 30
0.0
  0
VERTEX
  5
4F03
  8
0
 10
181.74733094336781
 20
65.493193819323324
 30
0.0
  0
VERTEX
  5
4F04
  8
0
 10
182.6264812344252
 20
65.969851853315035
 30
0.0
  0
VERTEX
  5
4F05
  8
0
 10
182.93512784986041
 20
66.145305005951855
 30
0.0
  0
SEQEND
  5
4F06
  8
0
  0
LINE
  5
4CC3
  8
0
 10
188.23333333333329
 20
27.5
 30
0.0
 11
188.23333333333329
 21
72.5
 31
0.0
  0
LINE
  5
4CC4
  8
0
 10
177.26911364977201
 20
28.459244926719411
 30
0.0
 11
188.23333333333329
 21
27.5
 31
0.0
  0
LINE
  5
4CC5
  8
0
 10
188.23333333333329
 20
72.5
 30
0.0
 11
177.26911364977201
 21
71.540755073280593
 31
0.0
  0
LINE
  5
4CC6
  8
1
 10
22.499999999999989
 20
50.0
 30
0.0
 11
77.500000000000014
 21
50.0
 31
0.0
  0
LINE
  5
4CC7
  8
1
 10
50.0
 20
22.5
 30
0.0
 11
50.0
 21
77.5
 31
0.0
  0
LINE
  5
4CC8
  8
0
 10
59.500000000000007
 20
55.48482755730145
 30
0.0
 11
50.0
 21
60.969655114602908
 31
0.0
  0
LINE
  5
4CC9
  8
0
 10
59.500000000000007
 20
44.515172442698542
 30
0.0
 11
59.5
 21
55.48482755730145
 31
0.0
  0
LINE
  5
4CCA
  8
0
 10
50.0
 20
60.969655114602908
 30
0.0
 11
40.499999999999993
 21
55.48482755730145
 31
0.0
  0
LINE
  5
4CCB
  8
0
 10
50.0
 20
39.030344885397092
 30
0.0
 11
59.500000000000007
 21
44.515172442698542
 31
0.0
  0
LINE
  5
4CCC
  8
0
 10
40.499999999999993
 20
55.48482755730145
 30
0.0
 11
40.499999999999993
 21
44.51517244269855
 31
0.0
  0
LINE
  5
4CCD
  8
0
 10
40.499999999999993
 20
44.515172442698542
 30
0.0
 11
50.0
 21
39.030344885397092
 31
0.0
  0
CIRCLE
  5
4CCE
  8
0
 10
50.0
 20
50.0
 30
0.0
 40
8.0
  0
CIRCLE
  5
4CCF
  8
0
 10
50.0
 20
50.0
 30
0.0
 40
22.500000000000011
  0
POLYLINE
  5
4CD0
  8
0
 66
     1
 10
0.0
 20
0.0
 30
0.0
  0
VERTEX
  5
4F07
  8
0
 10
69.913017228927856
 20
41.785630032224951
 30
0.0
  0
VERTEX
  5
4F08
  8
0
 10
70.576989205250868
 20
42.990101480082657
 30
0.0
  0
VERTEX
  5
4F09
  8
0
 10
70.886323981968346
 20
43.63047624794558
 30
0.0
  0
VERTEX
  5
4F0A
  8
0
 10
71.179548470983875
 20
44.302333605534614
 30
0.0
  0
VERTEX
  5
4F0B
  8
0
 10
71.454688803163492
 20
45.010872596734202
 30
0.0
  0
VERTEX
  5
4F0C
  8
0
 10
71.711300729378024
 20
45.771124879350047
 30
0.0
  0
VERTEX
  5
4F0D
  8
0
 10
71.948166310286865
 20
46.611195345228737
 30
0.0
  0
VERTEX
  5
4F0E
  8
0
 10
72.057122253519253
 20
47.0723632899062
 30
0.0
  0
VERTEX
  5
4F0F
  8
0
 10
72.156794355526529
 20
47.566187042244962
 30
0.0
  0
VERTEX
  5
4F10
  8
0
 10
72.237590457660872
 20
48.052224321412837
 30
0.0
  0
VERTEX
  5
4F11
  8
0
 10
72.305965907995642
 20
48.584504594252962
 30
0.0
  0
VERTEX
  5
4F12
  8
0
 10
72.349233609304008
 20
49.063541199001861
 30
0.0
  0
VERTEX
  5
4F13
  8
0
 10
72.376341225472856
 20
49.583277178714873
 30
0.0
  0
VERTEX
  5
4F14
  8
0
 10
72.382606080607047
 20
50.106814891815588
 30
0.0
  0
VERTEX
  5
4F15
  8
0
 10
72.366868440255757
 20
50.647452635395211
 30
0.0
  0
VERTEX
  5
4F16
  8
0
 10
72.328612245670342
 20
51.188826571418417
 30
0.0
  0
VERTEX
  5
4F17
  8
0
 10
72.27103862097556
 20
51.707819914806798
 30
0.0
  0
VERTEX
  5
4F18
  8
0
 10
72.207845920390866
 20
52.139185332886029
 30
0.0
  0
VERTEX
  5
4F19
  8
0
 10
72.135591355471433
 20
52.546505413000652
 30
0.0
  0
VERTEX
  5
4F1A
  8
0
 10
71.968661468890161
 20
53.306695354468623
 30
0.0
  0
VERTEX
  5
4F1B
  8
0
 10
71.795139036289072
 20
53.951278001575929
 30
0.0
  0
VERTEX
  5
4F1C
  8
0
 10
71.607652734315536
 20
54.550394484492692
 30
0.0
  0
VERTEX
  5
4F1D
  8
0
 10
71.406418203759301
 20
55.12031185662903
 30
0.0
  0
VERTEX
  5
4F1E
  8
0
 10
71.19418430735567
 20
55.66211401360772
 30
0.0
  0
VERTEX
  5
4F1F
  8
0
 10
70.733018780918485
 20
56.694524816165419
 30
0.0
  0
VERTEX
  5
4F20
  8
0
 10
70.232260952838828
 20
57.660037744422652
 30
0.0
  0
VERTEX
  5
4F21
  8
0
 10
69.913017228927856
 20
58.214369967775042
 30
0.0
  0
SEQEND
  5
4F22
  8
0
  0
POLYLINE
  5
4CD1
  8
0
 66
     1
 10
0.0
 20
0.0
 30
0.0
  0
VERTEX
  5
4F23
  8
0
 10
67.851826830754646
 20
57.289398374524069
 30
0.0
  0
VERTEX
  5
4F24
  8
0
 10
68.062256584060606
 20
57.606133635618839
 30
0.0
  0
VERTEX
  5
4F25
  8
0
 10
68.306997480088
 20
57.902280814497722
 30
0.0
  0
VERTEX
  5
4F26
  8
0
 10
68.50260795766809
 20
58.092766812690002
 30
0.0
  0
VERTEX
  5
4F27
  8
0
 10
68.711594502181015
 20
58.256072409517742
 30
0.0
  0
VERTEX
  5
4F28
  8
0
 10
68.916410718316556
 20
58.377823618017374
 30
0.0
  0
VERTEX
  5
4F29
  8
0
 10
69.121520913929544
 20
58.461228780791821
 30
0.0
  0
VERTEX
  5
4F2A
  8
0
 10
69.299819721111248
 20
58.499579271804798
 30
0.0
  0
VERTEX
  5
4F2B
  8
0
 10
69.466142402631135
 20
58.501559299533248
 30
0.0
  0
VERTEX
  5
4F2C
  8
0
 10
69.620682602164038
 20
58.465755786581099
 30
0.0
  0
VERTEX
  5
4F2D
  8
0
 10
69.753930528945034
 20
58.393182968339943
 30
0.0
  0
VERTEX
  5
4F2E
  8
0
 10
69.913017228927856
 20
58.214369967775042
 30
0.0
  0
SEQEND
  5
4F2F
  8
0
  0
ARC
  5
4CD2
  8
0
 10
80.0
 20
50.0
 30
0.0
 40
14.167337082616701
 50
149.034528691465
 51
210.96547130853449
  0
POLYLINE
  5
4CD3
  8
0
 66
     1
 10
0.0
 20
0.0
 30
0.0
  0
VERTEX
  5
4F30
  8
0
 10
69.913017228927856
 20
41.785630032224951
 30
0.0
  0
VERTEX
  5
4F31
  8
0
 10
69.797727314600763
 20
41.642867518490903
 30
0.0
  0
VERTEX
  5
4F32
  8
0
 10
69.641243462749003
 20
41.542477758178279
 30
0.0
  0
VERTEX
  5
4F33
  8
0
 10
69.451332804130061
 20
41.497091658785052
 30
0.0
  0
VERTEX
  5
4F34
  8
0
 10
69.219277998193434
 20
41.513519096854623
 30
0.0
  0
VERTEX
  5
4F35
  8
0
 10
69.005110642085185
 20
41.581244763528609
 30
0.0
  0
VERTEX
  5
4F36
  8
0
 10
68.771262262879588
 20
41.704572801446027
 30
0.0
  0
VERTEX
  5
4F37
  8
0
 10
68.573542672230133
 20
41.847300901957851
 30
0.0
  0
VERTEX
  5
4F38
  8
0
 10
68.37586274981993
 20
42.026298979348333
 30
0.0
  0
VERTEX
  5
4F39
  8
0
 10
68.188780970974904
 20
42.232111409114282
 30
0.0
  0
VERTEX
  5
4F3A
  8
0
 10
68.012591521266984
 20
42.46289851049152
 30
0.0
  0
VERTEX
  5
4F3B
  8
0
 10
67.851826830754646
 20
42.710601625475867
 30
0.0
  0
SEQEND
  5
4F3C
  8
0
  0
POLYLINE
  5
4CD4
  8
0
 66
     1
 10
0.0
 20
0.0
 30
0.0
  0
VERTEX
  5
4F3D
  8
0
 10
67.070361682641064
 20
63.137993802361223
 30
0.0
  0
VERTEX
  5
4F3E
  8
0
 10
66.608604184152057
 20
63.92415971643004
 30
0.0
  0
VERTEX
  5
4F3F
  8
0
 10
66.096313387912687
 20
64.708020991451917
 30
0.0
  0
VERTEX
  5
4F40
  8
0
 10
65.524098075387769
 20
65.493193819323267
 30
0.0
  0
VERTEX
  5
4F41
  8
0
 10
65.146976449635986
 20
65.969851853315035
 30
0.0
  0
VERTEX
  5
4F42
  8
0
 10
64.737476801095625
 20
66.452460576625299
 30
0.0
  0
VERTEX
  5
4F43
  8
0
 10
64.28274226061626
 20
66.94456493095106
 30
0.0
  0
VERTEX
  5
4F44
  8
0
 10
63.769915959047466
 20
67.449709857989035
 30
0.0
  0
VERTEX
  5
4F45
  8
0
 10
63.186141027238762
 20
67.971440299436267
 30
0.0
  0
VERTEX
  5
4F46
  8
0
 10
62.80309885230934
 20
68.286471836226326
 30
0.0
  0
VERTEX
  5
4F47
  8
0
 10
62.378837934314781
 20
68.609785429400404
 30
0.0
  0
VERTEX
  5
4F48
  8
0
 10
61.97988918420134
 20
68.890547824024111
 30
0.0
  0
VERTEX
  5
4F49
  8
0
 10
61.549063162305913
 20
69.170118534365997
 30
0.0
  0
VERTEX
  5
4F4A
  8
0
 10
61.089342999169617
 20
69.442410951077591
 30
0.0
  0
VERTEX
  5
4F4B
  8
0
 10
60.622723790128362
 20
69.694002590063519
 30
0.0
  0
VERTEX
  5
4F4C
  8
0
 10
60.128580723816071
 20
69.934338471208207
 30
0.0
  0
VERTEX
  5
4F4D
  8
0
 10
59.65650387917605
 20
70.141195171832564
 30
0.0
  0
VERTEX
  5
4F4E
  8
0
 10
59.113497590270534
 20
70.353908846482625
 30
0.0
  0
VERTEX
  5
4F4F
  8
0
 10
58.602801049413422
 20
70.53080858245869
 30
0.0
  0
VERTEX
  5
4F50
  8
0
 10
58.120648554899113
 20
70.678766596433604
 30
0.0
  0
VERTEX
  5
4F51
  8
0
 10
57.252469190036607
 20
70.907079821620187
 30
0.0
  0
VERTEX
  5
4F52
  8
0
 10
56.434543861374102
 20
71.078422516254136
 30
0.0
  0
VERTEX
  5
4F53
  8
0
 10
55.657720583265473
 20
71.200673822540466
 30
0.0
  0
VERTEX
  5
4F54
  8
0
 10
54.912847370064519
 20
71.28171288268436
 30
0.0
  0
VERTEX
  5
4F55
  8
0
 10
54.190772236125213
 20
71.329418838891115
 30
0.0
  0
VERTEX
  5
4F56
  8
0
 10
53.48234319580132
 20
71.351670833365674
 30
0.0
  0
VERTEX
  5
4F57
  8
0
 10
52.842655546286778
 20
71.352363770136265
 30
0.0
  0
SEQEND
  5
4F58
  8
0
  0
POLYLINE
  5
4CD5
  8
0
 66
     1
 10
0.0
 20
0.0
 30
0.0
  0
VERTEX
  5
4F59
  8
0
 10
52.61310924473446
 20
69.104834726656165
 30
0.0
  0
VERTEX
  5
4F5A
  8
0
 10
52.444023339005071
 20
69.445439869278744
 30
0.0
  0
VERTEX
  5
4F5B
  8
0
 10
52.309922806850523
 20
69.805465292022845
 30
0.0
  0
VERTEX
  5
4F5C
  8
0
 10
52.242762332140778
 20
70.070111933949818
 30
0.0
  0
VERTEX
  5
4F5D
  8
0
 10
52.20582880896427
 20
70.332752388961012
 30
0.0
  0
VERTEX
  5
4F5E
  8
0
 10
52.202797277529889
 20
70.571004039491186
 30
0.0
  0
VERTEX
  5
4F5F
  8
0
 10
52.233121385567017
 20
70.790337260854471
 30
0.0
  0
VERTEX
  5
4F60
  8
0
 10
52.289058289693003
 20
70.963923802844761
 30
0.0
  0
VERTEX
  5
4F61
  8
0
 10
52.370504876139982
 20
71.108953484130666
 30
0.0
  0
VERTEX
  5
4F62
  8
0
 10
52.478781727667752
 20
71.224887466355995
 30
0.0
  0
VERTEX
  5
4F63
  8
0
 10
52.608255595279267
 20
71.303997146829374
 30
0.0
  0
VERTEX
  5
4F64
  8
0
 10
52.842655546286778
 20
71.352363770136265
 30
0.0
  0
SEQEND
  5
4F65
  8
0
  0
ARC
  5
4CD6
  8
0
 10
65.0
 20
75.98076211353316
 30
0.0
 40
14.16733708261671
 50
209.03452869146659
 51
270.965471308536
  0
POLYLINE
  5
4CD7
  8
0
 66
     1
 10
0.0
 20
0.0
 30
0.0
  0
VERTEX
  5
4F66
  8
0
 10
67.070361682641064
 20
63.137993802361223
 30
0.0
  0
VERTEX
  5
4F67
  8
0
 10
67.136352689079331
 20
62.966768550886798
 30
0.0
  0
VERTEX
  5
4F68
  8
0
 10
67.145050845863977
 20
62.781054679744777
 30
0.0
  0
VERTEX
  5
4F69
  8
0
 10
67.089401031607736
 20
62.593894175234823
 30
0.0
  0
VERTEX
  5
4F6A
  8
0
 10
66.959147049952094
 20
62.401142537258117
 30
0.0
  0
VERTEX
  5
4F6B
  8
0
 10
66.793411224070041
 20
62.249530999544113
 30
0.0
  0
VERTEX
  5
4F6C
  8
0
 10
66.569681820631899
 20
62.108676381476933
 30
0.0
  0
VERTEX
  5
4F6D
  8
0
 10
66.347215864430041
 20
62.008810243404533
 30
0.0
  0
VERTEX
  5
4F6E
  8
0
 10
66.093359020976209
 20
61.927113447474362
 30
0.0
  0
VERTEX
  5
4F6F
  8
0
 10
65.821579338961726
 20
61.868002089292411
 30
0.0
  0
VERTEX
  5
4F70
  8
0
 10
65.533617121449311
 20
61.830811100655183
 30
0.0
  0
VERTEX
  5
4F71
  8
0
 10
65.238717586020186
 20
61.81543635213211
 30
0.0
  0
SEQEND
  5
4F72
  8
0
  0
POLYLINE
  5
4CD8
  8
0
 66
     1
 10
0.0
 20
0.0
 30
0.0
  0
VERTEX
  5
4F73
  8
0
 10
47.157344453713222
 20
71.352363770136208
 30
0.0
  0
VERTEX
  5
4F74
  8
0
 10
46.24562605129568
 20
71.345553003091254
 30
0.0
  0
VERTEX
  5
4F75
  8
0
 10
45.310636875964171
 20
71.293826796933899
 30
0.0
  0
VERTEX
  5
4F76
  8
0
 10
44.344549604403817
 20
71.190860213788483
 30
0.0
  0
VERTEX
  5
4F77
  8
0
 10
43.743190825173087
 20
71.102592322566863
 30
0.0
  0
VERTEX
  5
4F78
  8
0
 10
43.120489586428278
 20
70.989259585745287
 30
0.0
  0
VERTEX
  5
4F79
  8
0
 10
42.466947444029643
 20
70.841500098874803
 30
0.0
  0
VERTEX
  5
4F7A
  8
0
 10
41.773065953837488
 20
70.649951957506346
 30
0.0
  0
VERTEX
  5
4F7B
  8
0
 10
41.029346671712112
 20
70.405253257191077
 30
0.0
  0
VERTEX
  5
4F7C
  8
0
 10
40.565000270393973
 20
70.231044771376446
 30
0.0
  0
VERTEX
  5
4F7D
  8
0
 10
40.072872026319139
 20
70.025280835147313
 30
0.0
  0
VERTEX
  5
4F7E
  8
0
 10
39.630250285090881
 20
69.820162280052841
 30
0.0
  0
VERTEX
  5
4F7F
  8
0
 10
39.172721936833057
 20
69.586841355650961
 30
0.0
  0
VERTEX
  5
4F80
  8
0
 10
38.707049705134807
 20
69.324858224098762
 30
0.0
  0
VERTEX
  5
4F81
  8
0
 10
38.255855349872597
 20
69.046549954668194
 30
0.0
  0
VERTEX
  5
4F82
  8
0
 10
37.800646838204273
 20
68.738777446710174
 30
0.0
  0
VERTEX
  5
4F83
  8
0
 10
37.385465258200497
 20
68.433375257025645
 30
0.0
  0
VERTEX
  5
4F84
  8
0
 10
36.929746667768477
 20
68.069474853743827
 30
0.0
  0
VERTEX
  5
4F85
  8
0
 10
36.521198732061812
 20
67.71564854372474
 30
0.0
  0
VERTEX
  5
4F86
  8
0
 10
36.151987086008951
 20
67.372071241964818
 30
0.0
  0
VERTEX
  5
4F87
  8
0
 10
35.52017235054609
 20
66.734362469545715
 30
0.0
  0
VERTEX
  5
4F88
  8
0
 10
34.962822559909
 20
66.111689703842217
 30
0.0
  0
VERTEX
  5
4F89
  8
0
 10
34.468538183964881
 20
65.500066663892142
 30
0.0
  0
VERTEX
  5
4F8A
  8
0
 10
34.025919692580942
 20
64.895507068733536
 30
0.0
  0
VERTEX
  5
4F8B
  8
0
 10
33.623567555624447
 20
64.294024637404391
 30
0.0
  0
VERTEX
  5
4F8C
  8
0
 10
33.250082242962662
 20
63.691633088942517
 30
0.0
  0
VERTEX
  5
4F8D
  8
0
 10
32.929638317358922
 20
63.137993802361159
 30
0.0
  0
SEQEND
  5
4F8E
  8
0
  0
POLYLINE
  5
4CD9
  8
0
 66
     1
 10
0.0
 20
0.0
 30
0.0
  0
VERTEX
  5
4F8F
  8
0
 10
34.761282413979821
 20
61.81543635213211
 30
0.0
  0
VERTEX
  5
4F90
  8
0
 10
34.381766754944458
 20
61.839306233659777
 30
0.0
  0
VERTEX
  5
4F91
  8
0
 10
34.002925326762522
 20
61.903184477524967
 30
0.0
  0
VERTEX
  5
4F92
  8
0
 10
33.740154374472688
 20
61.977345121259653
 30
0.0
  0
VERTEX
  5
4F93
  8
0
 10
33.494234306783262
 20
62.076679979443043
 30
0.0
  0
VERTEX
  5
4F94
  8
0
 10
33.286386559213383
 20
62.193180421473642
 30
0.0
  0
VERTEX
  5
4F95
  8
0
 10
33.111600471637423
 20
62.329108480062473
 30
0.0
  0
VERTEX
  5
4F96
  8
0
 10
32.989238568581698
 20
62.464344531039792
 30
0.0
  0
VERTEX
  5
4F97
  8
0
 10
32.904362473508797
 20
62.60739418459741
 30
0.0
  0
VERTEX
  5
4F98
  8
0
 10
32.8580991255036
 20
62.759131679774839
 30
0.0
  0
VERTEX
  5
4F99
  8
0
 10
32.854325066334127
 20
62.910814178489318
 30
0.0
  0
VERTEX
  5
4F9A
  8
0
 10
32.929638317358922
 20
63.137993802361159
 30
0.0
  0
SEQEND
  5
4F9B
  8
0
  0
ARC
  5
4CDA
  8
0
 10
35.0
 20
75.980762113533103
 30
0.0
 40
14.16733708261669
 50
269.034528691464
 51
330.96547130853338
  0
POLYLINE
  5
4CDB
  8
0
 66
     1
 10
0.0
 20
0.0
 30
0.0
  0
VERTEX
  5
4F9C
  8
0
 10
47.157344453713222
 20
71.352363770136208
 30
0.0
  0
VERTEX
  5
4F9D
  8
0
 10
47.338625374478568
 20
71.323901032395895
 30
0.0
  0
VERTEX
  5
4F9E
  8
0
 10
47.503807383114967
 20
71.238576921566505
 30
0.0
  0
VERTEX
  5
4F9F
  8
0
 10
47.638068227477667
 20
71.096802516449657
 30
0.0
  0
VERTEX
  5
4FA0
  8
0
 10
47.73986905175866
 20
70.887623440403445
 30
0.0
  0
VERTEX
  5
4FA1
  8
0
 10
47.788300581984863
 20
70.668286236015433
 30
0.0
  0
VERTEX
  5
4FA2
  8
0
 10
47.798419557752247
 20
70.404103580030835
 30
0.0
  0
VERTEX
  5
4FA3
  8
0
 10
47.773673192199901
 20
70.161509341446603
 30
0.0
  0
VERTEX
  5
4FA4
  8
0
 10
47.717496271156271
 20
69.900814468125986
 30
0.0
  0
VERTEX
  5
4FA5
  8
0
 10
47.632798367986823
 20
69.635890680178022
 30
0.0
  0
VERTEX
  5
4FA6
  8
0
 10
47.52102560018232
 20
69.367912590163542
 30
0.0
  0
VERTEX
  5
4FA7
  8
0
 10
47.386890755265483
 20
69.104834726656165
 30
0.0
  0
SEQEND
  5
4FA8
  8
0
  0
POLYLINE
  5
4CDC
  8
0
 66
     1
 10
0.0
 20
0.0
 30
0.0
  0
VERTEX
  5
4FA9
  8
0
 10
52.842655546286778
 20
28.647636229863679
 30
0.0
  0
VERTEX
  5
4FAA
  8
0
 10
53.754373948704313
 20
28.654446996908749
 30
0.0
  0
VERTEX
  5
4FAB
  8
0
 10
54.689363124035879
 20
28.706173203066101
 30
0.0
  0
VERTEX
  5
4FAC
  8
0
 10
55.655450395596169
 20
28.809139786211411
 30
0.0
  0
VERTEX
  5
4FAD
  8
0
 10
56.256809174826913
 20
28.89740767743308
 30
0.0
  0
VERTEX
  5
4FAE
  8
0
 10
56.879510413571779
 20
29.010740414254659
 30
0.0
  0
VERTEX
  5
4FAF
  8
0
 10
57.533052555970407
 20
29.1584999011252
 30
0.0
  0
VERTEX
  5
4FB0
  8
0
 10
58.226934046162569
 20
29.350048042493601
 30
0.0
  0
VERTEX
  5
4FB1
  8
0
 10
58.970653328287938
 20
29.594746742808869
 30
0.0
  0
VERTEX
  5
4FB2
  8
0
 10
59.434999729606091
 20
29.76895522862355
 30
0.0
  0
VERTEX
  5
4FB3
  8
0
 10
59.927127973680911
 20
29.974719164852669
 30
0.0
  0
VERTEX
  5
4FB4
  8
0
 10
60.369749714909169
 20
30.179837719947159
 30
0.0
  0
VERTEX
  5
4FB5
  8
0
 10
60.827278063167
 20
30.413158644348979
 30
0.0
  0
VERTEX
  5
4FB6
  8
0
 10
61.292950294865193
 20
30.675141775901238
 30
0.0
  0
VERTEX
  5
4FB7
  8
0
 10
61.744144650127389
 20
30.953450045331749
 30
0.0
  0
VERTEX
  5
4FB8
  8
0
 10
62.199353161795777
 20
31.26122255328977
 30
0.0
  0
VERTEX
  5
4FB9
  8
0
 10
62.614534741799503
 20
31.566624742974291
 30
0.0
  0
VERTEX
  5
4FBA
  8
0
 10
63.070253332231573
 20
31.930525146256169
 30
0.0
  0
VERTEX
  5
4FBB
  8
0
 10
63.478801267938188
 20
32.284351456275203
 30
0.0
  0
VERTEX
  5
4FBC
  8
0
 10
63.848012913991113
 20
32.627928758035182
 30
0.0
  0
VERTEX
  5
4FBD
  8
0
 10
64.479827649453966
 20
33.265637530454292
 30
0.0
  0
VERTEX
  5
4FBE
  8
0
 10
65.037177440091057
 20
33.88831029615784
 30
0.0
  0
VERTEX
  5
4FBF
  8
0
 10
65.531461816035232
 20
34.499933336107908
 30
0.0
  0
VERTEX
  5
4FC0
  8
0
 10
65.974080307419172
 20
35.10449293126652
 30
0.0
  0
VERTEX
  5
4FC1
  8
0
 10
66.376432444375666
 20
35.705975362595723
 30
0.0
  0
VERTEX
  5
4FC2
  8
0
 10
66.749917757037451
 20
36.30836691105759
 30
0.0
  0
VERTEX
  5
4FC3
  8
0
 10
67.070361682641064
 20
36.862006197638721
 30
0.0
  0
SEQEND
  5
4FC4
  8
0
  0
POLYLINE
  5
4CDD
  8
0
 66
     1
 10
0.0
 20
0.0
 30
0.0
  0
VERTEX
  5
4FC5
  8
0
 10
65.238717586020186
 20
38.184563647867833
 30
0.0
  0
VERTEX
  5
4FC6
  8
0
 10
65.618233245055535
 20
38.16069376634016
 30
0.0
  0
VERTEX
  5
4FC7
  8
0
 10
65.997074673237421
 20
38.096815522474913
 30
0.0
  0
VERTEX
  5
4FC8
  8
0
 10
66.259845625527305
 20
38.022654878740298
 30
0.0
  0
VERTEX
  5
4FC9
  8
0
 10
66.505765693216745
 20
37.923320020556901
 30
0.0
  0
VERTEX
  5
4FCA
  8
0
 10
66.713613440786617
 20
37.806819578526301
 30
0.0
  0
VERTEX
  5
4FCB
  8
0
 10
66.888399528362584
 20
37.67089151993747
 30
0.0
  0
VERTEX
  5
4FCC
  8
0
 10
67.010761431418302
 20
37.535655468960158
 30
0.0
  0
VERTEX
  5
4FCD
  8
0
 10
67.095637526491203
 20
37.39260581540259
 30
0.0
  0
VERTEX
  5
4FCE
  8
0
 10
67.141900874496343
 20
37.240868320225111
 30
0.0
  0
VERTEX
  5
4FCF
  8
0
 10
67.145674933665816
 20
37.089185821510632
 30
0.0
  0
VERTEX
  5
4FD0
  8
0
 10
67.070361682641064
 20
36.862006197638721
 30
0.0
  0
SEQEND
  5
4FD1
  8
0
  0
ARC
  5
4CDE
  8
0
 10
65.0
 20
24.01923788646679
 30
0.0
 40
14.16733708261674
 50
89.034528691463976
 51
150.96547130853341
  0
POLYLINE
  5
4CDF
  8
0
 66
     1
 10
0.0
 20
0.0
 30
0.0
  0
VERTEX
  5
4FD2
  8
0
 10
52.842655546286778
 20
28.647636229863679
 30
0.0
  0
VERTEX
  5
4FD3
  8
0
 10
52.661374625521432
 20
28.676098967604052
 30
0.0
  0
VERTEX
  5
4FD4
  8
0
 10
52.496192616884969
 20
28.761423078433499
 30
0.0
  0
VERTEX
  5
4FD5
  8
0
 10
52.361931772522318
 20
28.90319748355029
 30
0.0
  0
VERTEX
  5
4FD6
  8
0
 10
52.26013094824134
 20
29.112376559596498
 30
0.0
  0
VERTEX
  5
4FD7
  8
0
 10
52.211699418015137
 20
29.33171376398457
 30
0.0
  0
VERTEX
  5
4FD8
  8
0
 10
52.201580442247689
 20
29.595896419969112
 30
0.0
  0
VERTEX
  5
4FD9
  8
0
 10
52.226326807800092
 20
29.838490658553329
 30
0.0
  0
VERTEX
  5
4FDA
  8
0
 10
52.282503728843722
 20
30.09918553187396
 30
0.0
  0
VERTEX
  5
4FDB
  8
0
 10
52.367201632013177
 20
30.364109319821921
 30
0.0
  0
VERTEX
  5
4FDC
  8
0
 10
52.478974399817673
 20
30.632087409836458
 30
0.0
  0
VERTEX
  5
4FDD
  8
0
 10
52.61310924473446
 20
30.895165273343771
 30
0.0
  0
SEQEND
  5
4FDE
  8
0
  0
POLYLINE
  5
4CE0
  8
0
 66
     1
 10
0.0
 20
0.0
 30
0.0
  0
VERTEX
  5
4FDF
  8
0
 10
30.08698277107214
 20
58.214369967775042
 30
0.0
  0
VERTEX
  5
4FE0
  8
0
 10
29.423010794749128
 20
57.009898519917208
 30
0.0
  0
VERTEX
  5
4FE1
  8
0
 10
29.11367601803164
 20
56.369523752054363
 30
0.0
  0
VERTEX
  5
4FE2
  8
0
 10
28.820451529016111
 20
55.697666394465209
 30
0.0
  0
VERTEX
  5
4FE3
  8
0
 10
28.545311196836451
 20
54.989127403265627
 30
0.0
  0
VERTEX
  5
4FE4
  8
0
 10
28.288699270621919
 20
54.228875120649782
 30
0.0
  0
VERTEX
  5
4FE5
  8
0
 10
28.051833689713082
 20
53.388804654771093
 30
0.0
  0
VERTEX
  5
4FE6
  8
0
 10
27.94287774648069
 20
52.927636710093573
 30
0.0
  0
VERTEX
  5
4FE7
  8
0
 10
27.843205644473411
 20
52.433812957754753
 30
0.0
  0
VERTEX
  5
4FE8
  8
0
 10
27.762409542339132
 20
51.947775678586929
 30
0.0
  0
VERTEX
  5
4FE9
  8
0
 10
27.694034092004362
 20
51.41549540574681
 30
0.0
  0
VERTEX
  5
4FEA
  8
0
 10
27.650766390695988
 20
50.936458800997912
 30
0.0
  0
VERTEX
  5
4FEB
  8
0
 10
27.62365877452714
 20
50.416722821284907
 30
0.0
  0
VERTEX
  5
4FEC
  8
0
 10
27.61739391939296
 20
49.893185108184241
 30
0.0
  0
VERTEX
  5
4FED
  8
0
 10
27.63313155974425
 20
49.352547364604682
 30
0.0
  0
VERTEX
  5
4FEE
  8
0
 10
27.671387754329661
 20
48.811173428581412
 30
0.0
  0
VERTEX
  5
4FEF
  8
0
 10
27.728961379024501
 20
48.292180085193081
 30
0.0
  0
VERTEX
  5
4FF0
  8
0
 10
27.79215407960919
 20
47.860814667113743
 30
0.0
  0
VERTEX
  5
4FF1
  8
0
 10
27.86440864452862
 20
47.453494586999113
 30
0.0
  0
VERTEX
  5
4FF2
  8
0
 10
28.031338531109899
 20
46.6933046455311
 30
0.0
  0
VERTEX
  5
4FF3
  8
0
 10
28.204860963710981
 20
46.04872199842373
 30
0.0
  0
VERTEX
  5
4FF4
  8
0
 10
28.392347265684521
 20
45.449605515506903
 30
0.0
  0
VERTEX
  5
4FF5
  8
0
 10
28.593581796240869
 20
44.879688143370508
 30
0.0
  0
VERTEX
  5
4FF6
  8
0
 10
28.805815692644501
 20
44.337885986391697
 30
0.0
  0
VERTEX
  5
4FF7
  8
0
 10
29.266981219081799
 20
43.305475183833948
 30
0.0
  0
VERTEX
  5
4FF8
  8
0
 10
29.767739047161569
 20
42.339962255576673
 30
0.0
  0
VERTEX
  5
4FF9
  8
0
 10
30.08698277107214
 20
41.785630032224951
 30
0.0
  0
SEQEND
  5
4FFA
  8
0
  0
POLYLINE
  5
4CE1
  8
0
 66
     1
 10
0.0
 20
0.0
 30
0.0
  0
VERTEX
  5
4FFB
  8
0
 10
32.148173169245347
 20
42.710601625475867
 30
0.0
  0
VERTEX
  5
4FFC
  8
0
 10
31.937743415939401
 20
42.39386636438109
 30
0.0
  0
VERTEX
  5
4FFD
  8
0
 10
31.693002519912
 20
42.097719185502228
 30
0.0
  0
VERTEX
  5
4FFE
  8
0
 10
31.49739204233185
 20
41.907233187309878
 30
0.0
  0
VERTEX
  5
4FFF
  8
0
 10
31.288405497818982
 20
41.743927590482137
 30
0.0
  0
VERTEX
  5
5000
  8
0
 10
31.08358928168343
 20
41.622176381982513
 30
0.0
  0
VERTEX
  5
5001
  8
0
 10
30.87847908607046
 20
41.538771219208108
 30
0.0
  0
VERTEX
  5
5002
  8
0
 10
30.700180278888752
 20
41.500420728195081
 30
0.0
  0
VERTEX
  5
5003
  8
0
 10
30.533857597368868
 20
41.498440700466737
 30
0.0
  0
VERTEX
  5
5004
  8
0
 10
30.379317397835958
 20
41.534244213418901
 30
0.0
  0
VERTEX
  5
5005
  8
0
 10
30.24606947105497
 20
41.606817031659943
 30
0.0
  0
VERTEX
  5
5006
  8
0
 10
30.08698277107214
 20
41.785630032224951
 30
0.0
  0
SEQEND
  5
5007
  8
0
  0
ARC
  5
4CE2
  8
0
 10
20.0
 20
49.999999999999943
 30
0.0
 40
14.16733708261672
 50
329.03452869146548
 51
30.965471308534521
  0
POLYLINE
  5
4CE3
  8
0
 66
     1
 10
0.0
 20
0.0
 30
0.0
  0
VERTEX
  5
5008
  8
0
 10
30.08698277107214
 20
58.214369967775042
 30
0.0
  0
VERTEX
  5
5009
  8
0
 10
30.20227268539924
 20
58.35713248150909
 30
0.0
  0
VERTEX
  5
500A
  8
0
 10
30.358756537251001
 20
58.457522241821671
 30
0.0
  0
VERTEX
  5
500B
  8
0
 10
30.548667195869939
 20
58.502908341214841
 30
0.0
  0
VERTEX
  5
500C
  8
0
 10
30.78072200180657
 20
58.486480903145321
 30
0.0
  0
VERTEX
  5
500D
  8
0
 10
30.994889357914762
 20
58.41875523647127
 30
0.0
  0
VERTEX
  5
500E
  8
0
 10
31.228737737120412
 20
58.295427198553909
 30
0.0
  0
VERTEX
  5
500F
  8
0
 10
31.426457327769871
 20
58.152699098042092
 30
0.0
  0
VERTEX
  5
5010
  8
0
 10
31.62413725018007
 20
57.973701020651617
 30
0.0
  0
VERTEX
  5
5011
  8
0
 10
31.8112190290251
 20
57.767888590885597
 30
0.0
  0
VERTEX
  5
5012
  8
0
 10
31.98740847873302
 20
57.537101489508359
 30
0.0
  0
VERTEX
  5
5013
  8
0
 10
32.148173169245347
 20
57.289398374524012
 30
0.0
  0
SEQEND
  5
5014
  8
0
  0
POLYLINE
  5
4CE4
  8
0
 66
     1
 10
0.0
 20
0.0
 30
0.0
  0
VERTEX
  5
5015
  8
0
 10
32.929638317358922
 20
36.862006197638721
 30
0.0
  0
VERTEX
  5
5016
  8
0
 10
33.391395815847893
 20
36.07584028356996
 30
0.0
  0
VERTEX
  5
5017
  8
0
 10
33.903686612087313
 20
35.291979008548033
 30
0.0
  0
VERTEX
  5
5018
  8
0
 10
34.475901924612231
 20
34.506806180676683
 30
0.0
  0
VERTEX
  5
5019
  8
0
 10
34.853023550364007
 20
34.030148146684901
 30
0.0
  0
VERTEX
  5
501A
  8
0
 10
35.262523198904383
 20
33.547539423374651
 30
0.0
  0
VERTEX
  5
501B
  8
0
 10
35.717257739383683
 20
33.05543506904894
 30
0.0
  0
VERTEX
  5
501C
  8
0
 10
36.230084040952477
 20
32.550290142010972
 30
0.0
  0
VERTEX
  5
501D
  8
0
 10
36.813858972761238
 20
32.028559700563733
 30
0.0
  0
VERTEX
  5
501E
  8
0
 10
37.196901147690603
 20
31.713528163773681
 30
0.0
  0
VERTEX
  5
501F
  8
0
 10
37.621162065685162
 20
31.3902145705996
 30
0.0
  0
VERTEX
  5
5020
  8
0
 10
38.02011081579866
 20
31.109452175975839
 30
0.0
  0
VERTEX
  5
5021
  8
0
 10
38.45093683769403
 20
30.829881465633949
 30
0.0
  0
VERTEX
  5
5022
  8
0
 10
38.910657000830383
 20
30.557589048922409
 30
0.0
  0
VERTEX
  5
5023
  8
0
 10
39.377276209871638
 20
30.30599740993642
 30
0.0
  0
VERTEX
  5
5024
  8
0
 10
39.871419276183929
 20
30.065661528791789
 30
0.0
  0
VERTEX
  5
5025
  8
0
 10
40.343496120823943
 20
29.858804828167369
 30
0.0
  0
VERTEX
  5
5026
  8
0
 10
40.886502409729466
 20
29.646091153517322
 30
0.0
  0
VERTEX
  5
5027
  8
0
 10
41.397198950586578
 20
29.469191417541261
 30
0.0
  0
VERTEX
  5
5028
  8
0
 10
41.879351445100887
 20
29.321233403566339
 30
0.0
  0
VERTEX
  5
5029
  8
0
 10
42.747530809963393
 20
29.0929201783797
 30
0.0
  0
VERTEX
  5
502A
  8
0
 10
43.565456138625898
 20
28.921577483745811
 30
0.0
  0
VERTEX
  5
502B
  8
0
 10
44.34227941673452
 20
28.799326177459481
 30
0.0
  0
VERTEX
  5
502C
  8
0
 10
45.087152629935467
 20
28.718287117315519
 30
0.0
  0
VERTEX
  5
502D
  8
0
 10
45.80922776387478
 20
28.670581161108888
 30
0.0
  0
VERTEX
  5
502E
  8
0
 10
46.51765680419868
 20
28.648329166634309
 30
0.0
  0
VERTEX
  5
502F
  8
0
 10
47.157344453713222
 20
28.647636229863679
 30
0.0
  0
SEQEND
  5
5030
  8
0
  0
POLYLINE
  5
4CE5
  8
0
 66
     1
 10
0.0
 20
0.0
 30
0.0
  0
VERTEX
  5
5031
  8
0
 10
47.386890755265533
 20
30.895165273343771
 30
0.0
  0
VERTEX
  5
5032
  8
0
 10
47.555976660994922
 20
30.55456013072126
 30
0.0
  0
VERTEX
  5
5033
  8
0
 10
47.690077193149477
 20
30.194534707977141
 30
0.0
  0
VERTEX
  5
5034
  8
0
 10
47.757237667859151
 20
29.929888066050239
 30
0.0
  0
VERTEX
  5
5035
  8
0
 10
47.794171191035723
 20
29.667247611039041
 30
0.0
  0
VERTEX
  5
5036
  8
0
 10
47.797202722470097
 20
29.428995960508871
 30
0.0
  0
VERTEX
  5
5037
  8
0
 10
47.76687861443304
 20
29.209662739145578
 30
0.0
  0
VERTEX
  5
5038
  8
0
 10
47.71094171030699
 20
29.036076197155289
 30
0.0
  0
VERTEX
  5
5039
  8
0
 10
47.629495123860067
 20
28.891046515869331
 30
0.0
  0
VERTEX
  5
503A
  8
0
 10
47.521218272332312
 20
28.775112533644009
 30
0.0
  0
VERTEX
  5
503B
  8
0
 10
47.391744404720782
 20
28.696002853170619
 30
0.0
  0
VERTEX
  5
503C
  8
0
 10
47.157344453713222
 20
28.647636229863679
 30
0.0
  0
SEQEND
  5
503D
  8
0
  0
ARC
  5
4CE6
  8
0
 10
35.0
 20
24.01923788646679
 30
0.0
 40
14.16733708261674
 50
29.03452869146663
 51
90.965471308535996
  0
POLYLINE
  5
4CE7
  8
0
 66
     1
 10
0.0
 20
0.0
 30
0.0
  0
VERTEX
  5
503E
  8
0
 10
32.929638317358922
 20
36.862006197638721
 30
0.0
  0
VERTEX
  5
503F
  8
0
 10
32.863647310920669
 20
37.033231449113153
 30
0.0
  0
VERTEX
  5
5040
  8
0
 10
32.85494915413603
 20
37.218945320255159
 30
0.0
  0
VERTEX
  5
5041
  8
0
 10
32.910598968392272
 20
37.406105824765177
 30
0.0
  0
VERTEX
  5
5042
  8
0
 10
33.040852950047913
 20
37.598857462741819
 30
0.0
  0
VERTEX
  5
5043
  8
0
 10
33.206588775929959
 20
37.750469000455837
 30
0.0
  0
VERTEX
  5
5044
  8
0
 10
33.430318179368101
 20
37.891323618523082
 30
0.0
  0
VERTEX
  5
5045
  8
0
 10
33.652784135569959
 20
37.991189756595418
 30
0.0
  0
VERTEX
  5
5046
  8
0
 10
33.906640979023791
 20
38.072886552525581
 30
0.0
  0
VERTEX
  5
5047
  8
0
 10
34.178420661038281
 20
38.131997910707582
 30
0.0
  0
VERTEX
  5
5048
  8
0
 10
34.466382878550689
 20
38.169188899344817
 30
0.0
  0
VERTEX
  5
5049
  8
0
 10
34.761282413979821
 20
38.184563647867833
 30
0.0
  0
SEQEND
  5
504A
  8
0
  0
CIRCLE
  5
4CE8
  8
0
 10
50.0
 20
50.0
 30
0.0
 40
4.0
  0
CIRCLE
  5
4CE9
  8
0
 10
50.0
 20
50.0
 30
0.0
 40
3.4641016151377539
  0
LINE
  5
4CEA
  8
3
 10
156.5
 20
57.079999999999892
 30
0.0
 11
130.5
 21
57.080000000000041
 31
0.0
  0
LINE
  5
4CEB
  8
3
 10
156.5
 20
42.920000000000158
 30
0.0
 11
130.5
 21
42.920000000000009
 31
0.0
  0
CIRCLE
  5
4CEC
  8
3
 10
50.0
 20
50.0
 30
0.0
 40
7.08000000000004
  0
ENDSEC
  0
EOF
