  0
SECTION
  2
HEADER
  9
$ACADVER
  1
AC1009
  9
$INSBASE
 10
0.0
 20
0.0
 30
0.0
  9
$EXTMIN
 10
0.0
 20
-2.960436562073669
 30
0.0
  9
$EXTMAX
 10
401.31168708227972
 20
337.14285714285722
 30
0.0
  9
$LIMMIN
 10
0.0
 20
0.0
  9
$LIMMAX
 10
375.0
 20
270.0
  9
$ORTHOMODE
 70
     1
  9
$REGENMODE
 70
     1
  9
$FILLMODE
 70
     1
  9
$QTEXTMODE
 70
     0
  9
$MIRRTEXT
 70
     0
  9
$DRAGMODE
 70
     2
  9
$LTSCALE
 40
10.0
  9
$OSMODE
 70
  3071
  9
$ATTMODE
 70
     1
  9
$TEXTSIZE
 40
0.2
  9
$TRACEWID
 40
0.05
  9
$TEXTSTYLE
  7
STANDARD
  9
$CLAYER
  8
0
  9
$CELTYPE
  6
BYLAYER
  9
$CECOLOR
 62
   256
  9
$DIMSCALE
 40
1.0
  9
$DIMASZ
 40
3.0
  9
$DIMEXO
 40
2.0
  9
$DIMDLI
 40
0.38
  9
$DIMRND
 40
0.0
  9
$DIMDLE
 40
0.0
  9
$DIMEXE
 40
2.0
  9
$DIMTP
 40
0.0
  9
$DIMTM
 40
0.0
  9
$DIMTXT
 40
3.2000000000000002
  9
$DIMCEN
 40
0.0
  9
$DIMTSZ
 40
0.0
  9
$DIMTOL
 70
     0
  9
$DIMLIM
 70
     0
  9
$DIMTIH
 70
     0
  9
$DIMTOH
 70
     0
  9
$DIMSE1
 70
     0
  9
$DIMSE2
 70
     0
  9
$DIMTAD
 70
     1
  9
$DIMZIN
 70
     0
  9
$DIMBLK
  1

  9
$DIMASO
 70
     1
  9
$DIMSHO
 70
     0
  9
$DIMPOST
  1

  9
$DIMAPOST
  1

  9
$DIMALT
 70
     0
  9
$DIMALTD
 70
     2
  9
$DIMALTF
 40
25.399999999999999
  9
$DIMLFAC
 40
1.0
  9
$DIMTOFL
 70
     0
  9
$DIMTVP
 40
1.6000000000000001
  9
$DIMTIX
 70
     1
  9
$DIMSOXD
 70
     0
  9
$DIMSAH
 70
     0
  9
$DIMBLK1
  1

  9
$DIMBLK2
  1

  9
$DIMSTYLE
  2
STANDARD
  9
$DIMCLRD
 70
     0
  9
$DIMCLRE
 70
     0
  9
$DIMCLRT
 70
     0
  9
$DIMTFAC
 40
1.0
  9
$DIMGAP
 40
0.09
  9
$LUNITS
 70
     2
  9
$LUPREC
 70
     4
  9
$SKETCHINC
 40
0.1
  9
$FILLETRAD
 40
0.0
  9
$AUNITS
 70
     0
  9
$AUPREC
 70
     0
  9
$MENU
  1
E:\r13\win\SUPPORT\ACAD
  9
$ELEVATION
 40
0.0
  9
$PELEVATION
 40
0.0
  9
$THICKNESS
 40
0.0
  9
$LIMCHECK
 70
     0
  9
$BLIPMODE
 70
     0
  9
$CHAMFERA
 40
0.0
  9
$CHAMFERB
 40
0.0
  9
$SKPOLY
 70
     0
  9
$TDCREATE
 40
2449840.6035879632
  9
$TDUPDATE
 40
2456598.6755233328
  9
$TDINDWG
 40
0.007529456
  9
$TDUSRTIMER
 40
0.007529456
  9
$USRTIMER
 70
     1
  9
$ANGBASE
 50
0.0
  9
$ANGDIR
 70
     0
  9
$PDMODE
 70
     0
  9
$PDSIZE
 40
0.0
  9
$PLINEWID
 40
0.0
  9
$COORDS
 70
     1
  9
$SPLFRAME
 70
     0
  9
$SPLINETYPE
 70
     6
  9
$SPLINESEGS
 70
     8
  9
$ATTDIA
 70
     0
  9
$ATTREQ
 70
     1
  9
$HANDLING
 70
     1
  9
$HANDSEED
  5
506
  9
$SURFTAB1
 70
     6
  9
$SURFTAB2
 70
     6
  9
$SURFTYPE
 70
     6
  9
$SURFU
 70
     6
  9
$SURFV
 70
     6
  9
$UCSNAME
  2

  9
$UCSORG
 10
0.0
 20
0.0
 30
0.0
  9
$UCSXDIR
 10
1.0
 20
0.0
 30
0.0
  9
$UCSYDIR
 10
0.0
 20
1.0
 30
0.0
  9
$PUCSNAME
  2

  9
$PUCSORG
 10
0.0
 20
0.0
 30
0.0
  9
$PUCSXDIR
 10
1.0
 20
0.0
 30
0.0
  9
$PUCSYDIR
 10
0.0
 20
1.0
 30
0.0
  9
$USERI1
 70
     0
  9
$USERI2
 70
     1
  9
$USERI3
 70
     1
  9
$USERI4
 70
     0
  9
$USERI5
 70
     0
  9
$USERR1
 40
0.0
  9
$USERR2
 40
0.0
  9
$USERR3
 40
0.0
  9
$USERR4
 40
0.0
  9
$USERR5
 40
0.0
  9
$WORLDVIEW
 70
     1
  9
$SHADEDGE
 70
     3
  9
$SHADEDIF
 70
    70
  9
$TILEMODE
 70
     1
  9
$MAXACTVP
 70
    16
  9
$PLIMCHECK
 70
     0
  9
$PEXTMIN
 10
1.0000000000000000E+020
 20
1.0000000000000000E+020
 30
1.0000000000000000E+020
  9
$PEXTMAX
 10
-1.0000000000000000E+020
 20
-1.0000000000000000E+020
 30
-1.0000000000000000E+020
  9
$PLIMMIN
 10
0.0
 20
0.0
  9
$PLIMMAX
 10
12.0
 20
9.0
  9
$UNITMODE
 70
     0
  9
$VISRETAIN
 70
     0
  9
$PLINEGEN
 70
     0
  9
$PSLTSCALE
 70
     0
  0
ENDSEC
  0
SECTION
  2
TABLES
  0
TABLE
  2
VPORT
 70
     1
  0
VPORT
  2
*ACTIVE
 70
     0
 10
0.0
 20
0.0
 11
1.0
 21
1.0
 12
200.65584447551629
 22
212.44061656889031
 13
0.0
 23
0.0
 14
10.0
 24
10.0
 15
10.0
 25
10.0
 16
0.0
 26
0.0
 36
1.0
 17
0.0
 27
0.0
 37
0.0
 40
434.72741412961062
 41
1.831871345029239
 42
50.0
 43
0.0
 44
0.0
 50
0.0
 51
0.0
 71
     0
 72
   500
 73
     1
 74
     0
 75
     0
 76
     0
 77
     0
 78
     0
  0
ENDTAB
  0
TABLE
  2
LTYPE
 70
     3
  0
LTYPE
  2
CONTINUOUS
 70
     0
  3
Solid Line
 72
    65
 73
     0
 40
0.0
  0
LTYPE
  2
CENTER
 70
     0
  3
____ _ ____ _ ____ _ ____ _ ____ _ ____ _ ____
 72
    65
 73
     4
 40
2.0
 49
1.25
 49
-0.25
 49
0.25
 49
-0.25
  0
LTYPE
  2
PHANTOM2
 70
     0
  3
___ _ _ ___ _ _ ___ _ _ ___ _ _
 72
    65
 73
     6
 40
1.25
 49
0.625
 49
-0.125
 49
0.125
 49
-0.125
 49
0.125
 49
-0.125
  0
ENDTAB
  0
TABLE
  2
LAYER
 70
     3
  0
LAYER
  2
0
 70
     0
 62
     7
  6
CONTINUOUS
  0
LAYER
  2
1
 70
     0
 62
     1
  6
CENTER
  0
LAYER
  2
3
 70
     0
 62
     3
  6
CONTINUOUS
  0
ENDTAB
  0
TABLE
  2
STYLE
 70
     4
  0
STYLE
  2
STANDARD
 70
     0
 40
0.0
 41
1.0
 50
0.0
 71
     0
 42
0.2
  3
TXT
  4
BIGFONT
  0
STYLE
  2
K90
 70
     0
 40
0.0
 41
0.9
 50
0.0
 71
     0
 42
0.2
  3
TXT
  4
BIGFONT
  0
STYLE
  2
07500
 70
     0
 40
0.0
 41
0.75
 50
0.0
 71
     0
 42
0.2
  3
simplex.shx
  4
BIGFONT.shx
  0
STYLE
  2
STANDARD1
 70
     0
 40
0.0
 41
1.0
 50
0.0
 71
     0
 42
3.0
  3
txt
  4

  0
ENDTAB
  0
TABLE
  2
VIEW
 70
     1
  0
VIEW
  2
ALL
 70
     0
 40
179.5384664489153
 10
135.0
 20
89.769233224457665
 41
0.0
 11
0.0
 21
0.0
 31
1.0
 12
0.0
 22
0.0
 32
0.0
 42
0.0
 43
0.0
 44
0.0
 50
0.0
 71
     0
  0
ENDTAB
  0
TABLE
  2
UCS
 70
     0
  0
ENDTAB
  0
TABLE
  2
APPID
 70
     3
  0
APPID
  2
ACAD
 70
     0
  0
APPID
  2
ACAD_MLEADERVER
 70
     0
  0
APPID
  2
ACAD_NAV_VCDISPLAY
 70
     0
  0
ENDTAB
  0
TABLE
  2
DIMSTYLE
 70
     1
  0
DIMSTYLE
  2
STANDARD
 70
     0
  3

  4

  5

  6

  7

 40
1.0
 41
0.18
 42
0.0625
 43
0.38
 44
0.18
 45
0.0
 46
0.0
 47
0.0
 48
0.0
140
0.18
141
0.09
142
0.0
143
25.399999999999999
144
1.0
145
0.0
146
1.0
147
0.09
 71
     0
 72
     0
 73
     1
 74
     1
 75
     0
 76
     0
 77
     0
 78
     0
170
     0
171
     2
172
     0
173
     0
174
     0
175
     0
176
     0
177
     0
178
     0
  0
ENDTAB
  0
ENDSEC
  0
SECTION
  2
BLOCKS
  0
BLOCK
  8
0
  2
$MODEL_SPACE
 70
     0
 10
0.0
 20
0.0
 30
0.0
  3
$MODEL_SPACE
  1

  0
ENDBLK
  5
275
  8
0
  0
BLOCK
 67
     1
  8
0
  2
$PAPER_SPACE
 70
     0
 10
0.0
 20
0.0
 30
0.0
  3
$PAPER_SPACE
  1

  0
ENDBLK
  5
273
 67
     1
  8
0
  0
BLOCK
  8
0
  2
003
 70
     0
 10
0.0
 20
0.0
 30
0.0
  3
003
  1

  0
LINE
  5
2D6
  8
0
 10
55.866025403784541
 20
8.0000000000000284
 30
0.0
 11
55.866025403784541
 21
-7.9999999999999849
 31
0.0
  0
LINE
  5
2D7
  8
0
 10
53.500000000000028
 20
-6.6339745962155936
 30
0.0
 11
55.866025403784448
 21
-8.0
 31
0.0
  0
LINE
  5
2D8
  8
0
 10
53.500000000000028
 20
6.6339745962155661
 30
0.0
 11
55.866025403784448
 21
7.9999999999999707
 31
0.0
  0
LINE
  5
2D9
  8
0
 10
53.267949192431189
 20
6.5000000000000142
 30
0.0
 11
53.267949192431189
 21
-6.500000000000056
 31
0.0
  0
ARC
  5
2DA
  8
0
 10
100.0
 20
0.0
 30
0.0
 40
100.0
 50
161.44699546497961
 51
198.55300453502039
  0
LINE
  5
2DB
  8
0
 10
90.000000000000028
 20
6.0000000000000142
 30
0.0
 11
90.000000000000028
 21
-5.9999999999999849
 31
0.0
  0
LINE
  5
2DC
  8
0
 10
88.000000000000014
 20
8.0
 30
0.0
 11
88.000000000000014
 21
-7.9999999999999849
 31
0.0
  0
LINE
  5
2DD
  8
0
 10
88.000000000000014
 20
-7.9999999999999849
 30
0.0
 11
55.866025403784391
 21
-7.9999999999999849
 31
0.0
  0
LINE
  5
2DE
  8
0
 10
88.000000000000014
 20
8.0000000000000142
 30
0.0
 11
55.866025403784541
 21
8.0000000000000284
 31
0.0
  0
LINE
  5
2DF
  8
3
 10
89.082500000000067
 20
-6.9174999999999889
 30
0.0
 11
53.991080404591152
 21
-6.9174999999999889
 31
0.0
  0
LINE
  5
2E0
  8
3
 10
89.082500000000067
 20
6.9175000000000324
 30
0.0
 11
53.991080404591152
 21
6.9175000000000031
 31
0.0
  0
LINE
  5
2E1
  8
0
 10
90.000000000000028
 20
-5.9999999999999849
 30
0.0
 11
88.000000000000014
 21
-7.9999999999999849
 31
0.0
  0
LINE
  5
2E2
  8
0
 10
88.000000000000014
 20
8.0000000000000142
 30
0.0
 11
90.000000000000028
 21
6.0000000000000142
 31
0.0
  0
LINE
  5
2E3
  8
0
 10
51.000000000000028
 20
-6.4999999999999849
 30
0.0
 11
53.000000000000028
 21
-6.4999999999999849
 31
0.0
  0
ARC
  5
2E4
  8
0
 10
51.000000000000028
 20
-7.4999999999999849
 30
0.0
 40
1.0
 50
90.0
 51
180.0
  0
ARC
  5
2E5
  8
0
 10
53.000000000000028
 20
-7.4999999999999849
 30
0.0
 40
1.0
 50
60.000000000000277
 51
90.0
  0
ARC
  5
2E6
  8
0
 10
53.000000000000028
 20
7.5000000000000417
 30
0.0
 40
1.0
 50
270.0
 51
299.99999999999841
  0
ARC
  5
2E7
  8
0
 10
51.000000000000028
 20
7.5000000000000417
 30
0.0
 40
1.0
 50
180.0
 51
270.0
  0
LINE
  5
2E8
  8
0
 10
51.000000000000028
 20
6.5000000000000417
 30
0.0
 11
53.000000000000028
 21
6.5000000000000417
 31
0.0
  0
LINE
  5
2E9
  8
0
 10
50.000000000000028
 20
15.500000000000011
 30
0.0
 11
50.000000000000028
 21
-15.5
 31
0.0
  0
LINE
  5
2EA
  8
1
 10
-4.9999999999997442
 20
0.0
 30
0.0
 11
95.000000000000028
 21
-0.0000000000000142
 31
0.0
  0
LINE
  5
2EB
  8
0
 10
16.57338554154321
 20
-39.999999999999972
 30
0.0
 11
23.000000000000028
 21
-39.999999999999972
 31
0.0
  0
LINE
  5
2EC
  8
0
 10
16.57338554154321
 20
40.000000000000007
 30
0.0
 11
23.000000000000028
 21
40.000000000000007
 31
0.0
  0
LINE
  5
2ED
  8
0
 10
25.00000000000006
 20
-15.500000000000011
 30
0.0
 11
50.000000000000028
 21
-15.5
 31
0.0
  0
LINE
  5
2EE
  8
0
 10
25.00000000000006
 20
15.500000000000011
 30
0.0
 11
50.000000000000028
 21
15.500000000000011
 31
0.0
  0
LINE
  5
2EF
  8
0
 10
25.000000000000028
 20
38.000000000000021
 30
0.0
 11
25.000000000000028
 21
-37.999999999999972
 31
0.0
  0
ARC
  5
2F0
  8
0
 10
16.573385541543161
 20
-27.999999999999972
 30
0.0
 40
12.0
 50
198.55300453502039
 51
270.0
  0
ARC
  5
2F1
  8
0
 10
16.573385541543161
 20
28.000000000000021
 30
0.0
 40
12.0
 50
90.0
 51
161.44699546497961
  0
ARC
  5
2F2
  8
0
 10
23.000000000000028
 20
-37.999999999999972
 30
0.0
 40
2.0
 50
270.0
 51
0.0
  0
ARC
  5
2F3
  8
0
 10
23.000000000000028
 20
38.000000000000021
 30
0.0
 40
2.0
 50
0.0
 51
90.0
  0
ENDBLK
  5
2F5
  8
0
  0
ENDSEC
  0
SECTION
  2
ENTITIES
  0
LINE
  5
35
  8
1
 10
168.65986687204969
 20
180.0
 30
0.0
 11
268.65986687204969
 21
180.0
 31
0.0
  0
LINE
  5
36
  8
1
 10
125.2626100517237
 20
180.0
 30
0.0
 11
35.262610051723932
 21
180.0
 31
0.0
  0
LINE
  5
37
  8
1
 10
80.262610051723811
 20
225.0
 30
0.0
 11
80.262610051723811
 21
135.00000000000011
 31
0.0
  0
CIRCLE
  5
38
  8
0
 10
80.262610051723811
 20
180.0
 30
0.0
 40
20.0
  0
ARC
  5
39
  8
0
 10
80.262610051723811
 20
180.0
 30
0.0
 40
40.0
 50
26.108905677602309
 51
33.891094322381157
  0
ARC
  5
3A
  8
0
 10
108.2626100517238
 20
228.49742261192861
 30
0.0
 40
24.0
 50
207.91819601232191
 51
272.08180398767797
  0
ARC
  5
3B
  8
0
 10
82.637717625307275
 20
214.91931935209951
 30
0.0
 40
5.0
 50
27.918196012321911
 51
86.108905677618921
  0
ARC
  5
3C
  8
0
 10
109.31607390671169
 20
199.5165631714938
 30
0.0
 40
5.0
 50
33.8910943223811
 51
92.081803987677873
  0
ARC
  5
3D
  8
0
 10
77.887502478140334
 20
214.91931935209951
 30
0.0
 40
5.0
 50
93.891094322381093
 51
152.08180398767789
  0
ARC
  5
3E
  8
0
 10
51.209146196735837
 20
199.51656317149391
 30
0.0
 40
5.0
 50
87.918196012321914
 51
146.10890567761891
  0
ARC
  5
3F
  8
0
 10
52.262610051723811
 20
228.49742261192861
 30
0.0
 40
24.0
 50
267.91819601232191
 51
332.08180398767797
  0
ARC
  5
40
  8
0
 10
80.262610051723811
 20
180.0
 30
0.0
 40
40.0
 50
86.108905677602309
 51
93.891094322381164
  0
ARC
  5
41
  8
0
 10
48.834038623152423
 20
195.40275618060559
 30
0.0
 40
5.0
 50
153.89109432238109
 51
212.0818039876778
  0
ARC
  5
42
  8
0
 10
48.834038623152367
 20
164.59724381939441
 30
0.0
 40
5.0
 50
147.91819601232191
 51
206.10890567761891
  0
ARC
  5
43
  8
0
 10
24.262610051723811
 20
180.0
 30
0.0
 40
24.0
 50
327.91819601232191
 51
32.081803987678072
  0
ARC
  5
44
  8
0
 10
80.262610051723811
 20
180.0
 30
0.0
 40
40.0
 50
146.10890567760231
 51
153.89109432238109
  0
ARC
  5
45
  8
0
 10
51.209146196735901
 20
160.4834368285062
 30
0.0
 40
5.0
 50
213.89109432238109
 51
272.08180398767792
  0
ARC
  5
46
  8
0
 10
77.887502478140334
 20
145.08068064790061
 30
0.0
 40
5.0
 50
207.91819601232191
 51
266.10890567761891
  0
ARC
  5
47
  8
0
 10
52.262610051723811
 20
131.50257738807139
 30
0.0
 40
24.0
 50
27.918196012321911
 51
92.081803987678057
  0
ARC
  5
48
  8
0
 10
80.262610051723811
 20
180.0
 30
0.0
 40
40.0
 50
206.10890567760231
 51
213.89109432238121
  0
ARC
  5
49
  8
0
 10
82.637717625307275
 20
145.08068064790061
 30
0.0
 40
5.0
 50
273.89109432238109
 51
332.08180398767792
  0
ARC
  5
4A
  8
0
 10
109.31607390671169
 20
160.48343682850609
 30
0.0
 40
5.0
 50
267.91819601232191
 51
326.10890567761891
  0
ARC
  5
4B
  8
0
 10
108.2626100517238
 20
131.50257738807139
 30
0.0
 40
24.0
 50
87.918196012321886
 51
152.08180398767809
  0
ARC
  5
4C
  8
0
 10
80.262610051723811
 20
180.0
 30
0.0
 40
40.0
 50
266.10890567760231
 51
273.89109432238121
  0
ARC
  5
4D
  8
0
 10
111.6911814802952
 20
164.59724381939441
 30
0.0
 40
5.0
 50
333.89109432238109
 51
32.081803987677873
  0
ARC
  5
4E
  8
0
 10
111.6911814802952
 20
195.40275618060559
 30
0.0
 40
5.0
 50
327.91819601232191
 51
26.108905677618878
  0
ARC
  5
4F
  8
0
 10
136.26261005172381
 20
180.0
 30
0.0
 40
24.0
 50
147.9181960123218
 51
212.081803987678
  0
ARC
  5
50
  8
0
 10
80.262610051723811
 20
180.0
 30
0.0
 40
40.0
 50
326.10890567760231
 51
333.89109432238109
  0
ARC
  5
52
  8
0
 10
356.31168708227972
 20
180.0
 30
0.0
 40
40.0
 50
326.10890567760231
 51
333.89109432238109
  0
ARC
  5
53
  8
0
 10
412.31168708227972
 20
180.0
 30
0.0
 40
24.0
 50
147.9181960123218
 51
212.081803987678
  0
ARC
  5
54
  8
0
 10
387.74025851085122
 20
195.40275618060559
 30
0.0
 40
5.0
 50
327.91819601232191
 51
26.108905677618878
  0
ARC
  5
55
  8
0
 10
387.74025851085111
 20
164.59724381939441
 30
0.0
 40
5.0
 50
333.89109432238109
 51
32.081803987677873
  0
ARC
  5
56
  8
0
 10
356.31168708227972
 20
180.0
 30
0.0
 40
40.0
 50
266.10890567760231
 51
273.89109432238121
  0
ARC
  5
57
  8
0
 10
384.31168708227972
 20
131.50257738807139
 30
0.0
 40
24.0
 50
87.918196012321886
 51
152.08180398767809
  0
ARC
  5
58
  8
0
 10
385.36515093726757
 20
160.48343682850609
 30
0.0
 40
5.0
 50
267.91819601232191
 51
326.10890567761891
  0
ARC
  5
59
  8
0
 10
358.6867946558632
 20
145.08068064790061
 30
0.0
 40
5.0
 50
273.89109432238109
 51
332.08180398767792
  0
ARC
  5
5A
  8
0
 10
356.31168708227972
 20
180.0
 30
0.0
 40
40.0
 50
206.10890567760231
 51
213.89109432238121
  0
ARC
  5
5B
  8
0
 10
328.31168708227972
 20
131.50257738807139
 30
0.0
 40
24.0
 50
27.918196012321911
 51
92.081803987678057
  0
ARC
  5
5C
  8
0
 10
353.93657950869618
 20
145.08068064790061
 30
0.0
 40
5.0
 50
207.91819601232191
 51
266.10890567761891
  0
ARC
  5
5D
  8
0
 10
327.25822322729181
 20
160.4834368285062
 30
0.0
 40
5.0
 50
213.89109432238109
 51
272.08180398767792
  0
ARC
  5
5E
  8
0
 10
356.31168708227972
 20
180.0
 30
0.0
 40
40.0
 50
146.10890567760231
 51
153.89109432238109
  0
ARC
  5
5F
  8
0
 10
300.31168708227972
 20
180.0
 30
0.0
 40
24.0
 50
327.91819601232191
 51
32.081803987678072
  0
ARC
  5
60
  8
0
 10
324.88311565370827
 20
164.59724381939441
 30
0.0
 40
5.0
 50
147.91819601232191
 51
206.10890567761891
  0
ARC
  5
61
  8
0
 10
324.88311565370827
 20
195.40275618060559
 30
0.0
 40
5.0
 50
153.89109432238109
 51
212.0818039876778
  0
ARC
  5
62
  8
0
 10
356.31168708227972
 20
180.0
 30
0.0
 40
40.0
 50
86.108905677602309
 51
93.891094322381164
  0
ARC
  5
63
  8
0
 10
328.31168708227972
 20
228.49742261192861
 30
0.0
 40
24.0
 50
267.91819601232191
 51
332.08180398767797
  0
ARC
  5
64
  8
0
 10
327.25822322729181
 20
199.51656317149391
 30
0.0
 40
5.0
 50
87.918196012321914
 51
146.10890567761891
  0
ARC
  5
65
  8
0
 10
353.93657950869618
 20
214.91931935209951
 30
0.0
 40
5.0
 50
93.891094322381093
 51
152.08180398767789
  0
ARC
  5
66
  8
0
 10
385.36515093726757
 20
199.5165631714938
 30
0.0
 40
5.0
 50
33.8910943223811
 51
92.081803987677873
  0
ARC
  5
67
  8
0
 10
358.6867946558632
 20
214.91931935209951
 30
0.0
 40
5.0
 50
27.918196012321911
 51
86.108905677618921
  0
ARC
  5
68
  8
0
 10
384.31168708227972
 20
228.49742261192861
 30
0.0
 40
24.0
 50
207.91819601232191
 51
272.08180398767797
  0
ARC
  5
69
  8
0
 10
356.31168708227972
 20
180.0
 30
0.0
 40
40.0
 50
26.108905677602309
 51
33.891094322381157
  0
CIRCLE
  5
6A
  8
0
 10
356.31168708227972
 20
180.0
 30
0.0
 40
11.99999999999997
  0
LINE
  5
6B
  8
1
 10
356.31168708227972
 20
225.0
 30
0.0
 11
356.31168708227972
 21
135.00000000000011
 31
0.0
  0
LINE
  5
6C
  8
1
 10
401.31168708227972
 20
180.0
 30
0.0
 11
311.31168708227978
 21
180.0
 31
0.0
  0
CIRCLE
  5
6D
  8
0
 10
356.31168708227978
 20
180.0
 30
0.0
 40
15.5
  0
ARC
  5
6E
  8
0
 10
384.31168708227972
 20
131.50257738807139
 30
0.0
 40
28.0
 50
87.918196012321886
 51
152.08180398767809
  0
ARC
  5
6F
  8
0
 10
356.31168708227972
 20
180.0
 30
0.0
 40
36.0
 50
326.10890567760231
 51
333.89109432238109
  0
ARC
  5
70
  8
0
 10
412.31168708227972
 20
180.0
 30
0.0
 40
28.0
 50
147.9181960123218
 51
212.081803987678
  0
ARC
  5
71
  8
0
 10
384.31168708227972
 20
228.49742261192861
 30
0.0
 40
28.0
 50
207.91819601232191
 51
272.08180398767797
  0
ARC
  5
72
  8
0
 10
356.31168708227972
 20
180.0
 30
0.0
 40
36.0
 50
26.108905677602309
 51
33.891094322381157
  0
ARC
  5
73
  8
0
 10
356.31168708227972
 20
180.0
 30
0.0
 40
36.0
 50
86.108905677602309
 51
93.891094322381164
  0
ARC
  5
74
  8
0
 10
328.31168708227972
 20
228.49742261192861
 30
0.0
 40
28.0
 50
267.91819601232191
 51
332.08180398767797
  0
ARC
  5
75
  8
0
 10
356.31168708227972
 20
180.0
 30
0.0
 40
36.0
 50
146.10890567760231
 51
153.89109432238109
  0
ARC
  5
76
  8
0
 10
300.31168708227972
 20
180.0
 30
0.0
 40
28.0
 50
327.91819601232191
 51
32.081803987678072
  0
ARC
  5
77
  8
0
 10
356.31168708227972
 20
180.0
 30
0.0
 40
36.0
 50
206.10890567760231
 51
213.89109432238121
  0
ARC
  5
78
  8
0
 10
328.31168708227972
 20
131.50257738807139
 30
0.0
 40
28.0
 50
27.918196012321911
 51
92.081803987678057
  0
ARC
  5
79
  8
0
 10
356.31168708227972
 20
180.0
 30
0.0
 40
36.0
 50
266.10890567760231
 51
273.89109432238121
  0
ARC
  5
7A
  8
0
 10
353.93657950869618
 20
145.08068064790061
 30
0.0
 40
1.0
 50
207.91819601232191
 51
266.10890567761891
  0
ARC
  5
7B
  8
0
 10
358.6867946558632
 20
145.08068064790061
 30
0.0
 40
1.0
 50
273.89109432238109
 51
332.08180398767792
  0
ARC
  5
7C
  8
0
 10
385.36515093726757
 20
160.48343682850609
 30
0.0
 40
1.0
 50
267.91819601232191
 51
326.10890567761891
  0
ARC
  5
7D
  8
0
 10
387.74025851085111
 20
164.59724381939441
 30
0.0
 40
1.0
 50
333.89109432238109
 51
32.081803987677873
  0
ARC
  5
7E
  8
0
 10
387.74025851085122
 20
195.40275618060559
 30
0.0
 40
1.0
 50
327.91819601232191
 51
26.108905677618878
  0
ARC
  5
7F
  8
0
 10
385.36515093726757
 20
199.5165631714938
 30
0.0
 40
1.0
 50
33.8910943223811
 51
92.081803987677873
  0
ARC
  5
80
  8
0
 10
358.6867946558632
 20
214.91931935209951
 30
0.0
 40
1.0
 50
27.918196012321911
 51
86.108905677618921
  0
ARC
  5
81
  8
0
 10
353.93657950869618
 20
214.91931935209951
 30
0.0
 40
1.0
 50
93.891094322381093
 51
152.08180398767789
  0
ARC
  5
82
  8
0
 10
327.25822322729181
 20
199.51656317149391
 30
0.0
 40
1.0
 50
87.918196012321914
 51
146.10890567761891
  0
ARC
  5
83
  8
0
 10
324.88311565370827
 20
195.40275618060559
 30
0.0
 40
1.0
 50
153.89109432238109
 51
212.0818039876778
  0
ARC
  5
84
  8
0
 10
324.88311565370827
 20
164.59724381939441
 30
0.0
 40
1.0
 50
147.91819601232191
 51
206.10890567761891
  0
ARC
  5
85
  8
0
 10
327.25822322729181
 20
160.4834368285062
 30
0.0
 40
1.0
 50
213.89109432238109
 51
272.08180398767792
  0
TEXT
  5
86
  8
0
 10
343.43394929998823
 20
192.75145131964609
 30
0.0
 40
3.0
  1
EK80
 50
30.00000000000027
 41
0.9
  7
K90
 72
     1
 11
347.52591933286959
 21
195.11395131964611
 31
0.0
  0
LINE
  5
96
  8
0
 10
223.65986687204969
 20
195.5
 30
0.0
 11
223.65986687204969
 21
164.5
 31
0.0
  0
LINE
  5
97
  8
0
 10
198.65986687204961
 20
164.5
 30
0.0
 11
223.65986687204969
 21
164.5
 31
0.0
  0
LINE
  5
98
  8
0
 10
198.65986687204961
 20
195.5
 30
0.0
 11
223.65986687204969
 21
195.5
 31
0.0
  0
CIRCLE
  5
99
  8
0
 10
356.3116870822796
 20
180.0
 30
0.0
 40
8.0
  0
CIRCLE
  5
9A
  8
3
 10
356.3116870822796
 20
180.0
 30
0.0
 40
6.9175000000000182
  0
LINE
  5
9C
  8
0
 10
198.65986687204961
 20
315.5
 30
0.0
 11
223.65986687204969
 21
315.5
 31
0.0
  0
LINE
  5
9D
  8
0
 10
198.65986687204961
 20
284.5
 30
0.0
 11
223.65986687204969
 21
284.5
 31
0.0
  0
LINE
  5
9E
  8
0
 10
223.65986687204969
 20
315.5
 30
0.0
 11
223.65986687204969
 21
284.5
 31
0.0
  0
LINE
  5
AE
  8
0
 10
198.65986687204961
 20
335.91836734693879
 30
0.0
 11
198.65986687204961
 21
264.08163265306121
 31
0.0
  0
LINE
  5
AF
  8
1
 10
168.65986687204969
 20
300.0
 30
0.0
 11
268.65986687204969
 21
300.0
 31
0.0
  0
POLYLINE
  5
B3
  8
0
 66
     1
 10
0.0
 20
0.0
 30
0.0
  0
VERTEX
  5
B4
  8
0
 10
178.91954391460831
 20
207.712812921102
 30
0.0
 42
-0.0333153239125791
  0
VERTEX
  5
B5
  8
0
 10
179.18059612213901
 20
211.62636428786129
 30
0.0
 42
-0.0280370744323409
  0
VERTEX
  5
B6
  8
0
 10
179.52247454908581
 20
213.41102924933779
 30
0.0
 42
-0.0877700341022931
 70
     2
 50
72.072661499012341
  0
SEQEND
  5
B7
  8
0
  0
LINE
  5
B8
  8
0
 10
190.23325241359271
 20
194.84614977916181
 30
0.0
 11
196.65986687204969
 21
194.84614977916181
 31
0.0
  0
LINE
  5
B9
  8
0
 10
190.23325241359271
 20
204.74358296526961
 30
0.0
 11
196.65986687204969
 21
204.74358296526961
 31
0.0
  0
LINE
  5
BA
  8
0
 10
182.0083529729329
 20
202.304643624574
 30
0.0
 11
182.0083529729329
 21
197.60314992069209
 31
0.0
  0
POLYLINE
  5
BB
  8
0
 66
     1
 10
0.0
 20
0.0
 30
0.0
  0
VERTEX
  5
BC
  8
0
 10
182.0083529729329
 20
202.304643624574
 30
0.0
 42
-0.2419324640559122
  0
VERTEX
  5
BD
  8
0
 10
182.38359586452529
 20
203.034763561701
 30
0.0
 42
-0.0834527680669295
  0
VERTEX
  5
BE
  8
0
 10
184.4173702445247
 20
204.0292341712825
 30
0.0
 42
-0.0415379361371658
 70
     2
 50
16.516733611106559
  0
VERTEX
  5
BF
  8
0
 10
186.8563753342508
 20
204.53697304791379
 30
0.0
 42
-0.0305632860178485
  0
VERTEX
  5
C0
  8
0
 10
190.23325241359271
 20
204.74358296526961
 30
0.0
 42
-0.030563286017848
  0
SEQEND
  5
C1
  8
0
  0
POLYLINE
  5
C2
  8
0
 66
     1
 10
0.0
 20
0.0
 30
0.0
  0
VERTEX
  5
C3
  8
0
 10
190.23325241359271
 20
194.84614977916181
 30
0.0
 42
-0.0345044451652393
  0
VERTEX
  5
C4
  8
0
 10
186.8643601304573
 20
195.07891041200321
 30
0.0
 42
-0.0464002765522976
  0
VERTEX
  5
C5
  8
0
 10
184.4173702445247
 20
195.65365642488371
 30
0.0
 42
-0.0894685126639884
 70
     2
 50
161.46876150228971
  0
VERTEX
  5
C6
  8
0
 10
182.32076204478469
 20
196.8041973980803
 30
0.0
 42
-0.2647891865078056
  0
VERTEX
  5
C7
  8
0
 10
182.0083529729329
 20
197.60314992069209
 30
0.0
 42
-0.2263619295482538
  0
SEQEND
  5
C8
  8
0
  0
POLYLINE
  5
C9
  8
0
 66
     1
 10
0.0
 20
0.0
 30
0.0
  0
VERTEX
  5
CA
  8
0
 10
196.65986687204969
 20
204.74358296526961
 30
0.0
 42
-0.1174698772331571
  0
VERTEX
  5
CB
  8
0
 10
197.40436676478859
 20
204.56622292150939
 30
0.0
 42
-0.1044336155469924
  0
VERTEX
  5
CC
  8
0
 10
198.07408043442271
 20
204.0292341712825
 30
0.0
 42
-0.0900912588227425
 70
     2
 50
309.35273225439789
  0
VERTEX
  5
CD
  8
0
 10
198.54428970031779
 20
203.18293493217311
 30
0.0
 42
-0.0986171103270562
  0
VERTEX
  5
CE
  8
0
 10
198.65986687204921
 20
202.304643624574
 30
0.0
 42
-0.0820433288011429
  0
SEQEND
  5
CF
  8
0
  0
POLYLINE
  5
D0
  8
0
 66
     1
 10
0.0
 20
0.0
 30
0.0
  0
VERTEX
  5
D1
  8
0
 10
198.65986687204961
 20
197.60314992069209
 30
0.0
 42
-0.073104398857379
  0
VERTEX
  5
D2
  8
0
 10
198.49964416977431
 20
196.5131578402717
 30
0.0
 42
-0.0841198574309186
  0
VERTEX
  5
D3
  8
0
 10
198.07408043442271
 20
195.65365642488371
 30
0.0
 42
-0.1064976157653378
 70
     2
 50
234.04188702145819
  0
VERTEX
  5
D4
  8
0
 10
197.34099211286909
 20
194.9962636735205
 30
0.0
 42
-0.1521043799646016
  0
VERTEX
  5
D5
  8
0
 10
196.65986687204969
 20
194.84614977915999
 30
0.0
 42
-0.1304367837620168
  0
SEQEND
  5
D6
  8
0
  0
POLYLINE
  5
D7
  8
0
 66
     1
 10
0.0
 20
0.0
 30
0.0
  0
VERTEX
  5
D8
  8
0
 10
182.0083529729329
 20
204.51326307501699
 30
0.0
 42
-0.1016751841731597
  0
VERTEX
  5
D9
  8
0
 10
180.8315847987007
 20
204.75505896466919
 30
0.0
 42
-0.0997536367288044
  0
VERTEX
  5
DA
  8
0
 10
179.8242351420011
 20
205.4503895281909
 30
0.0
 42
-0.0971512164439776
 70
     2
 50
133.99110021246099
  0
VERTEX
  5
DB
  8
0
 10
179.0969306763605
 20
206.574922878227
 30
0.0
 42
-0.1133589353691071
  0
VERTEX
  5
DC
  8
0
 10
178.9195439146078
 20
207.712812921102
 30
0.0
 42
-0.0953878356365924
  0
SEQEND
  5
DD
  8
0
  0
POLYLINE
  5
DE
  8
0
 66
     1
 10
0.0
 20
0.0
 30
0.0
  0
VERTEX
  5
DF
  8
0
 10
182.0083529729329
 20
155.48673692498289
 30
0.0
 42
0.1016751841731597
  0
VERTEX
  5
E0
  8
0
 10
180.8315847987007
 20
155.24494103533081
 30
0.0
 42
0.0997536367288044
  0
VERTEX
  5
E1
  8
0
 10
179.8242351420011
 20
154.54961047180899
 30
0.0
 42
0.0971512164439776
 70
     2
 50
226.00889978753901
  0
VERTEX
  5
E2
  8
0
 10
179.0969306763605
 20
153.42507712177289
 30
0.0
 42
0.1133589353691071
 50
226.00889978753901
  0
VERTEX
  5
E3
  8
0
 10
178.9195439146078
 20
152.287187078898
 30
0.0
 42
0.0953878356365924
  0
SEQEND
  5
E4
  8
0
  0
POLYLINE
  5
E5
  8
0
 66
     1
 10
0.0
 20
0.0
 30
0.0
  0
VERTEX
  5
E6
  8
0
 10
178.91954391460831
 20
152.287187078898
 30
0.0
 42
0.0333153239125791
  0
VERTEX
  5
E7
  8
0
 10
179.18059612213901
 20
148.37363571213871
 30
0.0
 42
0.0280370744323409
  0
VERTEX
  5
E8
  8
0
 10
179.52247454908581
 20
146.58897075066221
 30
0.0
 42
0.0877700341022931
 70
     2
 50
287.92733850098767
  0
SEQEND
  5
E9
  8
0
  0
ARC
  5
EA
  8
0
 10
206.76676834220581
 20
180.0
 30
0.0
 40
27.847224427597371
 50
152.7578896233077
 51
207.24211037669241
  0
POLYLINE
  5
EB
  8
0
 66
     1
 10
0.0
 20
0.0
 30
0.0
  0
VERTEX
  5
EC
  8
0
 10
198.65986687204961
 20
162.39685007930791
 30
0.0
 42
0.073104398857379
  0
VERTEX
  5
ED
  8
0
 10
198.49964416977431
 20
163.4868421597283
 30
0.0
 42
0.0841198574309186
  0
VERTEX
  5
EE
  8
0
 10
198.07408043442271
 20
164.34634357511621
 30
0.0
 42
0.1064976157653378
 70
     2
 50
125.95811297854181
  0
VERTEX
  5
EF
  8
0
 10
197.34099211286909
 20
165.00373632647941
 30
0.0
 42
0.1521043799646016
 50
125.95811297854181
  0
VERTEX
  5
F0
  8
0
 10
196.65986687204969
 20
165.1538502208399
 30
0.0
 42
0.1304367837620168
  0
SEQEND
  5
F1
  8
0
  0
POLYLINE
  5
F2
  8
0
 66
     1
 10
0.0
 20
0.0
 30
0.0
  0
VERTEX
  5
F3
  8
0
 10
196.65986687204969
 20
155.2564170347303
 30
0.0
 42
0.1174698772331571
  0
VERTEX
  5
F4
  8
0
 10
197.40436676478859
 20
155.43377707849049
 30
0.0
 42
0.1044336155469924
  0
VERTEX
  5
F5
  8
0
 10
198.07408043442271
 20
155.97076582871739
 30
0.0
 42
0.0900912588227425
 70
     2
 50
50.647267745602022
  0
VERTEX
  5
F6
  8
0
 10
198.54428970031779
 20
156.81706506782689
 30
0.0
 42
0.0986171103270562
 50
50.647267745602022
  0
VERTEX
  5
F7
  8
0
 10
198.65986687204921
 20
157.695356375426
 30
0.0
 42
0.0820433288011429
  0
SEQEND
  5
F8
  8
0
  0
POLYLINE
  5
F9
  8
0
 66
     1
 10
0.0
 20
0.0
 30
0.0
  0
VERTEX
  5
FA
  8
0
 10
190.23325241359271
 20
165.15385022083819
 30
0.0
 42
0.0345044451652393
  0
VERTEX
  5
FB
  8
0
 10
186.8643601304573
 20
164.9210895879967
 30
0.0
 42
0.0464002765522976
  0
VERTEX
  5
FC
  8
0
 10
184.4173702445247
 20
164.34634357511621
 30
0.0
 42
0.0894685126639884
 70
     2
 50
198.53123849771029
  0
VERTEX
  5
FD
  8
0
 10
182.32076204478469
 20
163.19580260191961
 30
0.0
 42
0.2647891865078056
 50
198.53123849771029
  0
VERTEX
  5
FE
  8
0
 10
182.0083529729329
 20
162.3968500793078
 30
0.0
 42
0.2263619295482538
  0
SEQEND
  5
FF
  8
0
  0
POLYLINE
  5
100
  8
0
 66
     1
 10
0.0
 20
0.0
 30
0.0
  0
VERTEX
  5
101
  8
0
 10
182.0083529729329
 20
157.695356375426
 30
0.0
 42
0.2419324640559122
  0
VERTEX
  5
102
  8
0
 10
182.38359586452529
 20
156.96523643829889
 30
0.0
 42
0.0834527680669295
  0
VERTEX
  5
103
  8
0
 10
184.4173702445247
 20
155.97076582871739
 30
0.0
 42
0.0415379361371658
 70
     2
 50
343.48326638889341
  0
VERTEX
  5
104
  8
0
 10
186.8563753342508
 20
155.46302695208621
 30
0.0
 42
0.0305632860178485
 50
343.48326638889341
  0
VERTEX
  5
105
  8
0
 10
190.23325241359271
 20
155.2564170347303
 30
0.0
 42
0.030563286017848
  0
SEQEND
  5
106
  8
0
  0
LINE
  5
107
  8
0
 10
182.0083529729329
 20
157.695356375426
 30
0.0
 11
182.0083529729329
 21
162.39685007930791
 31
0.0
  0
LINE
  5
108
  8
0
 10
190.23325241359271
 20
155.2564170347303
 30
0.0
 11
196.65986687204969
 21
155.2564170347303
 31
0.0
  0
LINE
  5
109
  8
0
 10
190.23325241359271
 20
165.15385022083819
 30
0.0
 11
196.65986687204969
 21
165.15385022083819
 31
0.0
  0
ARC
  5
114
  8
0
 10
190.23325241359271
 20
272.0
 30
0.0
 40
12.0
 50
198.55300453502059
 51
223.52645309928809
  0
LINE
  5
115
  8
0
 10
190.23325241359271
 20
262.85714285714289
 30
0.0
 11
196.65986687204961
 21
262.85714285714289
 31
0.0
  0
LINE
  5
116
  8
0
 10
190.23325241359271
 20
268.57142857142861
 30
0.0
 11
196.65986687204961
 21
268.57142857142861
 31
0.0
  0
LINE
  5
117
  8
0
 10
190.23325241359271
 20
294.28571428571428
 30
0.0
 11
196.65986687204961
 21
294.28571428571428
 31
0.0
  0
LINE
  5
118
  8
0
 10
182.0083529729329
 20
264.08163265306132
 30
0.0
 11
182.0083529729329
 21
266.79604130859173
 31
0.0
  0
POLYLINE
  5
119
  8
0
 66
     1
 10
0.0
 20
0.0
 30
0.0
  0
VERTEX
  5
11A
  8
0
 10
182.0083529729329
 20
266.79604130859161
 30
0.0
 42
-0.2795580664896631
  0
VERTEX
  5
11B
  8
0
 10
182.30778664686139
 20
267.28973502230099
 30
0.0
 42
-0.0670520922577397
  0
VERTEX
  5
11C
  8
0
 10
184.4173702445247
 20
268.05142968137579
 30
0.0
 42
-0.0308648938759908
 70
     2
 50
12.18070602109124
  0
VERTEX
  5
11D
  8
0
 10
186.84252900815761
 20
268.42014776879648
 30
0.0
 42
-0.0222969518133514
  0
VERTEX
  5
11E
  8
0
 10
190.23325241359271
 20
268.57142857142861
 30
0.0
 42
-0.022296951813355
  0
SEQEND
  5
11F
  8
0
  0
POLYLINE
  5
120
  8
0
 66
     1
 10
0.0
 20
0.0
 30
0.0
  0
VERTEX
  5
121
  8
0
 10
190.23325241359271
 20
262.85714285714289
 30
0.0
 42
-0.0153983298634053
  0
VERTEX
  5
122
  8
0
 10
186.8341389165434
 20
262.96184902561339
 30
0.0
 42
-0.021553838956585
  0
VERTEX
  5
123
  8
0
 10
184.4173702445247
 20
263.21578761487359
 30
0.0
 42
-0.0493525396935822
 70
     2
 50
171.53223035377351
  0
VERTEX
  5
124
  8
0
 10
182.16650055373529
 20
263.7819425864119
 30
0.0
 42
-0.3879733399938947
  0
VERTEX
  5
125
  8
0
 10
182.0083529729275
 20
264.08163265306132
 30
0.0
 42
-0.3164055000193597
  0
SEQEND
  5
126
  8
0
  0
POLYLINE
  5
127
  8
0
 66
     1
 10
0.0
 20
0.0
 30
0.0
  0
VERTEX
  5
128
  8
0
 10
198.65986687204961
 20
264.08163265306132
 30
0.0
 42
-0.149809088047153
  0
VERTEX
  5
129
  8
0
 10
198.5271950497816
 20
263.64876739197109
 30
0.0
 42
-0.1070584564297643
  0
VERTEX
  5
12A
  8
0
 10
198.07408043442271
 20
263.21578761487359
 30
0.0
 42
-0.0753949568670071
 70
     2
 50
211.4768393495842
  0
VERTEX
  5
12B
  8
0
 10
197.38981209101161
 20
262.92739515489291
 30
0.0
 42
-0.0763560856767091
  0
VERTEX
  5
12C
  8
0
 10
196.65986687204961
 20
262.85714285714312
 30
0.0
 42
-0.0621709537807147
  0
SEQEND
  5
12D
  8
0
  0
POLYLINE
  5
12E
  8
0
 66
     1
 10
0.0
 20
0.0
 30
0.0
  0
VERTEX
  5
12F
  8
0
 10
196.65986687204961
 20
268.57142857142861
 30
0.0
 42
-0.0883162286527782
  0
VERTEX
  5
130
  8
0
 10
197.4358271330552
 20
268.43329136723492
 30
0.0
 42
-0.0936784760909244
  0
VERTEX
  5
131
  8
0
 10
198.07408043442271
 20
268.05142968137591
 30
0.0
 42
-0.1024146123325029
 70
     2
 50
318.4047395136642
  0
VERTEX
  5
132
  8
0
 10
198.51152689259851
 20
267.46475678651262
 30
0.0
 42
-0.1095822351360249
  0
VERTEX
  5
133
  8
0
 10
198.65986687204961
 20
266.79604130859173
 30
0.0
 42
-0.1095822351360312
  0
SEQEND
  5
134
  8
0
  0
POLYLINE
  5
135
  8
0
 66
     1
 10
0.0
 20
0.0
 30
0.0
  0
VERTEX
  5
136
  8
0
 10
190.23325241359271
 20
262.85714285714289
 30
0.0
 42
-0.014049044621695
  0
VERTEX
  5
137
  8
0
 10
186.505526683938
 20
262.96190550496578
 30
0.0
 42
-0.0196988967580343
  0
VERTEX
  5
138
  8
0
 10
183.8575383924443
 20
263.21578761487359
 30
0.0
 42
-0.0425433538501831
 70
     2
 50
172.26633720805481
  0
VERTEX
  5
139
  8
0
 10
181.532574596525
 20
263.73572716304778
 30
0.0
 42
-0.3998052163679323
  0
SEQEND
  5
13A
  8
0
  0
LINE
  5
13B
  8
0
 10
182.0083529729329
 20
297.28559134447602
 30
0.0
 11
182.0083529729329
 21
302.71440865552398
 31
0.0
  0
POLYLINE
  5
13C
  8
0
 66
     1
 10
0.0
 20
0.0
 30
0.0
  0
VERTEX
  5
13D
  8
0
 10
190.23325241359271
 20
294.28571428571428
 30
0.0
 42
-0.0375032381114614
  0
VERTEX
  5
13E
  8
0
 10
186.87100556555399
 20
294.53825977741042
 30
0.0
 42
-0.0499903084674384
  0
VERTEX
  5
13F
  8
0
 10
184.4173702445247
 20
295.16435793349967
 30
0.0
 42
-0.0933247509568806
 70
     2
 50
159.96151190183909
  0
VERTEX
  5
140
  8
0
 10
182.33873932980561
 20
296.39864849464072
 30
0.0
 42
-0.2512239759550847
  0
VERTEX
  5
141
  8
0
 10
182.0083529729331
 20
297.28559134447602
 30
0.0
 42
-0.2154533742904706
  0
SEQEND
  5
142
  8
0
  0
POLYLINE
  5
143
  8
0
 66
     1
 10
0.0
 20
0.0
 30
0.0
  0
VERTEX
  5
144
  8
0
 10
198.65986687204961
 20
297.28559134447607
 30
0.0
 42
-0.0674616806571715
  0
VERTEX
  5
145
  8
0
 10
198.49808544493769
 20
296.09198672633119
 30
0.0
 42
-0.0798145994351946
  0
VERTEX
  5
146
  8
0
 10
198.07408043442271
 20
295.16435793349967
 30
0.0
 42
-0.1071179736340392
 70
     2
 50
236.3088487488001
  0
VERTEX
  5
147
  8
0
 10
197.33171907025451
 20
294.44544544792171
 30
0.0
 42
-0.1626707303288968
  0
VERTEX
  5
148
  8
0
 10
196.65986687204961
 20
294.28571428571439
 30
0.0
 42
-0.1398844701409504
  0
SEQEND
  5
149
  8
0
  0
POLYLINE
  5
14A
  8
0
 66
     1
 10
0.0
 20
0.0
 30
0.0
  0
VERTEX
  5
14B
  8
0
 10
198.65986687204961
 20
302.71440865552398
 30
0.0
 42
0.0674616806571715
  0
VERTEX
  5
14C
  8
0
 10
198.49808544493769
 20
303.90801327366893
 30
0.0
 42
0.0798145994351946
  0
VERTEX
  5
14D
  8
0
 10
198.07408043442271
 20
304.83564206650038
 30
0.0
 42
0.1071179736340392
 70
     2
 50
123.6911512511998
  0
VERTEX
  5
14E
  8
0
 10
197.33171907025451
 20
305.5545545520784
 30
0.0
 42
0.1626707303288968
  0
VERTEX
  5
14F
  8
0
 10
196.65986687204961
 20
305.71428571428561
 30
0.0
 42
0.1398844701409504
  0
SEQEND
  5
150
  8
0
  0
POLYLINE
  5
151
  8
0
 66
     1
 10
0.0
 20
0.0
 30
0.0
  0
VERTEX
  5
152
  8
0
 10
190.23325241359271
 20
305.71428571428572
 30
0.0
 42
0.0375032381114614
  0
VERTEX
  5
153
  8
0
 10
186.87100556555399
 20
305.46174022258958
 30
0.0
 42
0.0499903084674384
  0
VERTEX
  5
154
  8
0
 10
184.4173702445247
 20
304.83564206650038
 30
0.0
 42
0.0933247509568806
 70
     2
 50
200.0384880981608
  0
VERTEX
  5
155
  8
0
 10
182.33873932980561
 20
303.60135150535928
 30
0.0
 42
0.2512239759550847
  0
VERTEX
  5
156
  8
0
 10
182.0083529729331
 20
302.71440865552398
 30
0.0
 42
0.2154533742904706
  0
SEQEND
  5
157
  8
0
  0
LINE
  5
158
  8
0
 10
190.23325241359271
 20
305.71428571428572
 30
0.0
 11
196.65986687204961
 21
305.71428571428578
 31
0.0
  0
POLYLINE
  5
159
  8
0
 66
     1
 10
0.0
 20
0.0
 30
0.0
  0
VERTEX
  5
15A
  8
0
 10
178.9195439146084
 20
284.0
 30
0.0
 42
-0.0345339610687482
  0
VERTEX
  5
15B
  8
0
 10
179.18031059734361
 20
287.77100810002082
 30
0.0
 42
-0.046436085275913
  0
VERTEX
  5
15C
  8
0
 10
179.82423514200121
 20
290.51019603422623
 30
0.0
 42
-0.089509422305752
 70
     2
 50
71.453815896081167
  0
VERTEX
  5
15D
  8
0
 10
181.05571641835951
 20
292.75248145129598
 30
0.0
 42
-0.2262507140571177
  0
VERTEX
  5
15E
  8
0
 10
182.0083529729329
 20
293.20680752531018
 30
0.0
 42
-0.2262507140571272
  0
SEQEND
  5
15F
  8
0
  0
POLYLINE
  5
160
  8
0
 66
     1
 10
0.0
 20
0.0
 30
0.0
  0
VERTEX
  5
161
  8
0
 10
182.0083529729329
 20
271.12816784414792
 30
0.0
 42
-0.2675516259436962
  0
VERTEX
  5
162
  8
0
 10
181.12866907320321
 20
271.63518371931241
 30
0.0
 42
-0.0725190556333023
  0
VERTEX
  5
163
  8
0
 10
179.82423514200121
 20
274.89824019630191
 30
0.0
 42
-0.0341235768199648
 70
     2
 50
103.4939206985249
  0
VERTEX
  5
164
  8
0
 10
179.18232930481139
 20
278.69940111254192
 30
0.0
 42
-0.0247730608551025
  0
VERTEX
  5
165
  8
0
 10
178.9195439146084
 20
284.0
 30
0.0
 42
-0.0247730608551022
  0
SEQEND
  5
166
  8
0
  0
POLYLINE
  5
167
  8
0
 66
     1
 10
0.0
 20
0.0
 30
0.0
  0
VERTEX
  5
168
  8
0
 10
190.23325241359271
 20
337.14285714285722
 30
0.0
 42
0.014049044621695
  0
VERTEX
  5
169
  8
0
 10
186.505526683938
 20
337.03809449503427
 30
0.0
 42
0.0196988967580343
  0
VERTEX
  5
16A
  8
0
 10
183.8575383924443
 20
336.78421238512641
 30
0.0
 42
0.0425433538501831
 70
     2
 50
187.73366279194519
  0
VERTEX
  5
16B
  8
0
 10
181.53257459652491
 20
336.26427283695222
 30
0.0
 42
0.3998052163679323
  0
SEQEND
  5
16C
  8
0
  0
POLYLINE
  5
16D
  8
0
 66
     1
 10
0.0
 20
0.0
 30
0.0
  0
VERTEX
  5
16E
  8
0
 10
196.65986687204961
 20
331.42857142857139
 30
0.0
 42
0.0883162286527782
  0
VERTEX
  5
16F
  8
0
 10
197.4358271330552
 20
331.5667086327652
 30
0.0
 42
0.0936784760909244
  0
VERTEX
  5
170
  8
0
 10
198.07408043442271
 20
331.94857031862409
 30
0.0
 42
0.1024146123325029
 70
     2
 50
41.595260486335746
  0
VERTEX
  5
171
  8
0
 10
198.51152689259851
 20
332.53524321348738
 30
0.0
 42
0.1095822351360249
  0
VERTEX
  5
172
  8
0
 10
198.65986687204961
 20
333.20395869140827
 30
0.0
 42
0.1095822351360312
  0
SEQEND
  5
173
  8
0
  0
POLYLINE
  5
174
  8
0
 66
     1
 10
0.0
 20
0.0
 30
0.0
  0
VERTEX
  5
175
  8
0
 10
198.65986687204961
 20
335.91836734693879
 30
0.0
 42
0.149809088047153
  0
VERTEX
  5
176
  8
0
 10
198.5271950497816
 20
336.35123260802891
 30
0.0
 42
0.1070584564297643
  0
VERTEX
  5
177
  8
0
 10
198.07408043442271
 20
336.78421238512641
 30
0.0
 42
0.0753949568670071
 70
     2
 50
148.5231606504158
  0
VERTEX
  5
178
  8
0
 10
197.38981209101161
 20
337.07260484510709
 30
0.0
 42
0.0763560856767091
  0
VERTEX
  5
179
  8
0
 10
196.65986687204961
 20
337.142857142857
 30
0.0
 42
0.0621709537807147
  0
SEQEND
  5
17A
  8
0
  0
POLYLINE
  5
17B
  8
0
 66
     1
 10
0.0
 20
0.0
 30
0.0
  0
VERTEX
  5
17C
  8
0
 10
190.23325241359271
 20
337.14285714285722
 30
0.0
 42
0.0153983298634053
  0
VERTEX
  5
17D
  8
0
 10
186.8341389165434
 20
337.03815097438672
 30
0.0
 42
0.021553838956585
  0
VERTEX
  5
17E
  8
0
 10
184.4173702445247
 20
336.78421238512641
 30
0.0
 42
0.0493525396935822
 70
     2
 50
188.4677696462264
  0
VERTEX
  5
17F
  8
0
 10
182.16650055373529
 20
336.2180574135881
 30
0.0
 42
0.3879733399938947
  0
VERTEX
  5
180
  8
0
 10
182.0083529729275
 20
335.91836734693879
 30
0.0
 42
0.3164055000193597
  0
SEQEND
  5
181
  8
0
  0
POLYLINE
  5
182
  8
0
 66
     1
 10
0.0
 20
0.0
 30
0.0
  0
VERTEX
  5
183
  8
0
 10
182.0083529729329
 20
333.20395869140839
 30
0.0
 42
0.2795580664896631
  0
VERTEX
  5
184
  8
0
 10
182.30778664686139
 20
332.71026497769901
 30
0.0
 42
0.0670520922577397
  0
VERTEX
  5
185
  8
0
 10
184.4173702445247
 20
331.94857031862421
 30
0.0
 42
0.0308648938759908
 70
     2
 50
347.81929397890877
  0
VERTEX
  5
186
  8
0
 10
186.84252900815761
 20
331.5798522312034
 30
0.0
 42
0.0222969518133514
  0
VERTEX
  5
187
  8
0
 10
190.23325241359271
 20
331.42857142857139
 30
0.0
 42
0.022296951813355
  0
SEQEND
  5
188
  8
0
  0
LINE
  5
189
  8
0
 10
182.0083529729329
 20
335.91836734693879
 30
0.0
 11
182.0083529729329
 21
333.20395869140827
 31
0.0
  0
LINE
  5
18A
  8
0
 10
190.23325241359271
 20
331.42857142857139
 30
0.0
 11
196.65986687204961
 21
331.42857142857139
 31
0.0
  0
LINE
  5
18B
  8
0
 10
190.23325241359271
 20
337.14285714285722
 30
0.0
 11
196.65986687204961
 21
337.14285714285722
 31
0.0
  0
ARC
  5
18C
  8
0
 10
190.23325241359271
 20
328.0
 30
0.0
 40
12.0
 50
136.47354690071191
 51
161.4469954649793
  0
POLYLINE
  5
18E
  8
0
 66
     1
 10
0.0
 20
0.0
 30
0.0
  0
VERTEX
  5
18F
  8
0
 10
182.0083529729329
 20
328.87183215585208
 30
0.0
 42
0.2675516259436962
  0
VERTEX
  5
190
  8
0
 10
181.12866907320321
 20
328.36481628068771
 30
0.0
 42
0.0725190556333023
  0
VERTEX
  5
191
  8
0
 10
179.82423514200121
 20
325.10175980369809
 30
0.0
 42
0.0341235768199648
 70
     2
 50
256.5060793014751
  0
VERTEX
  5
192
  8
0
 10
179.18232930481139
 20
321.30059888745808
 30
0.0
 42
0.0247730608551025
  0
VERTEX
  5
193
  8
0
 10
178.9195439146084
 20
316.0
 30
0.0
 42
0.0247730608551022
  0
SEQEND
  5
194
  8
0
  0
POLYLINE
  5
195
  8
0
 66
     1
 10
0.0
 20
0.0
 30
0.0
  0
VERTEX
  5
196
  8
0
 10
178.9195439146084
 20
316.0
 30
0.0
 42
0.0345339610687482
  0
VERTEX
  5
197
  8
0
 10
179.18031059734349
 20
312.22899189997918
 30
0.0
 42
0.046436085275913
  0
VERTEX
  5
198
  8
0
 10
179.82423514200121
 20
309.48980396577389
 30
0.0
 42
0.089509422305752
 70
     2
 50
288.54618410391879
  0
VERTEX
  5
199
  8
0
 10
181.05571641835951
 20
307.24751854870402
 30
0.0
 42
0.2262507140571177
  0
VERTEX
  5
19A
  8
0
 10
182.0083529729329
 20
306.79319247468982
 30
0.0
 42
0.2262507140571272
  0
SEQEND
  5
19B
  8
0
  0
POLYLINE
  5
19C
  8
0
 66
     1
 10
0.0
 20
0.0
 30
0.0
  0
VERTEX
  5
19D
  8
0
 10
178.9195439146084
 20
76.0
 30
0.0
 42
0.0345339610687482
  0
VERTEX
  5
19E
  8
0
 10
179.18031059734349
 20
72.228991899979164
 30
0.0
 42
0.046436085275913
  0
VERTEX
  5
19F
  8
0
 10
179.82423514200121
 20
69.489803965773831
 30
0.0
 42
0.089509422305752
 70
     2
 50
288.54618410391879
  0
VERTEX
  5
1A0
  8
0
 10
181.05571641835951
 20
67.247518548704022
 30
0.0
 42
0.2262507140571177
  0
VERTEX
  5
1A1
  8
0
 10
182.0083529729329
 20
66.793192474689803
 30
0.0
 42
0.2262507140571272
  0
SEQEND
  5
1A2
  8
0
  0
POLYLINE
  5
1A3
  8
0
 66
     1
 10
0.0
 20
0.0
 30
0.0
  0
VERTEX
  5
1A4
  8
0
 10
182.0083529729329
 20
88.871832155852104
 30
0.0
 42
0.2675516259436962
  0
VERTEX
  5
1A5
  8
0
 10
181.12866907320321
 20
88.364816280687677
 30
0.0
 42
0.0725190556333023
  0
VERTEX
  5
1A6
  8
0
 10
179.82423514200121
 20
85.101759803698073
 30
0.0
 42
0.0341235768199648
 70
     2
 50
256.5060793014751
  0
VERTEX
  5
1A7
  8
0
 10
179.18232930481139
 20
81.300598887458136
 30
0.0
 42
0.0247730608551025
  0
VERTEX
  5
1A8
  8
0
 10
178.9195439146084
 20
76.0
 30
0.0
 42
0.0247730608551022
  0
SEQEND
  5
1A9
  8
0
  0
ARC
  5
1AB
  8
0
 10
190.23325241359271
 20
88.000000000000014
 30
0.0
 40
12.0
 50
136.47354690071191
 51
161.4469954649793
  0
LINE
  5
1AC
  8
0
 10
190.23325241359271
 20
97.142857142857167
 30
0.0
 11
196.65986687204961
 21
97.142857142857167
 31
0.0
  0
LINE
  5
1AD
  8
0
 10
190.23325241359271
 20
91.428571428571374
 30
0.0
 11
196.65986687204961
 21
91.428571428571416
 31
0.0
  0
LINE
  5
1AE
  8
0
 10
182.0083529729329
 20
95.918367346938766
 30
0.0
 11
182.0083529729329
 21
93.203958691408332
 31
0.0
  0
POLYLINE
  5
1AF
  8
0
 66
     1
 10
0.0
 20
0.0
 30
0.0
  0
VERTEX
  5
1B0
  8
0
 10
182.0083529729329
 20
93.203958691408374
 30
0.0
 42
0.2795580664896631
  0
VERTEX
  5
1B1
  8
0
 10
182.30778664686139
 20
92.710264977698984
 30
0.0
 42
0.0670520922577397
  0
VERTEX
  5
1B2
  8
0
 10
184.4173702445247
 20
91.948570318624164
 30
0.0
 42
0.0308648938759908
 70
     2
 50
347.81929397890877
  0
VERTEX
  5
1B3
  8
0
 10
186.84252900815761
 20
91.579852231203475
 30
0.0
 42
0.0222969518133514
  0
VERTEX
  5
1B4
  8
0
 10
190.23325241359271
 20
91.428571428571416
 30
0.0
 42
0.022296951813355
  0
SEQEND
  5
1B5
  8
0
  0
POLYLINE
  5
1B6
  8
0
 66
     1
 10
0.0
 20
0.0
 30
0.0
  0
VERTEX
  5
1B7
  8
0
 10
190.23325241359271
 20
97.142857142857167
 30
0.0
 42
0.0153983298634053
  0
VERTEX
  5
1B8
  8
0
 10
186.8341389165434
 20
97.038150974386667
 30
0.0
 42
0.021553838956585
  0
VERTEX
  5
1B9
  8
0
 10
184.4173702445247
 20
96.784212385126395
 30
0.0
 42
0.0493525396935822
 70
     2
 50
188.4677696462264
  0
VERTEX
  5
1BA
  8
0
 10
182.16650055373529
 20
96.218057413588056
 30
0.0
 42
0.3879733399938947
  0
VERTEX
  5
1BB
  8
0
 10
182.0083529729275
 20
95.918367346938766
 30
0.0
 42
0.3164055000193597
  0
SEQEND
  5
1BC
  8
0
  0
POLYLINE
  5
1BD
  8
0
 66
     1
 10
0.0
 20
0.0
 30
0.0
  0
VERTEX
  5
1BE
  8
0
 10
198.65986687204961
 20
95.918367346938766
 30
0.0
 42
0.149809088047153
  0
VERTEX
  5
1BF
  8
0
 10
198.5271950497816
 20
96.351232608028923
 30
0.0
 42
0.1070584564297643
  0
VERTEX
  5
1C0
  8
0
 10
198.07408043442271
 20
96.784212385126395
 30
0.0
 42
0.0753949568670071
 70
     2
 50
148.5231606504158
  0
VERTEX
  5
1C1
  8
0
 10
197.38981209101161
 20
97.072604845107094
 30
0.0
 42
0.0763560856767091
  0
VERTEX
  5
1C2
  8
0
 10
196.65986687204961
 20
97.142857142856926
 30
0.0
 42
0.0621709537807147
  0
SEQEND
  5
1C3
  8
0
  0
POLYLINE
  5
1C4
  8
0
 66
     1
 10
0.0
 20
0.0
 30
0.0
  0
VERTEX
  5
1C5
  8
0
 10
196.65986687204961
 20
91.428571428571416
 30
0.0
 42
0.0883162286527782
  0
VERTEX
  5
1C6
  8
0
 10
197.4358271330552
 20
91.566708632765156
 30
0.0
 42
0.0936784760909244
  0
VERTEX
  5
1C7
  8
0
 10
198.07408043442271
 20
91.948570318624121
 30
0.0
 42
0.1024146123325029
 70
     2
 50
41.595260486335746
  0
VERTEX
  5
1C8
  8
0
 10
198.51152689259851
 20
92.535243213487433
 30
0.0
 42
0.1095822351360249
  0
VERTEX
  5
1C9
  8
0
 10
198.65986687204961
 20
93.203958691408332
 30
0.0
 42
0.1095822351360312
  0
SEQEND
  5
1CA
  8
0
  0
POLYLINE
  5
1CB
  8
0
 66
     1
 10
0.0
 20
0.0
 30
0.0
  0
VERTEX
  5
1CC
  8
0
 10
190.23325241359271
 20
97.142857142857167
 30
0.0
 42
0.014049044621695
  0
VERTEX
  5
1CD
  8
0
 10
186.505526683938
 20
97.038094495034272
 30
0.0
 42
0.0196988967580343
  0
VERTEX
  5
1CE
  8
0
 10
183.8575383924443
 20
96.784212385126395
 30
0.0
 42
0.0425433538501831
 70
     2
 50
187.73366279194519
  0
VERTEX
  5
1CF
  8
0
 10
181.53257459652491
 20
96.264272836952216
 30
0.0
 42
0.3998052163679323
  0
SEQEND
  5
1D0
  8
0
  0
POLYLINE
  5
1D1
  8
0
 66
     1
 10
0.0
 20
0.0
 30
0.0
  0
VERTEX
  5
1D2
  8
0
 10
182.0083529729329
 20
31.128167844147931
 30
0.0
 42
-0.2675516259436962
  0
VERTEX
  5
1D3
  8
0
 10
181.12866907320321
 20
31.635183719312352
 30
0.0
 42
-0.0725190556333023
  0
VERTEX
  5
1D4
  8
0
 10
179.82423514200121
 20
34.898240196301913
 30
0.0
 42
-0.0341235768199648
 70
     2
 50
103.4939206985249
  0
VERTEX
  5
1D5
  8
0
 10
179.18232930481139
 20
38.699401112541857
 30
0.0
 42
-0.0247730608551025
  0
VERTEX
  5
1D6
  8
0
 10
178.9195439146084
 20
44.0
 30
0.0
 42
-0.0247730608551022
  0
SEQEND
  5
1D7
  8
0
  0
POLYLINE
  5
1D8
  8
0
 66
     1
 10
0.0
 20
0.0
 30
0.0
  0
VERTEX
  5
1D9
  8
0
 10
178.9195439146084
 20
44.0
 30
0.0
 42
-0.0345339610687482
  0
VERTEX
  5
1DA
  8
0
 10
179.18031059734361
 20
47.771008100020822
 30
0.0
 42
-0.046436085275913
  0
VERTEX
  5
1DB
  8
0
 10
179.82423514200121
 20
50.510196034226162
 30
0.0
 42
-0.089509422305752
 70
     2
 50
71.453815896081167
  0
VERTEX
  5
1DC
  8
0
 10
181.05571641835951
 20
52.752481451295978
 30
0.0
 42
-0.2262507140571177
  0
VERTEX
  5
1DD
  8
0
 10
182.0083529729329
 20
53.206807525310182
 30
0.0
 42
-0.2262507140571272
  0
SEQEND
  5
1DE
  8
0
  0
LINE
  5
1DF
  8
0
 10
190.23325241359271
 20
65.714285714285722
 30
0.0
 11
196.65986687204961
 21
65.714285714285779
 31
0.0
  0
POLYLINE
  5
1E0
  8
0
 66
     1
 10
0.0
 20
0.0
 30
0.0
  0
VERTEX
  5
1E1
  8
0
 10
190.23325241359271
 20
65.714285714285722
 30
0.0
 42
0.0375032381114614
  0
VERTEX
  5
1E2
  8
0
 10
186.87100556555399
 20
65.461740222589583
 30
0.0
 42
0.0499903084674384
  0
VERTEX
  5
1E3
  8
0
 10
184.4173702445247
 20
64.835642066500384
 30
0.0
 42
0.0933247509568806
 70
     2
 50
200.0384880981608
  0
VERTEX
  5
1E4
  8
0
 10
182.33873932980561
 20
63.601351505359283
 30
0.0
 42
0.2512239759550847
  0
VERTEX
  5
1E5
  8
0
 10
182.0083529729331
 20
62.714408655523982
 30
0.0
 42
0.2154533742904706
  0
SEQEND
  5
1E6
  8
0
  0
POLYLINE
  5
1E7
  8
0
 66
     1
 10
0.0
 20
0.0
 30
0.0
  0
VERTEX
  5
1E8
  8
0
 10
198.65986687204961
 20
62.714408655523982
 30
0.0
 42
0.0674616806571715
  0
VERTEX
  5
1E9
  8
0
 10
198.49808544493769
 20
63.908013273668871
 30
0.0
 42
0.0798145994351946
  0
VERTEX
  5
1EA
  8
0
 10
198.07408043442271
 20
64.835642066500384
 30
0.0
 42
0.1071179736340392
 70
     2
 50
123.6911512511998
  0
VERTEX
  5
1EB
  8
0
 10
197.33171907025451
 20
65.554554552078343
 30
0.0
 42
0.1626707303288968
  0
VERTEX
  5
1EC
  8
0
 10
196.65986687204961
 20
65.714285714285609
 30
0.0
 42
0.1398844701409504
  0
SEQEND
  5
1ED
  8
0
  0
POLYLINE
  5
1EE
  8
0
 66
     1
 10
0.0
 20
0.0
 30
0.0
  0
VERTEX
  5
1EF
  8
0
 10
198.65986687204961
 20
57.285591344476067
 30
0.0
 42
-0.0674616806571715
  0
VERTEX
  5
1F0
  8
0
 10
198.49808544493769
 20
56.091986726331193
 30
0.0
 42
-0.0798145994351946
  0
VERTEX
  5
1F1
  8
0
 10
198.07408043442271
 20
55.164357933499673
 30
0.0
 42
-0.1071179736340392
 70
     2
 50
236.3088487488001
  0
VERTEX
  5
1F2
  8
0
 10
197.33171907025451
 20
54.445445447921713
 30
0.0
 42
-0.1626707303288968
  0
VERTEX
  5
1F3
  8
0
 10
196.65986687204961
 20
54.285714285714441
 30
0.0
 42
-0.1398844701409504
  0
SEQEND
  5
1F4
  8
0
  0
POLYLINE
  5
1F5
  8
0
 66
     1
 10
0.0
 20
0.0
 30
0.0
  0
VERTEX
  5
1F6
  8
0
 10
190.23325241359271
 20
54.28571428571427
 30
0.0
 42
-0.0375032381114614
  0
VERTEX
  5
1F7
  8
0
 10
186.87100556555399
 20
54.538259777410417
 30
0.0
 42
-0.0499903084674384
  0
VERTEX
  5
1F8
  8
0
 10
184.4173702445247
 20
55.164357933499673
 30
0.0
 42
-0.0933247509568806
 70
     2
 50
159.96151190183909
  0
VERTEX
  5
1F9
  8
0
 10
182.33873932980561
 20
56.398648494640717
 30
0.0
 42
-0.2512239759550847
  0
VERTEX
  5
1FA
  8
0
 10
182.0083529729331
 20
57.285591344476018
 30
0.0
 42
-0.2154533742904706
  0
SEQEND
  5
1FB
  8
0
  0
LINE
  5
1FC
  8
0
 10
182.0083529729329
 20
57.285591344476018
 30
0.0
 11
182.0083529729329
 21
62.714408655523982
 31
0.0
  0
POLYLINE
  5
1FD
  8
0
 66
     1
 10
0.0
 20
0.0
 30
0.0
  0
VERTEX
  5
1FE
  8
0
 10
190.23325241359271
 20
22.85714285714289
 30
0.0
 42
-0.014049044621695
  0
VERTEX
  5
1FF
  8
0
 10
186.505526683938
 20
22.961905504965792
 30
0.0
 42
-0.0196988967580343
  0
VERTEX
  5
200
  8
0
 10
183.8575383924443
 20
23.215787614873591
 30
0.0
 42
-0.0425433538501831
 70
     2
 50
172.26633720805481
  0
VERTEX
  5
201
  8
0
 10
181.532574596525
 20
23.735727163047841
 30
0.0
 42
-0.3998052163679323
  0
SEQEND
  5
202
  8
0
  0
POLYLINE
  5
203
  8
0
 66
     1
 10
0.0
 20
0.0
 30
0.0
  0
VERTEX
  5
204
  8
0
 10
196.65986687204961
 20
28.571428571428608
 30
0.0
 42
-0.0883162286527782
  0
VERTEX
  5
205
  8
0
 10
197.4358271330552
 20
28.433291367234862
 30
0.0
 42
-0.0936784760909244
  0
VERTEX
  5
206
  8
0
 10
198.07408043442271
 20
28.051429681375911
 30
0.0
 42
-0.1024146123325029
 70
     2
 50
318.4047395136642
  0
VERTEX
  5
207
  8
0
 10
198.51152689259851
 20
27.46475678651257
 30
0.0
 42
-0.1095822351360249
  0
VERTEX
  5
208
  8
0
 10
198.65986687204961
 20
26.796041308591668
 30
0.0
 42
-0.1095822351360312
  0
SEQEND
  5
209
  8
0
  0
POLYLINE
  5
20A
  8
0
 66
     1
 10
0.0
 20
0.0
 30
0.0
  0
VERTEX
  5
20B
  8
0
 10
198.65986687204961
 20
24.081632653061259
 30
0.0
 42
-0.149809088047153
  0
VERTEX
  5
20C
  8
0
 10
198.5271950497816
 20
23.648767391971091
 30
0.0
 42
-0.1070584564297643
  0
VERTEX
  5
20D
  8
0
 10
198.07408043442271
 20
23.215787614873651
 30
0.0
 42
-0.0753949568670071
 70
     2
 50
211.4768393495842
  0
VERTEX
  5
20E
  8
0
 10
197.38981209101161
 20
22.92739515489291
 30
0.0
 42
-0.0763560856767091
  0
VERTEX
  5
20F
  8
0
 10
196.65986687204961
 20
22.857142857143121
 30
0.0
 42
-0.0621709537807147
  0
SEQEND
  5
210
  8
0
  0
POLYLINE
  5
211
  8
0
 66
     1
 10
0.0
 20
0.0
 30
0.0
  0
VERTEX
  5
212
  8
0
 10
190.23325241359271
 20
22.85714285714289
 30
0.0
 42
-0.0153983298634053
  0
VERTEX
  5
213
  8
0
 10
186.8341389165434
 20
22.96184902561339
 30
0.0
 42
-0.021553838956585
  0
VERTEX
  5
214
  8
0
 10
184.4173702445247
 20
23.215787614873591
 30
0.0
 42
-0.0493525396935822
 70
     2
 50
171.53223035377351
  0
VERTEX
  5
215
  8
0
 10
182.16650055373529
 20
23.781942586411962
 30
0.0
 42
-0.3879733399938947
  0
VERTEX
  5
216
  8
0
 10
182.0083529729275
 20
24.081632653061259
 30
0.0
 42
-0.3164055000193597
  0
SEQEND
  5
217
  8
0
  0
POLYLINE
  5
218
  8
0
 66
     1
 10
0.0
 20
0.0
 30
0.0
  0
VERTEX
  5
219
  8
0
 10
182.0083529729329
 20
26.796041308591612
 30
0.0
 42
-0.2795580664896631
  0
VERTEX
  5
21A
  8
0
 10
182.30778664686139
 20
27.289735022301041
 30
0.0
 42
-0.0670520922577397
  0
VERTEX
  5
21B
  8
0
 10
184.4173702445247
 20
28.051429681375851
 30
0.0
 42
-0.0308648938759908
 70
     2
 50
12.18070602109124
  0
VERTEX
  5
21C
  8
0
 10
186.84252900815761
 20
28.420147768796539
 30
0.0
 42
-0.0222969518133514
  0
VERTEX
  5
21D
  8
0
 10
190.23325241359271
 20
28.571428571428608
 30
0.0
 42
-0.022296951813355
  0
SEQEND
  5
21E
  8
0
  0
LINE
  5
21F
  8
0
 10
182.0083529729329
 20
24.081632653061259
 30
0.0
 11
182.0083529729329
 21
26.796041308591729
 31
0.0
  0
LINE
  5
220
  8
0
 10
190.23325241359271
 20
54.28571428571427
 30
0.0
 11
196.65986687204961
 21
54.28571428571427
 31
0.0
  0
LINE
  5
221
  8
0
 10
190.23325241359271
 20
28.571428571428608
 30
0.0
 11
196.65986687204961
 21
28.571428571428608
 31
0.0
  0
LINE
  5
222
  8
0
 10
190.23325241359271
 20
22.85714285714289
 30
0.0
 11
196.65986687204961
 21
22.85714285714289
 31
0.0
  0
ARC
  5
223
  8
0
 10
190.23325241359271
 20
32.0
 30
0.0
 40
12.0
 50
198.55300453502059
 51
223.52645309928809
  0
LINE
  5
227
  8
1
 10
168.65986687204969
 20
60.0
 30
0.0
 11
268.65986687204969
 21
60.0
 31
0.0
  0
LINE
  5
228
  8
0
 10
198.65986687204961
 20
95.918367346938794
 30
0.0
 11
198.65986687204961
 21
24.081632653061209
 31
0.0
  0
LINE
  5
238
  8
0
 10
223.65986687204969
 20
75.5
 30
0.0
 11
223.65986687204969
 21
44.5
 31
0.0
  0
LINE
  5
239
  8
0
 10
198.65986687204961
 20
44.5
 30
0.0
 11
223.65986687204969
 21
44.5
 31
0.0
  0
LINE
  5
23A
  8
0
 10
198.65986687204961
 20
75.5
 30
0.0
 11
223.65986687204969
 21
75.5
 31
0.0
  0
ARC
  5
316
  8
0
 10
196.65986687204961
 20
218.0
 30
0.0
 40
2.0
 50
0.0
 51
90.0
  0
ARC
  5
317
  8
0
 10
196.65986687204961
 20
142.0
 30
0.0
 40
2.0
 50
270.0
 51
0.0
  0
ARC
  5
318
  8
0
 10
190.23325241359279
 20
208.0
 30
0.0
 40
12.0
 50
90.0
 51
161.44699546497961
  0
ARC
  5
319
  8
0
 10
190.23325241359279
 20
152.0
 30
0.0
 40
12.0
 50
198.55300453502039
 51
270.0
  0
LINE
  5
31A
  8
0
 10
198.65986687204961
 20
218.0
 30
0.0
 11
198.65986687204961
 21
142.0
 31
0.0
  0
LINE
  5
31B
  8
0
 10
190.23325241359279
 20
220.0
 30
0.0
 11
196.65986687204961
 21
220.0
 31
0.0
  0
LINE
  5
31C
  8
0
 10
190.23325241359279
 20
140.0
 30
0.0
 11
196.65986687204961
 21
140.0
 31
0.0
  0
ARC
  5
31D
  8
0
 10
273.65986687204958
 20
180.0
 30
0.0
 40
100.0
 50
161.44699546497961
 51
198.55300453502039
  0
LINE
  5
31E
  8
0
 10
224.6598668720498
 20
186.5
 30
0.0
 11
226.65986687204969
 21
186.5
 31
0.0
  0
ARC
  5
31F
  8
0
 10
224.6598668720498
 20
187.5
 30
0.0
 40
1.0
 50
180.0
 51
270.0
  0
ARC
  5
320
  8
0
 10
226.65986687204969
 20
187.5
 30
0.0
 40
1.0
 50
270.0
 51
299.99999999999841
  0
ARC
  5
321
  8
0
 10
226.65986687204969
 20
172.5
 30
0.0
 40
1.0
 50
60.000000000000277
 51
90.0
  0
ARC
  5
322
  8
0
 10
224.6598668720498
 20
172.5
 30
0.0
 40
1.0
 50
90.0
 51
180.0
  0
LINE
  5
323
  8
0
 10
224.6598668720498
 20
173.5
 30
0.0
 11
226.65986687204969
 21
173.5
 31
0.0
  0
LINE
  5
324
  8
0
 10
261.65986687204969
 20
188.0
 30
0.0
 11
263.65986687204969
 21
186.0
 31
0.0
  0
LINE
  5
325
  8
0
 10
263.65986687204969
 20
174.0
 30
0.0
 11
261.65986687204969
 21
172.0
 31
0.0
  0
LINE
  5
326
  8
3
 10
262.74236687204979
 20
186.91749999999999
 30
0.0
 11
227.65094727664089
 21
186.91749999999999
 31
0.0
  0
LINE
  5
327
  8
3
 10
262.74236687204979
 20
173.08250000000001
 30
0.0
 11
227.65094727664089
 21
173.08250000000001
 31
0.0
  0
LINE
  5
328
  8
0
 10
261.65986687204969
 20
188.0
 30
0.0
 11
229.52589227583431
 21
188.0
 31
0.0
  0
LINE
  5
329
  8
0
 10
261.65986687204969
 20
172.0
 30
0.0
 11
229.5258922758342
 21
172.0
 31
0.0
  0
LINE
  5
32A
  8
0
 10
261.65986687204969
 20
188.0
 30
0.0
 11
261.65986687204969
 21
172.0
 31
0.0
  0
LINE
  5
32B
  8
0
 10
263.65986687204969
 20
186.0
 30
0.0
 11
263.65986687204969
 21
174.0
 31
0.0
  0
LINE
  5
32C
  8
0
 10
226.92781606448091
 20
186.5
 30
0.0
 11
226.92781606448091
 21
173.49999999999989
 31
0.0
  0
LINE
  5
32D
  8
0
 10
227.1598668720498
 20
186.63397459621561
 30
0.0
 11
229.5258922758342
 21
187.99999999999989
 31
0.0
  0
LINE
  5
32E
  8
0
 10
227.1598668720498
 20
173.36602540378439
 30
0.0
 11
229.5258922758342
 21
172.0
 31
0.0
  0
LINE
  5
32F
  8
0
 10
229.52589227583431
 20
188.0
 30
0.0
 11
229.52589227583431
 21
172.0
 31
0.0
  0
ARC
  5
330
  8
0
 10
273.65986687204958
 20
300.0
 30
0.0
 40
100.0
 50
161.44699546497961
 51
198.55300453502039
  0
LINE
  5
331
  8
0
 10
229.52589227583431
 20
308.0
 30
0.0
 11
229.52589227583431
 21
292.0
 31
0.0
  0
LINE
  5
332
  8
0
 10
227.1598668720498
 20
293.36602540378442
 30
0.0
 11
229.5258922758342
 21
292.0
 31
0.0
  0
LINE
  5
333
  8
0
 10
227.1598668720498
 20
306.63397459621558
 30
0.0
 11
229.5258922758342
 21
308.0
 31
0.0
  0
LINE
  5
334
  8
0
 10
226.92781606448091
 20
306.5
 30
0.0
 11
226.92781606448091
 21
293.5
 31
0.0
  0
LINE
  5
335
  8
0
 10
263.65986687204969
 20
306.0
 30
0.0
 11
263.65986687204969
 21
294.0
 31
0.0
  0
LINE
  5
336
  8
0
 10
261.65986687204969
 20
308.0
 30
0.0
 11
261.65986687204969
 21
292.0
 31
0.0
  0
LINE
  5
337
  8
0
 10
261.65986687204969
 20
292.0
 30
0.0
 11
229.5258922758342
 21
292.0
 31
0.0
  0
LINE
  5
338
  8
0
 10
261.65986687204969
 20
308.0
 30
0.0
 11
229.52589227583431
 21
308.0
 31
0.0
  0
LINE
  5
339
  8
3
 10
262.74236687204979
 20
293.08249999999998
 30
0.0
 11
227.65094727664089
 21
293.08249999999998
 31
0.0
  0
LINE
  5
33A
  8
3
 10
262.74236687204979
 20
306.91750000000002
 30
0.0
 11
227.65094727664089
 21
306.91750000000002
 31
0.0
  0
LINE
  5
33B
  8
0
 10
263.65986687204969
 20
294.0
 30
0.0
 11
261.65986687204969
 21
292.0
 31
0.0
  0
LINE
  5
33C
  8
0
 10
261.65986687204969
 20
308.0
 30
0.0
 11
263.65986687204969
 21
306.0
 31
0.0
  0
LINE
  5
33D
  8
0
 10
224.6598668720498
 20
293.5
 30
0.0
 11
226.65986687204969
 21
293.5
 31
0.0
  0
ARC
  5
33E
  8
0
 10
224.6598668720498
 20
292.5
 30
0.0
 40
1.0
 50
90.0
 51
180.0
  0
ARC
  5
33F
  8
0
 10
226.65986687204969
 20
292.5
 30
0.0
 40
1.0
 50
60.000000000000277
 51
90.0
  0
ARC
  5
340
  8
0
 10
226.65986687204969
 20
307.50000000000011
 30
0.0
 40
1.0
 50
270.0
 51
299.99999999999841
  0
ARC
  5
341
  8
0
 10
224.6598668720498
 20
307.50000000000011
 30
0.0
 40
1.0
 50
180.0
 51
270.0
  0
LINE
  5
342
  8
0
 10
224.6598668720498
 20
306.50000000000011
 30
0.0
 11
226.65986687204969
 21
306.50000000000011
 31
0.0
  0
ARC
  5
343
  8
0
 10
273.65986687204958
 20
60.0
 30
0.0
 40
100.0
 50
161.44699546497961
 51
198.55300453502039
  0
LINE
  5
344
  8
0
 10
229.52589227583431
 20
68.000000000000057
 30
0.0
 11
229.52589227583431
 21
52.0
 31
0.0
  0
LINE
  5
345
  8
0
 10
227.1598668720498
 20
53.36602540378442
 30
0.0
 11
229.5258922758342
 21
52.0
 31
0.0
  0
LINE
  5
346
  8
0
 10
227.1598668720498
 20
66.63397459621558
 30
0.0
 11
229.5258922758342
 21
68.0
 31
0.0
  0
LINE
  5
347
  8
0
 10
226.92781606448091
 20
66.5
 30
0.0
 11
226.92781606448091
 21
53.499999999999943
 31
0.0
  0
LINE
  5
348
  8
0
 10
263.65986687204969
 20
66.0
 30
0.0
 11
263.65986687204969
 21
54.0
 31
0.0
  0
LINE
  5
349
  8
0
 10
261.65986687204969
 20
68.0
 30
0.0
 11
261.65986687204969
 21
52.0
 31
0.0
  0
LINE
  5
34A
  8
0
 10
261.65986687204969
 20
52.0
 30
0.0
 11
229.5258922758342
 21
52.0
 31
0.0
  0
LINE
  5
34B
  8
0
 10
261.65986687204969
 20
68.0
 30
0.0
 11
229.52589227583431
 21
68.000000000000057
 31
0.0
  0
LINE
  5
34C
  8
3
 10
262.74236687204979
 20
53.082500000000039
 30
0.0
 11
227.65094727664089
 21
53.082500000000039
 31
0.0
  0
LINE
  5
34D
  8
3
 10
262.74236687204979
 20
66.917500000000018
 30
0.0
 11
227.65094727664089
 21
66.917500000000018
 31
0.0
  0
LINE
  5
34E
  8
0
 10
263.65986687204969
 20
54.0
 30
0.0
 11
261.65986687204969
 21
52.0
 31
0.0
  0
LINE
  5
34F
  8
0
 10
261.65986687204969
 20
68.0
 30
0.0
 11
263.65986687204969
 21
66.0
 31
0.0
  0
LINE
  5
350
  8
0
 10
224.6598668720498
 20
53.5
 30
0.0
 11
226.65986687204969
 21
53.5
 31
0.0
  0
ARC
  5
351
  8
0
 10
224.6598668720498
 20
52.5
 30
0.0
 40
1.0
 50
90.0
 51
180.0
  0
ARC
  5
352
  8
0
 10
226.65986687204969
 20
52.5
 30
0.0
 40
1.0
 50
60.000000000000277
 51
90.0
  0
ARC
  5
353
  8
0
 10
226.65986687204969
 20
67.500000000000057
 30
0.0
 40
1.0
 50
270.0
 51
299.99999999999841
  0
ARC
  5
354
  8
0
 10
224.6598668720498
 20
67.500000000000057
 30
0.0
 40
1.0
 50
180.0
 51
270.0
  0
LINE
  5
355
  8
0
 10
224.6598668720498
 20
66.500000000000057
 30
0.0
 11
226.65986687204969
 21
66.500000000000057
 31
0.0
  0
TEXT
  5
471
  8
0
 62
     3
 10
0.0
 20
0.0
 30
0.0
 40
10.0
  1
EK80X40
  7
STANDARD1
  0
ENDSEC
  0
EOF
