  0
SECTION
  2
HEADER
  9
$ACADVER
  1
AC1009
  9
$INSBASE
 10
0.0
 20
0.0
 30
0.0
  9
$EXTMIN
 10
0.0
 20
-2.960436562073669
 30
0.0
  9
$EXTMAX
 10
364.96769706967223
 20
256.91473143665092
 30
0.0
  9
$LIMMIN
 10
0.0
 20
0.0
  9
$LIMMAX
 10
375.0
 20
270.0
  9
$ORTHOMODE
 70
     1
  9
$REGENMODE
 70
     1
  9
$FILLMODE
 70
     1
  9
$QTEXTMODE
 70
     0
  9
$MIRRTEXT
 70
     0
  9
$DRAGMODE
 70
     2
  9
$LTSCALE
 40
10.0
  9
$OSMODE
 70
  3071
  9
$ATTMODE
 70
     1
  9
$TEXTSIZE
 40
0.2
  9
$TRACEWID
 40
0.05
  9
$TEXTSTYLE
  7
K90
  9
$CLAYER
  8
0
  9
$CELTYPE
  6
BYLAYER
  9
$CECOLOR
 62
   256
  9
$DIMSCALE
 40
1.0
  9
$DIMASZ
 40
3.0
  9
$DIMEXO
 40
2.0
  9
$DIMDLI
 40
0.38
  9
$DIMRND
 40
0.0
  9
$DIMDLE
 40
0.0
  9
$DIMEXE
 40
2.0
  9
$DIMTP
 40
0.0
  9
$DIMTM
 40
0.0
  9
$DIMTXT
 40
3.2000000000000002
  9
$DIMCEN
 40
0.0
  9
$DIMTSZ
 40
0.0
  9
$DIMTOL
 70
     0
  9
$DIMLIM
 70
     0
  9
$DIMTIH
 70
     0
  9
$DIMTOH
 70
     0
  9
$DIMSE1
 70
     0
  9
$DIMSE2
 70
     0
  9
$DIMTAD
 70
     1
  9
$DIMZIN
 70
     0
  9
$DIMBLK
  1

  9
$DIMASO
 70
     1
  9
$DIMSHO
 70
     0
  9
$DIMPOST
  1

  9
$DIMAPOST
  1

  9
$DIMALT
 70
     0
  9
$DIMALTD
 70
     2
  9
$DIMALTF
 40
25.399999999999999
  9
$DIMLFAC
 40
1.0
  9
$DIMTOFL
 70
     0
  9
$DIMTVP
 40
1.6000000000000001
  9
$DIMTIX
 70
     1
  9
$DIMSOXD
 70
     0
  9
$DIMSAH
 70
     0
  9
$DIMBLK1
  1

  9
$DIMBLK2
  1

  9
$DIMSTYLE
  2
STANDARD
  9
$DIMCLRD
 70
     0
  9
$DIMCLRE
 70
     0
  9
$DIMCLRT
 70
     0
  9
$DIMTFAC
 40
1.0
  9
$DIMGAP
 40
0.09
  9
$LUNITS
 70
     2
  9
$LUPREC
 70
     4
  9
$SKETCHINC
 40
0.1
  9
$FILLETRAD
 40
0.0
  9
$AUNITS
 70
     0
  9
$AUPREC
 70
     0
  9
$MENU
  1
E:\r13\win\SUPPORT\ACAD
  9
$ELEVATION
 40
0.0
  9
$PELEVATION
 40
0.0
  9
$THICKNESS
 40
0.0
  9
$LIMCHECK
 70
     0
  9
$BLIPMODE
 70
     0
  9
$CHAMFERA
 40
0.0
  9
$CHAMFERB
 40
0.0
  9
$SKPOLY
 70
     0
  9
$TDCREATE
 40
2449840.603321759
  9
$TDUPDATE
 40
2456598.6754467832
  9
$TDINDWG
 40
0.0010716667
  9
$TDUSRTIMER
 40
0.0010716667
  9
$USRTIMER
 70
     1
  9
$ANGBASE
 50
0.0
  9
$ANGDIR
 70
     0
  9
$PDMODE
 70
     0
  9
$PDSIZE
 40
0.0
  9
$PLINEWID
 40
0.0
  9
$COORDS
 70
     1
  9
$SPLFRAME
 70
     0
  9
$SPLINETYPE
 70
     6
  9
$SPLINESEGS
 70
     8
  9
$ATTDIA
 70
     0
  9
$ATTREQ
 70
     1
  9
$HANDLING
 70
     1
  9
$HANDSEED
  5
4B7
  9
$SURFTAB1
 70
     6
  9
$SURFTAB2
 70
     6
  9
$SURFTYPE
 70
     6
  9
$SURFU
 70
     6
  9
$SURFV
 70
     6
  9
$UCSNAME
  2

  9
$UCSORG
 10
0.0
 20
0.0
 30
0.0
  9
$UCSXDIR
 10
1.0
 20
0.0
 30
0.0
  9
$UCSYDIR
 10
0.0
 20
1.0
 30
0.0
  9
$PUCSNAME
  2

  9
$PUCSORG
 10
0.0
 20
0.0
 30
0.0
  9
$PUCSXDIR
 10
1.0
 20
0.0
 30
0.0
  9
$PUCSYDIR
 10
0.0
 20
1.0
 30
0.0
  9
$USERI1
 70
     0
  9
$USERI2
 70
     1
  9
$USERI3
 70
     1
  9
$USERI4
 70
     0
  9
$USERI5
 70
     0
  9
$USERR1
 40
0.0
  9
$USERR2
 40
0.0
  9
$USERR3
 40
0.0
  9
$USERR4
 40
0.0
  9
$USERR5
 40
0.0
  9
$WORLDVIEW
 70
     1
  9
$SHADEDGE
 70
     3
  9
$SHADEDIF
 70
    70
  9
$TILEMODE
 70
     1
  9
$MAXACTVP
 70
    16
  9
$PLIMCHECK
 70
     0
  9
$PEXTMIN
 10
1.0000000000000000E+020
 20
1.0000000000000000E+020
 30
1.0000000000000000E+020
  9
$PEXTMAX
 10
-1.0000000000000000E+020
 20
-1.0000000000000000E+020
 30
-1.0000000000000000E+020
  9
$PLIMMIN
 10
0.0
 20
0.0
  9
$PLIMMAX
 10
12.0
 20
9.0
  9
$UNITMODE
 70
     0
  9
$VISRETAIN
 70
     0
  9
$PLINEGEN
 70
     0
  9
$PSLTSCALE
 70
     0
  0
ENDSEC
  0
SECTION
  2
TABLES
  0
TABLE
  2
VPORT
 70
     1
  0
VPORT
  2
*ACTIVE
 70
     0
 10
0.0
 20
0.0
 11
1.0
 21
1.0
 12
187.49427839065231
 22
169.9063198933564
 13
0.0
 23
0.0
 14
10.0
 24
10.0
 15
10.0
 25
10.0
 16
0.0
 26
0.0
 36
1.0
 17
0.0
 27
0.0
 37
0.0
 40
348.89937369551939
 41
1.831871345029239
 42
50.0
 43
0.0
 44
0.0
 50
0.0
 51
0.0
 71
     0
 72
   500
 73
     1
 74
     0
 75
     0
 76
     0
 77
     0
 78
     0
  0
ENDTAB
  0
TABLE
  2
LTYPE
 70
     4
  0
LTYPE
  2
CONTINUOUS
 70
     0
  3
Solid Line
 72
    65
 73
     0
 40
0.0
  0
LTYPE
  2
CENTER
 70
     0
  3
____ _ ____ _ ____ _ ____ _ ____ _ ____ _ ____
 72
    65
 73
     4
 40
2.0
 49
1.25
 49
-0.25
 49
0.25
 49
-0.25
  0
LTYPE
  2
HIDDEN
 70
     0
  3
_ _ _ _ _ _ _ _ _ _ _ _ _ _ _ _ _ _ _ _ _ _ _
 72
    65
 73
     2
 40
0.375
 49
0.25
 49
-0.125
  0
LTYPE
  2
PHANTOM2
 70
     0
  3
___ _ _ ___ _ _ ___ _ _ ___ _ _
 72
    65
 73
     6
 40
1.25
 49
0.625
 49
-0.125
 49
0.125
 49
-0.125
 49
0.125
 49
-0.125
  0
ENDTAB
  0
TABLE
  2
LAYER
 70
     4
  0
LAYER
  2
0
 70
     0
 62
     7
  6
CONTINUOUS
  0
LAYER
  2
1
 70
     0
 62
     1
  6
CENTER
  0
LAYER
  2
2
 70
     0
 62
     2
  6
HIDDEN
  0
LAYER
  2
3
 70
     0
 62
     3
  6
CONTINUOUS
  0
ENDTAB
  0
TABLE
  2
STYLE
 70
     4
  0
STYLE
  2
STANDARD
 70
     0
 40
0.0
 41
1.0
 50
0.0
 71
     0
 42
0.2
  3
romans.shx
  4

  0
STYLE
  2
K70
 70
     0
 40
0.0
 41
1.0
 50
0.0
 71
     0
 42
0.2
  3
romans.shx
  4

  0
STYLE
  2
K90
 70
     0
 40
0.0
 41
1.0
 50
0.0
 71
     0
 42
0.2
  3
romans.shx
  4

  0
STYLE
  2
STANDARD1
 70
     0
 40
0.0
 41
1.0
 50
0.0
 71
     0
 42
3.0
  3
txt
  4

  0
ENDTAB
  0
TABLE
  2
VIEW
 70
     1
  0
VIEW
  2
ALL
 70
     0
 40
179.5384664489153
 10
135.0
 20
89.769233224457665
 41
0.0
 11
0.0
 21
0.0
 31
1.0
 12
0.0
 22
0.0
 32
0.0
 42
0.0
 43
0.0
 44
0.0
 50
0.0
 71
     0
  0
ENDTAB
  0
TABLE
  2
UCS
 70
     0
  0
ENDTAB
  0
TABLE
  2
APPID
 70
     3
  0
APPID
  2
ACAD
 70
     0
  0
APPID
  2
ACAD_MLEADERVER
 70
     0
  0
APPID
  2
ACAD_NAV_VCDISPLAY
 70
     0
  0
ENDTAB
  0
TABLE
  2
DIMSTYLE
 70
     1
  0
DIMSTYLE
  2
STANDARD
 70
     0
  3

  4

  5

  6

  7

 40
1.0
 41
0.18
 42
0.0625
 43
0.38
 44
0.18
 45
0.0
 46
0.0
 47
0.0
 48
0.0
140
0.18
141
0.09
142
0.0
143
25.399999999999999
144
1.0
145
0.0
146
1.0
147
0.09
 71
     0
 72
     0
 73
     1
 74
     1
 75
     0
 76
     0
 77
     0
 78
     0
170
     0
171
     2
172
     0
173
     0
174
     0
175
     0
176
     0
177
     0
178
     0
  0
ENDTAB
  0
ENDSEC
  0
SECTION
  2
BLOCKS
  0
BLOCK
  8
0
  2
$MODEL_SPACE
 70
     0
 10
0.0
 20
0.0
 30
0.0
  3
$MODEL_SPACE
  1

  0
ENDBLK
  5
280
  8
0
  0
BLOCK
 67
     1
  8
0
  2
$PAPER_SPACE
 70
     0
 10
0.0
 20
0.0
 30
0.0
  3
$PAPER_SPACE
  1

  0
ENDBLK
  5
27E
 67
     1
  8
0
  0
ENDSEC
  0
SECTION
  2
ENTITIES
  0
LINE
  5
37
  8
0
 10
211.31587685944211
 20
146.54586330935251
 30
0.0
 11
211.31587685944211
 21
122.5458633093525
 31
0.0
  0
LINE
  5
38
  8
0
 10
211.31587685944211
 20
122.5458633093525
 30
0.0
 11
210.81587685944211
 21
122.0458633093525
 31
0.0
  0
LINE
  5
39
  8
0
 10
211.31587685944211
 20
146.54586330935251
 30
0.0
 11
210.81587685944211
 21
147.04586330935251
 31
0.0
  0
LINE
  5
3A
  8
0
 10
188.31587685944211
 20
122.0458633093525
 30
0.0
 11
210.81587685944211
 21
122.0458633093525
 31
0.0
  0
LINE
  5
3B
  8
0
 10
188.31587685944211
 20
147.04586330935251
 30
0.0
 11
210.81587685944211
 21
147.04586330935251
 31
0.0
  0
LINE
  5
3C
  8
1
 10
156.31587685944231
 20
134.54586330935251
 30
0.0
 11
216.3158768594418
 21
134.54586330935251
 31
0.0
  0
LINE
  5
3D
  8
1
 10
108.3643223837787
 20
134.54586330935251
 30
0.0
 11
18.36432238377887
 21
134.54586330935251
 31
0.0
  0
LINE
  5
3E
  8
1
 10
63.364322383778777
 20
179.5458633093524
 30
0.0
 11
63.364322383778777
 21
89.545863309352626
 31
0.0
  0
CIRCLE
  5
3F
  8
0
 10
63.364322383778777
 20
134.54586330935251
 30
0.0
 40
20.0
  0
ARC
  5
40
  8
0
 10
63.364322383778777
 20
134.54586330935251
 30
0.0
 40
40.0
 50
26.108905677602309
 51
33.891094322381157
  0
ARC
  5
41
  8
0
 10
91.364322383778784
 20
183.0432859212811
 30
0.0
 40
24.0
 50
207.91819601232191
 51
272.08180398767797
  0
ARC
  5
42
  8
0
 10
65.739429957362262
 20
169.46518266145191
 30
0.0
 40
5.0
 50
27.918196012321911
 51
86.108905677618921
  0
ARC
  5
43
  8
0
 10
92.417786238766723
 20
154.0624264808464
 30
0.0
 40
5.0
 50
33.8910943223811
 51
92.081803987677873
  0
ARC
  5
44
  8
0
 10
60.989214810195278
 20
169.46518266145191
 30
0.0
 40
5.0
 50
93.891094322381093
 51
152.08180398767789
  0
ARC
  5
45
  8
0
 10
34.310858528790831
 20
154.0624264808464
 30
0.0
 40
5.0
 50
87.918196012321914
 51
146.10890567761891
  0
ARC
  5
46
  8
0
 10
35.364322383778791
 20
183.0432859212811
 30
0.0
 40
24.0
 50
267.91819601232191
 51
332.08180398767797
  0
ARC
  5
47
  8
0
 10
63.364322383778777
 20
134.54586330935251
 30
0.0
 40
40.0
 50
86.108905677602309
 51
93.89109432238115
  0
ARC
  5
48
  8
0
 10
31.935750955207372
 20
149.94861948995811
 30
0.0
 40
5.0
 50
153.89109432238109
 51
212.08180398767789
  0
ARC
  5
49
  8
0
 10
31.93575095520734
 20
119.14310712874691
 30
0.0
 40
5.0
 50
147.91819601232191
 51
206.10890567761891
  0
ARC
  5
4A
  8
0
 10
7.3643223837787977
 20
134.54586330935251
 30
0.0
 40
24.0
 50
327.91819601232191
 51
32.081803987678072
  0
ARC
  5
4B
  8
0
 10
63.364322383778777
 20
134.54586330935251
 30
0.0
 40
40.0
 50
146.10890567760231
 51
153.89109432238109
  0
ARC
  5
4C
  8
0
 10
34.31085852879086
 20
115.0293001378587
 30
0.0
 40
5.0
 50
213.89109432238109
 51
272.08180398767792
  0
ARC
  5
4D
  8
0
 10
60.989214810195278
 20
99.626543957253091
 30
0.0
 40
5.0
 50
207.91819601232191
 51
266.10890567761891
  0
ARC
  5
4E
  8
0
 10
35.364322383778791
 20
86.048440697423985
 30
0.0
 40
24.0
 50
27.918196012321911
 51
92.081803987678057
  0
ARC
  5
4F
  8
0
 10
63.364322383778777
 20
134.54586330935251
 30
0.0
 40
40.0
 50
206.10890567760231
 51
213.89109432238121
  0
ARC
  5
50
  8
0
 10
65.739429957362262
 20
99.626543957253091
 30
0.0
 40
5.0
 50
273.89109432238109
 51
332.08180398767792
  0
ARC
  5
51
  8
0
 10
92.417786238766723
 20
115.0293001378587
 30
0.0
 40
5.0
 50
267.91819601232191
 51
326.10890567761891
  0
ARC
  5
52
  8
0
 10
91.364322383778784
 20
86.048440697423956
 30
0.0
 40
24.0
 50
87.918196012321886
 51
152.08180398767809
  0
ARC
  5
53
  8
0
 10
63.364322383778777
 20
134.54586330935251
 30
0.0
 40
40.0
 50
266.10890567760231
 51
273.89109432238121
  0
ARC
  5
54
  8
0
 10
94.792893812350201
 20
119.14310712874691
 30
0.0
 40
5.0
 50
333.89109432238109
 51
32.081803987677873
  0
ARC
  5
55
  8
0
 10
94.792893812350229
 20
149.94861948995811
 30
0.0
 40
5.0
 50
327.91819601232191
 51
26.108905677618878
  0
ARC
  5
56
  8
0
 10
119.3643223837788
 20
134.54586330935251
 30
0.0
 40
24.0
 50
147.9181960123218
 51
212.081803987678
  0
ARC
  5
57
  8
0
 10
63.364322383778777
 20
134.54586330935251
 30
0.0
 40
40.0
 50
326.10890567760231
 51
333.89109432238109
  0
LINE
  5
58
  8
0
 10
177.8892624009853
 20
94.545863309352555
 30
0.0
 11
184.31587685944211
 21
94.545863309352555
 31
0.0
  0
LINE
  5
59
  8
0
 10
177.8892624009853
 20
174.54586330935251
 30
0.0
 11
184.31587685944211
 21
174.54586330935251
 31
0.0
  0
LINE
  5
5A
  8
0
 10
186.31587685944211
 20
172.54586330935251
 30
0.0
 11
186.31587685944211
 21
96.545865216701173
 31
0.0
  0
LINE
  5
5B
  8
0
 10
188.31587685944211
 20
150.04586330935251
 30
0.0
 11
188.31587685944211
 21
119.0458633093525
 31
0.0
  0
LINE
  5
5C
  8
0
 10
186.31587685944211
 20
119.0458633093525
 30
0.0
 11
188.31587685944211
 21
119.0458633093525
 31
0.0
  0
LINE
  5
5D
  8
0
 10
186.31587685944211
 20
150.04586330935251
 30
0.0
 11
188.31587685944211
 21
150.04586330935251
 31
0.0
  0
ARC
  5
5E
  8
0
 10
177.88926240098519
 20
106.5458633093525
 30
0.0
 40
12.0
 50
198.55300453502059
 51
270.00000000000011
  0
ARC
  5
5F
  8
0
 10
177.88926240098519
 20
162.54586330935251
 30
0.0
 40
12.0
 50
89.999999999999915
 51
161.4469954649793
  0
ARC
  5
60
  8
0
 10
184.31587685944211
 20
96.545863309352541
 30
0.0
 40
2.0
 50
270.0
 51
0.0
  0
ARC
  5
61
  8
0
 10
184.31587685944211
 20
172.54586330935251
 30
0.0
 40
2.0
 50
0.0
 51
90.0
  0
ARC
  5
62
  8
0
 10
261.31587685944208
 20
134.54586330935251
 30
0.0
 40
100.0
 50
161.4469954649793
 51
168.4630409671847
  0
ARC
  5
63
  8
0
 10
319.96769706967223
 20
134.54586330935251
 30
0.0
 40
40.0
 50
326.10890567760231
 51
333.89109432238109
  0
ARC
  5
64
  8
0
 10
375.96769706967223
 20
134.54586330935251
 30
0.0
 40
24.0
 50
147.9181960123218
 51
212.081803987678
  0
ARC
  5
65
  8
0
 10
351.39626849824373
 20
149.94861948995811
 30
0.0
 40
5.0
 50
327.91819601232191
 51
26.108905677618878
  0
ARC
  5
66
  8
0
 10
351.39626849824361
 20
119.14310712874691
 30
0.0
 40
5.0
 50
333.89109432238109
 51
32.081803987677873
  0
ARC
  5
67
  8
0
 10
319.96769706967223
 20
134.54586330935251
 30
0.0
 40
40.0
 50
266.10890567760231
 51
273.89109432238121
  0
ARC
  5
68
  8
0
 10
347.96769706967223
 20
86.048440697423956
 30
0.0
 40
24.0
 50
87.918196012321886
 51
152.08180398767809
  0
ARC
  5
69
  8
0
 10
349.02116092466019
 20
115.0293001378587
 30
0.0
 40
5.0
 50
267.91819601232191
 51
326.10890567761891
  0
ARC
  5
6A
  8
0
 10
322.3428046432557
 20
99.626543957253091
 30
0.0
 40
5.0
 50
273.89109432238109
 51
332.08180398767792
  0
ARC
  5
6B
  8
0
 10
319.96769706967223
 20
134.54586330935251
 30
0.0
 40
40.0
 50
206.10890567760231
 51
213.89109432238121
  0
ARC
  5
6C
  8
0
 10
291.96769706967223
 20
86.048440697423985
 30
0.0
 40
24.0
 50
27.918196012321911
 51
92.081803987678057
  0
ARC
  5
6D
  8
0
 10
317.59258949608869
 20
99.626543957253091
 30
0.0
 40
5.0
 50
207.91819601232191
 51
266.10890567761891
  0
ARC
  5
6E
  8
0
 10
290.9142332146842
 20
115.0293001378587
 30
0.0
 40
5.0
 50
213.89109432238109
 51
272.08180398767792
  0
ARC
  5
6F
  8
0
 10
319.96769706967223
 20
134.54586330935251
 30
0.0
 40
40.0
 50
146.10890567760231
 51
153.89109432238109
  0
ARC
  5
70
  8
0
 10
263.96769706967223
 20
134.54586330935251
 30
0.0
 40
24.0
 50
327.91819601232191
 51
32.081803987678072
  0
ARC
  5
71
  8
0
 10
288.53912564110078
 20
119.14310712874691
 30
0.0
 40
5.0
 50
147.91819601232191
 51
206.10890567761891
  0
ARC
  5
72
  8
0
 10
288.53912564110078
 20
149.94861948995811
 30
0.0
 40
5.0
 50
153.89109432238109
 51
212.08180398767789
  0
ARC
  5
73
  8
0
 10
319.96769706967223
 20
134.54586330935251
 30
0.0
 40
40.0
 50
86.108905677602309
 51
93.89109432238115
  0
ARC
  5
74
  8
0
 10
291.96769706967223
 20
183.0432859212811
 30
0.0
 40
24.0
 50
267.91819601232191
 51
332.08180398767797
  0
ARC
  5
75
  8
0
 10
290.9142332146842
 20
154.0624264808464
 30
0.0
 40
5.0
 50
87.918196012321914
 51
146.10890567761891
  0
ARC
  5
76
  8
0
 10
317.59258949608869
 20
169.46518266145191
 30
0.0
 40
5.0
 50
93.891094322381093
 51
152.08180398767789
  0
ARC
  5
77
  8
0
 10
349.02116092466019
 20
154.0624264808464
 30
0.0
 40
5.0
 50
33.8910943223811
 51
92.081803987677873
  0
ARC
  5
78
  8
0
 10
322.3428046432557
 20
169.46518266145191
 30
0.0
 40
5.0
 50
27.918196012321911
 51
86.108905677618921
  0
ARC
  5
79
  8
0
 10
347.96769706967223
 20
183.0432859212811
 30
0.0
 40
24.0
 50
207.91819601232191
 51
272.08180398767797
  0
ARC
  5
7A
  8
0
 10
319.96769706967223
 20
134.54586330935251
 30
0.0
 40
40.0
 50
26.108905677602309
 51
33.891094322381157
  0
CIRCLE
  5
7B
  8
0
 10
319.96769706967223
 20
134.54586330935251
 30
0.0
 40
12.5
  0
LINE
  5
7C
  8
1
 10
319.96769706967223
 20
179.5458633093524
 30
0.0
 11
319.96769706967223
 21
89.545863309352626
 31
0.0
  0
LINE
  5
7D
  8
1
 10
364.96769706967223
 20
134.54586330935251
 30
0.0
 11
274.96769706967228
 21
134.54586330935251
 31
0.0
  0
TEXT
  5
7E
  8
0
 10
306.06181874419133
 20
119.4630461972757
 30
0.0
 40
2.5
  1
EK-80
 50
330.0
 41
0.7
  7
K70
 72
     1
 11
309.92284866939701
 21
117.2338795306091
 31
0.0
  0
CIRCLE
  5
7F
  8
0
 10
319.9676970696724
 20
134.54586330935251
 30
0.0
 40
15.5
  0
ARC
  5
80
  8
0
 10
347.96769706967223
 20
86.048440697423956
 30
0.0
 40
28.0
 50
87.918196012321886
 51
152.08180398767809
  0
ARC
  5
81
  8
0
 10
319.96769706967223
 20
134.54586330935251
 30
0.0
 40
36.0
 50
326.10890567760231
 51
333.89109432238109
  0
ARC
  5
82
  8
0
 10
375.96769706967223
 20
134.54586330935251
 30
0.0
 40
28.0
 50
147.9181960123218
 51
212.081803987678
  0
ARC
  5
83
  8
0
 10
347.96769706967223
 20
183.0432859212811
 30
0.0
 40
28.0
 50
207.91819601232191
 51
272.08180398767797
  0
ARC
  5
84
  8
0
 10
319.96769706967223
 20
134.54586330935251
 30
0.0
 40
36.0
 50
26.108905677602309
 51
33.891094322381157
  0
ARC
  5
85
  8
0
 10
319.96769706967223
 20
134.54586330935251
 30
0.0
 40
36.0
 50
86.108905677602309
 51
93.89109432238115
  0
ARC
  5
86
  8
0
 10
291.96769706967223
 20
183.0432859212811
 30
0.0
 40
28.0
 50
267.91819601232191
 51
332.08180398767797
  0
ARC
  5
87
  8
0
 10
319.96769706967223
 20
134.54586330935251
 30
0.0
 40
36.0
 50
146.10890567760231
 51
153.89109432238109
  0
ARC
  5
88
  8
0
 10
263.96769706967223
 20
134.54586330935251
 30
0.0
 40
28.0
 50
327.91819601232191
 51
32.081803987678072
  0
ARC
  5
89
  8
0
 10
319.96769706967223
 20
134.54586330935251
 30
0.0
 40
36.0
 50
206.10890567760231
 51
213.89109432238121
  0
ARC
  5
8A
  8
0
 10
291.96769706967223
 20
86.048440697423985
 30
0.0
 40
28.0
 50
27.918196012321911
 51
92.081803987678057
  0
ARC
  5
8B
  8
0
 10
319.96769706967223
 20
134.54586330935251
 30
0.0
 40
36.0
 50
266.10890567760231
 51
273.89109432238121
  0
ARC
  5
8C
  8
0
 10
317.59258949608869
 20
99.626543957253091
 30
0.0
 40
1.0
 50
207.91819601232191
 51
266.10890567761891
  0
ARC
  5
8D
  8
0
 10
322.3428046432557
 20
99.626543957253091
 30
0.0
 40
1.0
 50
273.89109432238109
 51
332.08180398767792
  0
ARC
  5
8E
  8
0
 10
349.02116092466019
 20
115.0293001378587
 30
0.0
 40
1.0
 50
267.91819601232191
 51
326.10890567761891
  0
ARC
  5
8F
  8
0
 10
351.39626849824361
 20
119.14310712874691
 30
0.0
 40
1.0
 50
333.89109432238109
 51
32.081803987677873
  0
ARC
  5
90
  8
0
 10
351.39626849824373
 20
149.94861948995811
 30
0.0
 40
1.0
 50
327.91819601232191
 51
26.108905677618878
  0
ARC
  5
91
  8
0
 10
349.02116092466019
 20
154.0624264808464
 30
0.0
 40
1.0
 50
33.8910943223811
 51
92.081803987677873
  0
ARC
  5
92
  8
0
 10
322.3428046432557
 20
169.46518266145191
 30
0.0
 40
1.0
 50
27.918196012321911
 51
86.108905677618921
  0
ARC
  5
93
  8
0
 10
317.59258949608869
 20
169.46518266145191
 30
0.0
 40
1.0
 50
93.891094322381093
 51
152.08180398767789
  0
ARC
  5
94
  8
0
 10
290.9142332146842
 20
154.0624264808464
 30
0.0
 40
1.0
 50
87.918196012321914
 51
146.10890567761891
  0
ARC
  5
95
  8
0
 10
288.53912564110078
 20
149.94861948995811
 30
0.0
 40
1.0
 50
153.89109432238109
 51
212.08180398767789
  0
ARC
  5
96
  8
0
 10
288.53912564110078
 20
119.14310712874691
 30
0.0
 40
1.0
 50
147.91819601232191
 51
206.10890567761891
  0
ARC
  5
97
  8
0
 10
290.9142332146842
 20
115.0293001378587
 30
0.0
 40
1.0
 50
213.89109432238109
 51
272.08180398767792
  0
LINE
  5
98
  8
0
 10
210.81587685944211
 20
147.04586330935251
 30
0.0
 11
210.81587685944211
 21
122.0458633093525
 31
0.0
  0
CIRCLE
  5
99
  8
0
 10
319.96769706967223
 20
134.54586330935251
 30
0.0
 40
11.999999999999909
  0
LINE
  5
A3
  8
0
 10
177.88926240098519
 20
119.69971353019071
 30
0.0
 11
184.31587685944211
 21
119.69971353019071
 31
0.0
  0
LINE
  5
A4
  8
0
 10
177.88926240098519
 20
109.8022803440829
 30
0.0
 11
184.31587685944211
 21
109.8022803440829
 31
0.0
  0
LINE
  5
A5
  8
0
 10
169.66436296032529
 20
112.2412196847785
 30
0.0
 11
169.66436296032541
 21
116.94271338866039
 31
0.0
  0
POLYLINE
  5
A6
  8
0
 66
     1
 10
0.0
 20
0.0
 30
0.0
  0
VERTEX
  5
A7
  8
0
 10
169.66436296032541
 20
112.2412196847785
 30
0.0
 42
0.2419324640559122
  0
VERTEX
  5
A8
  8
0
 10
170.03960585191771
 20
111.5110997476514
 30
0.0
 42
0.0834527680669295
  0
VERTEX
  5
A9
  8
0
 10
172.07338023191721
 20
110.51662913807
 30
0.0
 42
0.0415379361371658
 70
     2
 50
343.48326638889341
  0
VERTEX
  5
AA
  8
0
 10
174.51238532164319
 20
110.00889026143869
 30
0.0
 42
0.0305632860178485
 50
343.48326638889341
  0
VERTEX
  5
AB
  8
0
 10
177.88926240098519
 20
109.8022803440829
 30
0.0
 42
0.030563286017848
  0
SEQEND
  5
AC
  8
0
  0
POLYLINE
  5
AD
  8
0
 66
     1
 10
0.0
 20
0.0
 30
0.0
  0
VERTEX
  5
AE
  8
0
 10
177.88926240098519
 20
119.69971353019071
 30
0.0
 42
0.0345044451652393
  0
VERTEX
  5
AF
  8
0
 10
174.52037011784969
 20
119.4669528973492
 30
0.0
 42
0.0464002765522976
  0
VERTEX
  5
B0
  8
0
 10
172.07338023191721
 20
118.89220688446871
 30
0.0
 42
0.0894685126639884
 70
     2
 50
198.53123849771029
  0
VERTEX
  5
B1
  8
0
 10
169.97677203217711
 20
117.74166591127209
 30
0.0
 42
0.2647891865078056
 50
198.53123849771029
  0
VERTEX
  5
B2
  8
0
 10
169.66436296032541
 20
116.94271338866039
 30
0.0
 42
0.2263619295482538
  0
SEQEND
  5
B3
  8
0
  0
POLYLINE
  5
B4
  8
0
 66
     1
 10
0.0
 20
0.0
 30
0.0
  0
VERTEX
  5
B5
  8
0
 10
184.31587685944211
 20
109.8022803440829
 30
0.0
 42
0.1174698772331571
  0
VERTEX
  5
B6
  8
0
 10
185.0603767521811
 20
109.97964038784301
 30
0.0
 42
0.1044336155469924
  0
VERTEX
  5
B7
  8
0
 10
185.73009042181519
 20
110.51662913807
 30
0.0
 42
0.0900912588227425
 70
     2
 50
50.647267745602022
  0
VERTEX
  5
B8
  8
0
 10
186.2002996877103
 20
111.3629283771794
 30
0.0
 42
0.0986171103270562
 50
50.647267745602022
  0
VERTEX
  5
B9
  8
0
 10
186.3158768594416
 20
112.2412196847785
 30
0.0
 42
0.0820433288011429
  0
SEQEND
  5
BA
  8
0
  0
POLYLINE
  5
BB
  8
0
 66
     1
 10
0.0
 20
0.0
 30
0.0
  0
VERTEX
  5
BC
  8
0
 10
186.31587685944211
 20
116.94271338866039
 30
0.0
 42
0.073104398857379
  0
VERTEX
  5
BD
  8
0
 10
186.15565415716671
 20
118.0327054690808
 30
0.0
 42
0.0841198574309186
  0
VERTEX
  5
BE
  8
0
 10
185.73009042181519
 20
118.89220688446871
 30
0.0
 42
0.1064976157653378
 70
     2
 50
125.95811297854181
  0
VERTEX
  5
BF
  8
0
 10
184.9970021002616
 20
119.5495996358319
 30
0.0
 42
0.1521043799646016
 50
125.95811297854181
  0
VERTEX
  5
C0
  8
0
 10
184.31587685944211
 20
119.6997135301924
 30
0.0
 42
0.1304367837620168
  0
SEQEND
  5
C1
  8
0
  0
ARC
  5
C2
  8
0
 10
194.4227783295982
 20
134.54586330935251
 30
0.0
 40
27.847224427597371
 50
152.7578896233077
 51
207.24211037669241
  0
POLYLINE
  5
C3
  8
0
 66
     1
 10
0.0
 20
0.0
 30
0.0
  0
VERTEX
  5
C4
  8
0
 10
166.57555390200079
 20
106.8330503882505
 30
0.0
 42
0.0333153239125791
  0
VERTEX
  5
C5
  8
0
 10
166.8366061095314
 20
102.91949902149121
 30
0.0
 42
0.0280370744323409
  0
VERTEX
  5
C6
  8
0
 10
167.17848453647829
 20
101.1348340600147
 30
0.0
 42
0.0877700341022931
 70
     2
 50
287.92733850098767
  0
SEQEND
  5
C7
  8
0
  0
POLYLINE
  5
C8
  8
0
 66
     1
 10
0.0
 20
0.0
 30
0.0
  0
VERTEX
  5
C9
  8
0
 10
169.66436296032541
 20
110.0326002343354
 30
0.0
 42
0.1016751841731597
  0
VERTEX
  5
CA
  8
0
 10
168.48759478609321
 20
109.79080434468329
 30
0.0
 42
0.0997536367288044
  0
VERTEX
  5
CB
  8
0
 10
167.48024512939361
 20
109.0954737811615
 30
0.0
 42
0.0971512164439776
 70
     2
 50
226.00889978753901
  0
VERTEX
  5
CC
  8
0
 10
166.75294066375301
 20
107.9709404311255
 30
0.0
 42
0.1133589353691071
 50
226.00889978753901
  0
VERTEX
  5
CD
  8
0
 10
166.57555390200019
 20
106.8330503882505
 30
0.0
 42
0.0953878356365924
  0
SEQEND
  5
CE
  8
0
  0
POLYLINE
  5
CF
  8
0
 66
     1
 10
0.0
 20
0.0
 30
0.0
  0
VERTEX
  5
D0
  8
0
 10
169.66436296032541
 20
159.05912638436951
 30
0.0
 42
-0.1016751841731597
  0
VERTEX
  5
D1
  8
0
 10
168.48759478609321
 20
159.3009222740217
 30
0.0
 42
-0.0997536367288044
  0
VERTEX
  5
D2
  8
0
 10
167.48024512939361
 20
159.99625283754341
 30
0.0
 42
-0.0971512164439776
 70
     2
 50
133.99110021246099
  0
VERTEX
  5
D3
  8
0
 10
166.75294066375301
 20
161.12078618757951
 30
0.0
 42
-0.1133589353691071
  0
VERTEX
  5
D4
  8
0
 10
166.57555390200019
 20
162.25867623045451
 30
0.0
 42
-0.0953878356365924
  0
SEQEND
  5
D5
  8
0
  0
POLYLINE
  5
D6
  8
0
 66
     1
 10
0.0
 20
0.0
 30
0.0
  0
VERTEX
  5
D7
  8
0
 10
186.31587685944211
 20
152.1490132300446
 30
0.0
 42
-0.073104398857379
  0
VERTEX
  5
D8
  8
0
 10
186.15565415716671
 20
151.05902114962419
 30
0.0
 42
-0.0841198574309186
  0
VERTEX
  5
D9
  8
0
 10
185.73009042181519
 20
150.1995197342363
 30
0.0
 42
-0.1064976157653378
 70
     2
 50
234.04188702145819
  0
VERTEX
  5
DA
  8
0
 10
184.9970021002616
 20
149.5421269828731
 30
0.0
 42
-0.1521043799646016
  0
VERTEX
  5
DB
  8
0
 10
184.31587685944211
 20
149.3920130885125
 30
0.0
 42
-0.1304367837620168
  0
SEQEND
  5
DC
  8
0
  0
POLYLINE
  5
DD
  8
0
 66
     1
 10
0.0
 20
0.0
 30
0.0
  0
VERTEX
  5
DE
  8
0
 10
184.31587685944211
 20
159.28944627462209
 30
0.0
 42
-0.1174698772331571
  0
VERTEX
  5
DF
  8
0
 10
185.0603767521811
 20
159.11208623086191
 30
0.0
 42
-0.1044336155469924
  0
VERTEX
  5
E0
  8
0
 10
185.73009042181519
 20
158.57509748063501
 30
0.0
 42
-0.0900912588227425
 70
     2
 50
309.35273225439789
  0
VERTEX
  5
E1
  8
0
 10
186.2002996877103
 20
157.72879824152551
 30
0.0
 42
-0.0986171103270562
  0
VERTEX
  5
E2
  8
0
 10
186.3158768594416
 20
156.85050693392651
 30
0.0
 42
-0.0820433288011429
  0
SEQEND
  5
E3
  8
0
  0
POLYLINE
  5
E4
  8
0
 66
     1
 10
0.0
 20
0.0
 30
0.0
  0
VERTEX
  5
E5
  8
0
 10
177.88926240098519
 20
149.39201308851429
 30
0.0
 42
-0.0345044451652393
  0
VERTEX
  5
E6
  8
0
 10
174.52037011784969
 20
149.62477372135569
 30
0.0
 42
-0.0464002765522976
  0
VERTEX
  5
E7
  8
0
 10
172.07338023191721
 20
150.1995197342363
 30
0.0
 42
-0.0894685126639884
 70
     2
 50
161.46876150228971
  0
VERTEX
  5
E8
  8
0
 10
169.97677203217711
 20
151.3500607074329
 30
0.0
 42
-0.2647891865078056
  0
VERTEX
  5
E9
  8
0
 10
169.66436296032541
 20
152.1490132300446
 30
0.0
 42
-0.2263619295482538
  0
SEQEND
  5
EA
  8
0
  0
POLYLINE
  5
EB
  8
0
 66
     1
 10
0.0
 20
0.0
 30
0.0
  0
VERTEX
  5
EC
  8
0
 10
169.66436296032541
 20
156.85050693392651
 30
0.0
 42
-0.2419324640559122
  0
VERTEX
  5
ED
  8
0
 10
170.03960585191771
 20
157.58062687105351
 30
0.0
 42
-0.0834527680669295
  0
VERTEX
  5
EE
  8
0
 10
172.07338023191721
 20
158.57509748063501
 30
0.0
 42
-0.0415379361371658
 70
     2
 50
16.516733611106559
  0
VERTEX
  5
EF
  8
0
 10
174.51238532164319
 20
159.08283635726619
 30
0.0
 42
-0.0305632860178485
  0
VERTEX
  5
F0
  8
0
 10
177.88926240098519
 20
159.28944627462209
 30
0.0
 42
-0.030563286017848
  0
SEQEND
  5
F1
  8
0
  0
LINE
  5
F2
  8
0
 10
169.66436296032529
 20
156.85050693392651
 30
0.0
 11
169.66436296032541
 21
152.1490132300446
 31
0.0
  0
LINE
  5
F3
  8
0
 10
177.88926240098519
 20
159.28944627462209
 30
0.0
 11
184.31587685944211
 21
159.28944627462209
 31
0.0
  0
LINE
  5
F4
  8
0
 10
177.88926240098519
 20
149.39201308851429
 30
0.0
 11
184.31587685944211
 21
149.39201308851429
 31
0.0
  0
POLYLINE
  5
F5
  8
0
 66
     1
 10
0.0
 20
0.0
 30
0.0
  0
VERTEX
  5
F6
  8
0
 10
166.57555390200079
 20
162.25867623045451
 30
0.0
 42
-0.0333153239125791
  0
VERTEX
  5
F7
  8
0
 10
166.8366061095314
 20
166.1722275972138
 30
0.0
 42
-0.0280370744323409
  0
VERTEX
  5
F8
  8
0
 10
167.17848453647829
 20
167.9568925586903
 30
0.0
 42
-0.0877700341022931
 70
     2
 50
72.072661499012341
  0
SEQEND
  5
F9
  8
0
  0
LINE
  5
FA
  8
0
 10
163.33628714811491
 20
114.5458633093525
 30
0.0
 11
163.33628714811491
 21
154.5458633093522
 31
0.0
  0
ARC
  5
FB
  8
0
 10
261.31587685944208
 20
134.54586330935251
 30
0.0
 40
99.000000000000028
 50
171.76656268461599
 51
188.23343731538401
  0
ARC
  5
FC
  8
0
 10
261.31587685944208
 20
134.54586330935251
 30
0.0
 40
100.0
 50
191.5369590328153
 51
198.55300453502059
  0
LINE
  5
FD
  8
0
 10
211.3158768594422
 20
61.319852324911338
 30
0.0
 11
211.3158768594422
 21
37.319852324911309
 31
0.0
  0
LINE
  5
FE
  8
0
 10
211.3158768594422
 20
37.319852324911309
 30
0.0
 11
210.8158768594422
 21
36.819852324911309
 31
0.0
  0
LINE
  5
FF
  8
0
 10
211.3158768594422
 20
61.319852324911338
 30
0.0
 11
210.8158768594422
 21
61.819852324911331
 31
0.0
  0
LINE
  5
100
  8
0
 10
188.3158768594422
 20
36.819852324911309
 30
0.0
 11
210.8158768594422
 21
36.819852324911309
 31
0.0
  0
LINE
  5
101
  8
0
 10
188.3158768594422
 20
61.819852324911331
 30
0.0
 11
210.8158768594422
 21
61.819852324911331
 31
0.0
  0
LINE
  5
102
  8
1
 10
156.31587685944231
 20
49.319852324911331
 30
0.0
 11
216.3158768594418
 21
49.319852324911309
 31
0.0
  0
LINE
  5
103
  8
0
 10
188.3158768594422
 20
64.819852324911324
 30
0.0
 11
188.3158768594422
 21
33.819852324911338
 31
0.0
  0
LINE
  5
104
  8
0
 10
186.3158768594422
 20
33.819852324911338
 30
0.0
 11
188.3158768594422
 21
33.819852324911309
 31
0.0
  0
LINE
  5
105
  8
0
 10
186.3158768594422
 20
64.819852324911324
 30
0.0
 11
188.3158768594422
 21
64.819852324911324
 31
0.0
  0
LINE
  5
106
  8
0
 10
210.8158768594422
 20
61.819852324911331
 30
0.0
 11
210.8158768594422
 21
36.819852324911309
 31
0.0
  0
LINE
  5
107
  8
0
 10
186.3158768594422
 20
85.238219671850075
 30
0.0
 11
186.3158768594422
 21
13.401484977972549
 31
0.0
  0
LINE
  5
108
  8
0
 10
163.33628714811499
 20
29.319852324911349
 30
0.0
 11
163.33628714811499
 21
69.319852324911025
 31
0.0
  0
ARC
  5
109
  8
0
 10
261.3158768594422
 20
49.319852324911309
 30
0.0
 40
99.000000000000028
 50
171.76656268461599
 51
188.23343731538401
  0
ARC
  5
10A
  8
0
 10
261.3158768594422
 20
49.319852324911309
 30
0.0
 40
100.0
 50
161.4469954649793
 51
168.4630409671847
  0
ARC
  5
10B
  8
0
 10
177.8892624009853
 20
77.319852324911324
 30
0.0
 40
12.0
 50
136.47354690071191
 51
161.4469954649793
  0
LINE
  5
10C
  8
0
 10
177.8892624009853
 20
86.462709467768434
 30
0.0
 11
184.3158768594422
 21
86.462709467768434
 31
0.0
  0
LINE
  5
10D
  8
0
 10
177.8892624009853
 20
80.748423753482697
 30
0.0
 11
184.3158768594422
 21
80.748423753482712
 31
0.0
  0
LINE
  5
10E
  8
0
 10
177.8892624009853
 20
55.034138039197053
 30
0.0
 11
184.3158768594422
 21
55.034138039197032
 31
0.0
  0
LINE
  5
10F
  8
0
 10
169.66436296032541
 20
85.238219671850075
 30
0.0
 11
169.66436296032541
 21
82.523811016319627
 31
0.0
  0
POLYLINE
  5
110
  8
0
 66
     1
 10
0.0
 20
0.0
 30
0.0
  0
VERTEX
  5
111
  8
0
 10
169.66436296032541
 20
82.523811016319698
 30
0.0
 42
0.2795580664896631
 50
90.0
  0
VERTEX
  5
112
  8
0
 10
169.96379663425401
 20
82.030117302610279
 30
0.0
 42
0.0670520922577397
 50
90.0
  0
VERTEX
  5
113
  8
0
 10
172.07338023191721
 20
81.268422643535459
 30
0.0
 42
0.0308648938759908
 70
     2
 50
347.81929397890877
  0
VERTEX
  5
114
  8
0
 10
174.49853899555021
 20
80.899704556114756
 30
0.0
 42
0.0222969518133514
 50
347.81929397890877
  0
VERTEX
  5
115
  8
0
 10
177.8892624009853
 20
80.748423753482712
 30
0.0
 42
0.022296951813355
 50
90.0
  0
SEQEND
  5
116
  8
0
  0
POLYLINE
  5
117
  8
0
 66
     1
 10
0.0
 20
0.0
 30
0.0
  0
VERTEX
  5
118
  8
0
 10
177.8892624009853
 20
86.462709467768462
 30
0.0
 42
0.0153983298634053
 50
90.0
  0
VERTEX
  5
119
  8
0
 10
174.4901489039359
 20
86.358003299297948
 30
0.0
 42
0.021553838956585
 50
90.0
  0
VERTEX
  5
11A
  8
0
 10
172.07338023191721
 20
86.104064710037733
 30
0.0
 42
0.0493525396935822
 70
     2
 50
188.4677696462264
  0
VERTEX
  5
11B
  8
0
 10
169.82251054112791
 20
85.537909738499351
 30
0.0
 42
0.3879733399938947
 50
188.4677696462264
  0
VERTEX
  5
11C
  8
0
 10
169.66436296032001
 20
85.238219671850075
 30
0.0
 42
0.3164055000193597
 50
90.0
  0
SEQEND
  5
11D
  8
0
  0
POLYLINE
  5
11E
  8
0
 66
     1
 10
0.0
 20
0.0
 30
0.0
  0
VERTEX
  5
11F
  8
0
 10
186.3158768594422
 20
85.238219671850075
 30
0.0
 42
0.149809088047153
 50
90.0
  0
VERTEX
  5
120
  8
0
 10
186.18320503717419
 20
85.671084932940204
 30
0.0
 42
0.1070584564297643
 50
90.0
  0
VERTEX
  5
121
  8
0
 10
185.73009042181531
 20
86.104064710037704
 30
0.0
 42
0.0753949568670071
 70
     2
 50
148.5231606504158
  0
VERTEX
  5
122
  8
0
 10
185.0458220784042
 20
86.392457170018389
 30
0.0
 42
0.0763560856767091
 50
148.5231606504158
  0
VERTEX
  5
123
  8
0
 10
184.3158768594422
 20
86.462709467768207
 30
0.0
 42
0.0621709537807147
 50
90.0
  0
SEQEND
  5
124
  8
0
  0
POLYLINE
  5
125
  8
0
 66
     1
 10
0.0
 20
0.0
 30
0.0
  0
VERTEX
  5
126
  8
0
 10
184.3158768594422
 20
80.748423753482712
 30
0.0
 42
0.0883162286527782
 50
90.0
  0
VERTEX
  5
127
  8
0
 10
185.09183712044771
 20
80.886560957676437
 30
0.0
 42
0.0936784760909244
 50
90.0
  0
VERTEX
  5
128
  8
0
 10
185.73009042181531
 20
81.26842264353543
 30
0.0
 42
0.1024146123325029
 70
     2
 50
41.595260486335789
  0
VERTEX
  5
129
  8
0
 10
186.1675368799911
 20
81.855095538398743
 30
0.0
 42
0.1095822351360249
 50
41.595260486335789
  0
VERTEX
  5
12A
  8
0
 10
186.3158768594422
 20
82.523811016319641
 30
0.0
 42
0.1095822351360312
 50
90.0
  0
SEQEND
  5
12B
  8
0
  0
POLYLINE
  5
12C
  8
0
 66
     1
 10
0.0
 20
0.0
 30
0.0
  0
VERTEX
  5
12D
  8
0
 10
177.8892624009853
 20
86.462709467768462
 30
0.0
 42
0.014049044621695
 50
90.0
  0
VERTEX
  5
12E
  8
0
 10
174.16153667133059
 20
86.357946819945553
 30
0.0
 42
0.0196988967580343
 50
90.0
  0
VERTEX
  5
12F
  8
0
 10
171.51354837983681
 20
86.104064710037733
 30
0.0
 42
0.0425433538501831
 70
     2
 50
187.73366279194519
  0
VERTEX
  5
130
  8
0
 10
169.1885845839175
 20
85.584125161863497
 30
0.0
 42
0.3998052163679323
 50
187.73366279194519
  0
SEQEND
  5
131
  8
0
  0
LINE
  5
132
  8
0
 10
169.66436296032541
 20
52.034260980435292
 30
0.0
 11
169.66436296032541
 21
46.605443669387341
 31
0.0
  0
POLYLINE
  5
133
  8
0
 66
     1
 10
0.0
 20
0.0
 30
0.0
  0
VERTEX
  5
134
  8
0
 10
177.8892624009853
 20
55.034138039197053
 30
0.0
 42
0.0375032381114614
 50
90.0
  0
VERTEX
  5
135
  8
0
 10
174.52701555294661
 20
54.781592547500907
 30
0.0
 42
0.0499903084674384
 50
90.0
  0
VERTEX
  5
136
  8
0
 10
172.07338023191721
 20
54.155494391411679
 30
0.0
 42
0.0933247509568806
 70
     2
 50
200.03848809816091
  0
VERTEX
  5
137
  8
0
 10
169.9947493171982
 20
52.921203830270599
 30
0.0
 42
0.2512239759550847
 50
200.03848809816091
  0
VERTEX
  5
138
  8
0
 10
169.66436296032569
 20
52.034260980435292
 30
0.0
 42
0.2154533742904706
 50
90.0
  0
SEQEND
  5
139
  8
0
  0
POLYLINE
  5
13A
  8
0
 66
     1
 10
0.0
 20
0.0
 30
0.0
  0
VERTEX
  5
13B
  8
0
 10
186.3158768594422
 20
52.034260980435278
 30
0.0
 42
0.0674616806571715
 50
90.0
  0
VERTEX
  5
13C
  8
0
 10
186.15409543233019
 20
53.227865598580131
 30
0.0
 42
0.0798145994351946
 50
90.0
  0
VERTEX
  5
13D
  8
0
 10
185.73009042181531
 20
54.155494391411658
 30
0.0
 42
0.1071179736340392
 70
     2
 50
123.6911512511999
  0
VERTEX
  5
13E
  8
0
 10
184.9877290576471
 20
54.874406876989617
 30
0.0
 42
0.1626707303288968
 50
123.6911512511999
  0
VERTEX
  5
13F
  8
0
 10
184.3158768594422
 20
55.034138039196897
 30
0.0
 42
0.1398844701409504
 50
90.0
  0
SEQEND
  5
140
  8
0
  0
POLYLINE
  5
141
  8
0
 66
     1
 10
0.0
 20
0.0
 30
0.0
  0
VERTEX
  5
142
  8
0
 10
186.3158768594422
 20
46.60544366938732
 30
0.0
 42
-0.0674616806571715
 50
90.0
  0
VERTEX
  5
143
  8
0
 10
186.15409543233019
 20
45.41183905124246
 30
0.0
 42
-0.0798145994351946
 50
90.0
  0
VERTEX
  5
144
  8
0
 10
185.73009042181531
 20
44.48421025841094
 30
0.0
 42
-0.1071179736340392
 70
     2
 50
236.30884874880019
  0
VERTEX
  5
145
  8
0
 10
184.9877290576471
 20
43.765297772832973
 30
0.0
 42
-0.1626707303288968
 50
90.0
  0
VERTEX
  5
146
  8
0
 10
184.3158768594422
 20
43.605566610625687
 30
0.0
 42
-0.1398844701409504
 50
90.0
  0
SEQEND
  5
147
  8
0
  0
POLYLINE
  5
148
  8
0
 66
     1
 10
0.0
 20
0.0
 30
0.0
  0
VERTEX
  5
149
  8
0
 10
177.8892624009853
 20
43.605566610625587
 30
0.0
 42
-0.0375032381114614
 50
90.0
  0
VERTEX
  5
14A
  8
0
 10
174.52701555294661
 20
43.858112102321719
 30
0.0
 42
-0.0499903084674384
 50
90.0
  0
VERTEX
  5
14B
  8
0
 10
172.07338023191721
 20
44.484210258410947
 30
0.0
 42
-0.0933247509568806
 70
     2
 50
159.9615119018392
  0
VERTEX
  5
14C
  8
0
 10
169.9947493171982
 20
45.718500819552027
 30
0.0
 42
-0.2512239759550847
 50
90.0
  0
VERTEX
  5
14D
  8
0
 10
169.66436296032569
 20
46.605443669387341
 30
0.0
 42
-0.2154533742904706
 50
90.0
  0
SEQEND
  5
14E
  8
0
  0
LINE
  5
14F
  8
0
 10
177.8892624009853
 20
43.605566610625587
 30
0.0
 11
184.3158768594422
 21
43.605566610625573
 31
0.0
  0
POLYLINE
  5
150
  8
0
 66
     1
 10
0.0
 20
0.0
 30
0.0
  0
VERTEX
  5
151
  8
0
 10
166.57555390200091
 20
65.319852324911295
 30
0.0
 42
0.0345339610687482
 50
90.0
  0
VERTEX
  5
152
  8
0
 10
166.83632058473609
 20
61.548844224890509
 30
0.0
 42
0.046436085275913
 50
90.0
  0
VERTEX
  5
153
  8
0
 10
167.48024512939381
 20
58.809656290685119
 30
0.0
 42
0.089509422305752
 70
     2
 50
288.54618410391879
  0
VERTEX
  5
154
  8
0
 10
168.7117264057521
 20
56.567370873615332
 30
0.0
 42
0.2262507140571177
 50
288.54618410391879
  0
VERTEX
  5
155
  8
0
 10
169.66436296032541
 20
56.113044799601113
 30
0.0
 42
0.2262507140571272
 50
90.0
  0
SEQEND
  5
156
  8
0
  0
POLYLINE
  5
157
  8
0
 66
     1
 10
0.0
 20
0.0
 30
0.0
  0
VERTEX
  5
158
  8
0
 10
169.66436296032541
 20
78.191684480763413
 30
0.0
 42
0.2675516259436962
 50
90.0
  0
VERTEX
  5
159
  8
0
 10
168.78467906059581
 20
77.684668605598986
 30
0.0
 42
0.0725190556333023
 50
90.0
  0
VERTEX
  5
15A
  8
0
 10
167.48024512939381
 20
74.421612128609397
 30
0.0
 42
0.0341235768199648
 70
     2
 50
256.5060793014751
  0
VERTEX
  5
15B
  8
0
 10
166.83833929220401
 20
70.620451212369474
 30
0.0
 42
0.0247730608551025
 50
256.5060793014751
  0
VERTEX
  5
15C
  8
0
 10
166.57555390200091
 20
65.319852324911295
 30
0.0
 42
0.0247730608551022
 50
90.0
  0
SEQEND
  5
15D
  8
0
  0
POLYLINE
  5
15E
  8
0
 66
     1
 10
0.0
 20
0.0
 30
0.0
  0
VERTEX
  5
15F
  8
0
 10
177.8892624009853
 20
12.17699518205416
 30
0.0
 42
-0.014049044621695
 50
90.0
  0
VERTEX
  5
160
  8
0
 10
174.16153667133059
 20
12.281757829877071
 30
0.0
 42
-0.0196988967580343
 50
90.0
  0
VERTEX
  5
161
  8
0
 10
171.51354837983681
 20
12.53563993978489
 30
0.0
 42
-0.0425433538501831
 70
     2
 50
172.26633720805481
  0
VERTEX
  5
162
  8
0
 10
169.1885845839175
 20
13.055579487959131
 30
0.0
 42
-0.3998052163679323
 50
90.0
  0
SEQEND
  5
163
  8
0
  0
POLYLINE
  5
164
  8
0
 66
     1
 10
0.0
 20
0.0
 30
0.0
  0
VERTEX
  5
165
  8
0
 10
184.3158768594422
 20
17.891280896339911
 30
0.0
 42
-0.0883162286527782
 50
90.0
  0
VERTEX
  5
166
  8
0
 10
185.09183712044771
 20
17.753143692146171
 30
0.0
 42
-0.0936784760909244
 50
90.0
  0
VERTEX
  5
167
  8
0
 10
185.73009042181531
 20
17.371282006287188
 30
0.0
 42
-0.1024146123325029
 70
     2
 50
318.40473951366431
  0
VERTEX
  5
168
  8
0
 10
186.1675368799911
 20
16.78460911142388
 30
0.0
 42
-0.1095822351360249
 50
90.0
  0
VERTEX
  5
169
  8
0
 10
186.3158768594422
 20
16.115893633502981
 30
0.0
 42
-0.1095822351360312
 50
90.0
  0
SEQEND
  5
16A
  8
0
  0
POLYLINE
  5
16B
  8
0
 66
     1
 10
0.0
 20
0.0
 30
0.0
  0
VERTEX
  5
16C
  8
0
 10
186.3158768594422
 20
13.401484977972549
 30
0.0
 42
-0.149809088047153
 50
90.0
  0
VERTEX
  5
16D
  8
0
 10
186.18320503717419
 20
12.96861971688241
 30
0.0
 42
-0.1070584564297643
 50
90.0
  0
VERTEX
  5
16E
  8
0
 10
185.73009042181531
 20
12.53563993978492
 30
0.0
 42
-0.0753949568670071
 70
     2
 50
211.4768393495842
  0
VERTEX
  5
16F
  8
0
 10
185.0458220784042
 20
12.24724747980423
 30
0.0
 42
-0.0763560856767091
 50
90.0
  0
VERTEX
  5
170
  8
0
 10
184.3158768594422
 20
12.1769951820544
 30
0.0
 42
-0.0621709537807147
 50
90.0
  0
SEQEND
  5
171
  8
0
  0
POLYLINE
  5
172
  8
0
 66
     1
 10
0.0
 20
0.0
 30
0.0
  0
VERTEX
  5
173
  8
0
 10
177.8892624009853
 20
12.17699518205416
 30
0.0
 42
-0.0153983298634053
 50
90.0
  0
VERTEX
  5
174
  8
0
 10
174.4901489039359
 20
12.281701350524679
 30
0.0
 42
-0.021553838956585
 50
90.0
  0
VERTEX
  5
175
  8
0
 10
172.07338023191721
 20
12.53563993978489
 30
0.0
 42
-0.0493525396935822
 70
     2
 50
171.53223035377351
  0
VERTEX
  5
176
  8
0
 10
169.82251054112791
 20
13.101794911323269
 30
0.0
 42
-0.3879733399938947
 50
90.0
  0
VERTEX
  5
177
  8
0
 10
169.66436296032001
 20
13.401484977972549
 30
0.0
 42
-0.3164055000193597
 50
90.0
  0
SEQEND
  5
178
  8
0
  0
POLYLINE
  5
179
  8
0
 66
     1
 10
0.0
 20
0.0
 30
0.0
  0
VERTEX
  5
17A
  8
0
 10
169.66436296032541
 20
16.115893633502932
 30
0.0
 42
-0.2795580664896631
 50
90.0
  0
VERTEX
  5
17B
  8
0
 10
169.96379663425401
 20
16.609587347212351
 30
0.0
 42
-0.0670520922577397
 50
90.0
  0
VERTEX
  5
17C
  8
0
 10
172.07338023191721
 20
17.371282006287149
 30
0.0
 42
-0.0308648938759908
 70
     2
 50
12.180706021091231
  0
VERTEX
  5
17D
  8
0
 10
174.49853899555021
 20
17.740000093707849
 30
0.0
 42
-0.0222969518133514
 50
90.0
  0
VERTEX
  5
17E
  8
0
 10
177.8892624009853
 20
17.891280896339911
 30
0.0
 42
-0.022296951813355
 50
90.0
  0
SEQEND
  5
17F
  8
0
  0
LINE
  5
180
  8
0
 10
169.66436296032541
 20
13.401484977972549
 30
0.0
 11
169.66436296032541
 21
16.115893633502999
 31
0.0
  0
LINE
  5
181
  8
0
 10
177.8892624009853
 20
17.891280896339929
 30
0.0
 11
184.3158768594422
 21
17.891280896339911
 31
0.0
  0
LINE
  5
182
  8
0
 10
177.8892624009853
 20
12.176995182054171
 30
0.0
 11
184.3158768594422
 21
12.176995182054171
 31
0.0
  0
ARC
  5
183
  8
0
 10
177.8892624009853
 20
21.319852324911292
 30
0.0
 40
12.0
 50
198.55300453502059
 51
223.52645309928809
  0
ARC
  5
184
  8
0
 10
261.3158768594422
 20
49.319852324911309
 30
0.0
 40
100.0
 50
191.53695903281519
 51
198.55300453502059
  0
POLYLINE
  5
185
  8
0
 66
     1
 10
0.0
 20
0.0
 30
0.0
  0
VERTEX
  5
186
  8
0
 10
169.66436296032541
 20
20.448020169059209
 30
0.0
 42
-0.2675516259436962
 50
90.0
  0
VERTEX
  5
187
  8
0
 10
168.78467906059581
 20
20.95503604422364
 30
0.0
 42
-0.0725190556333023
 50
90.0
  0
VERTEX
  5
188
  8
0
 10
167.48024512939381
 20
24.218092521213229
 30
0.0
 42
-0.0341235768199648
 70
     2
 50
103.493920698525
  0
VERTEX
  5
189
  8
0
 10
166.83833929220401
 20
28.019253437453148
 30
0.0
 42
-0.0247730608551025
 50
90.0
  0
VERTEX
  5
18A
  8
0
 10
166.57555390200091
 20
33.319852324911317
 30
0.0
 42
-0.0247730608551022
 50
90.0
  0
SEQEND
  5
18B
  8
0
  0
POLYLINE
  5
18C
  8
0
 66
     1
 10
0.0
 20
0.0
 30
0.0
  0
VERTEX
  5
18D
  8
0
 10
166.57555390200091
 20
33.319852324911317
 30
0.0
 42
-0.0345339610687482
 50
90.0
  0
VERTEX
  5
18E
  8
0
 10
166.83632058473609
 20
37.090860424932117
 30
0.0
 42
-0.046436085275913
 50
90.0
  0
VERTEX
  5
18F
  8
0
 10
167.48024512939381
 20
39.830048359137507
 30
0.0
 42
-0.089509422305752
 70
     2
 50
71.453815896081153
  0
VERTEX
  5
190
  8
0
 10
168.7117264057521
 20
42.072333776207302
 30
0.0
 42
-0.2262507140571177
 50
90.0
  0
VERTEX
  5
191
  8
0
 10
169.66436296032541
 20
42.526659850221527
 30
0.0
 42
-0.2262507140571272
 50
90.0
  0
SEQEND
  5
192
  8
0
  0
POLYLINE
  5
193
  8
0
 66
     1
 10
0.0
 20
0.0
 30
0.0
  0
VERTEX
  5
194
  8
0
 10
166.57555390200091
 20
235.7718742937937
 30
0.0
 42
0.0345339610687482
  0
VERTEX
  5
195
  8
0
 10
166.83632058473609
 20
232.00086619377291
 30
0.0
 42
0.046436085275913
  0
VERTEX
  5
196
  8
0
 10
167.48024512939381
 20
229.26167825956759
 30
0.0
 42
0.089509422305752
 70
     2
 50
288.54618410391879
  0
VERTEX
  5
197
  8
0
 10
168.7117264057521
 20
227.01939284249769
 30
0.0
 42
0.2262507140571177
  0
VERTEX
  5
198
  8
0
 10
169.66436296032541
 20
226.56506676848349
 30
0.0
 42
0.2262507140571272
  0
SEQEND
  5
199
  8
0
  0
POLYLINE
  5
19A
  8
0
 66
     1
 10
0.0
 20
0.0
 30
0.0
  0
VERTEX
  5
19B
  8
0
 10
169.66436296032541
 20
248.6437064496458
 30
0.0
 42
0.2675516259436962
  0
VERTEX
  5
19C
  8
0
 10
168.78467906059581
 20
248.13669057448141
 30
0.0
 42
0.0725190556333023
  0
VERTEX
  5
19D
  8
0
 10
167.48024512939381
 20
244.87363409749179
 30
0.0
 42
0.0341235768199648
 70
     2
 50
256.5060793014751
  0
VERTEX
  5
19E
  8
0
 10
166.83833929220401
 20
241.07247318125189
 30
0.0
 42
0.0247730608551025
  0
VERTEX
  5
19F
  8
0
 10
166.57555390200091
 20
235.7718742937937
 30
0.0
 42
0.0247730608551022
  0
SEQEND
  5
1A0
  8
0
  0
ARC
  5
1A1
  8
0
 10
261.3158768594422
 20
219.7718742937937
 30
0.0
 40
100.0
 50
161.4469954649793
 51
168.4630409671847
  0
ARC
  5
1A2
  8
0
 10
177.8892624009853
 20
247.7718742937937
 30
0.0
 40
12.0
 50
136.47354690071191
 51
161.4469954649793
  0
LINE
  5
1A3
  8
0
 10
177.8892624009853
 20
256.91473143665092
 30
0.0
 11
184.3158768594422
 21
256.91473143665092
 31
0.0
  0
LINE
  5
1A4
  8
0
 10
177.8892624009853
 20
251.20044572236509
 30
0.0
 11
184.3158768594422
 21
251.20044572236509
 31
0.0
  0
LINE
  5
1A5
  8
0
 10
169.66436296032541
 20
255.69024164073249
 30
0.0
 11
169.66436296032541
 21
252.975832985202
 31
0.0
  0
POLYLINE
  5
1A6
  8
0
 66
     1
 10
0.0
 20
0.0
 30
0.0
  0
VERTEX
  5
1A7
  8
0
 10
169.66436296032541
 20
252.97583298520209
 30
0.0
 42
0.2795580664896631
  0
VERTEX
  5
1A8
  8
0
 10
169.96379663425401
 20
252.48213927149271
 30
0.0
 42
0.0670520922577397
  0
VERTEX
  5
1A9
  8
0
 10
172.07338023191721
 20
251.72044461241791
 30
0.0
 42
0.0308648938759908
 70
     2
 50
347.81929397890877
  0
VERTEX
  5
1AA
  8
0
 10
174.49853899555021
 20
251.3517265249971
 30
0.0
 42
0.0222969518133514
  0
VERTEX
  5
1AB
  8
0
 10
177.8892624009853
 20
251.20044572236509
 30
0.0
 42
0.022296951813355
  0
SEQEND
  5
1AC
  8
0
  0
POLYLINE
  5
1AD
  8
0
 66
     1
 10
0.0
 20
0.0
 30
0.0
  0
VERTEX
  5
1AE
  8
0
 10
177.8892624009853
 20
256.91473143665092
 30
0.0
 42
0.0153983298634053
  0
VERTEX
  5
1AF
  8
0
 10
174.4901489039359
 20
256.81002526818042
 30
0.0
 42
0.021553838956585
  0
VERTEX
  5
1B0
  8
0
 10
172.07338023191721
 20
256.55608667892011
 30
0.0
 42
0.0493525396935822
 70
     2
 50
188.4677696462264
  0
VERTEX
  5
1B1
  8
0
 10
169.82251054112791
 20
255.9899317073818
 30
0.0
 42
0.3879733399938947
  0
VERTEX
  5
1B2
  8
0
 10
169.66436296032001
 20
255.69024164073249
 30
0.0
 42
0.3164055000193597
  0
SEQEND
  5
1B3
  8
0
  0
POLYLINE
  5
1B4
  8
0
 66
     1
 10
0.0
 20
0.0
 30
0.0
  0
VERTEX
  5
1B5
  8
0
 10
186.3158768594422
 20
255.69024164073249
 30
0.0
 42
0.149809088047153
  0
VERTEX
  5
1B6
  8
0
 10
186.18320503717419
 20
256.12310690182261
 30
0.0
 42
0.1070584564297643
  0
VERTEX
  5
1B7
  8
0
 10
185.73009042181531
 20
256.55608667892011
 30
0.0
 42
0.0753949568670071
 70
     2
 50
148.5231606504158
  0
VERTEX
  5
1B8
  8
0
 10
185.0458220784042
 20
256.84447913890079
 30
0.0
 42
0.0763560856767091
  0
VERTEX
  5
1B9
  8
0
 10
184.3158768594422
 20
256.9147314366507
 30
0.0
 42
0.0621709537807147
  0
SEQEND
  5
1BA
  8
0
  0
POLYLINE
  5
1BB
  8
0
 66
     1
 10
0.0
 20
0.0
 30
0.0
  0
VERTEX
  5
1BC
  8
0
 10
184.3158768594422
 20
251.20044572236509
 30
0.0
 42
0.0883162286527782
  0
VERTEX
  5
1BD
  8
0
 10
185.09183712044771
 20
251.3385829265589
 30
0.0
 42
0.0936784760909244
  0
VERTEX
  5
1BE
  8
0
 10
185.73009042181531
 20
251.72044461241779
 30
0.0
 42
0.1024146123325029
 70
     2
 50
41.595260486335746
  0
VERTEX
  5
1BF
  8
0
 10
186.1675368799911
 20
252.30711750728111
 30
0.0
 42
0.1095822351360249
  0
VERTEX
  5
1C0
  8
0
 10
186.3158768594422
 20
252.975832985202
 30
0.0
 42
0.1095822351360312
  0
SEQEND
  5
1C1
  8
0
  0
POLYLINE
  5
1C2
  8
0
 66
     1
 10
0.0
 20
0.0
 30
0.0
  0
VERTEX
  5
1C3
  8
0
 10
177.8892624009853
 20
256.91473143665092
 30
0.0
 42
0.014049044621695
  0
VERTEX
  5
1C4
  8
0
 10
174.16153667133059
 20
256.80996878882797
 30
0.0
 42
0.0196988967580343
  0
VERTEX
  5
1C5
  8
0
 10
171.51354837983681
 20
256.55608667892011
 30
0.0
 42
0.0425433538501831
 70
     2
 50
187.73366279194519
  0
VERTEX
  5
1C6
  8
0
 10
169.1885845839175
 20
256.03614713074592
 30
0.0
 42
0.3998052163679323
  0
SEQEND
  5
1C7
  8
0
  0
POLYLINE
  5
1C8
  8
0
 66
     1
 10
0.0
 20
0.0
 30
0.0
  0
VERTEX
  5
1C9
  8
0
 10
169.66436296032541
 20
190.9000421379416
 30
0.0
 42
-0.2675516259436962
  0
VERTEX
  5
1CA
  8
0
 10
168.78467906059581
 20
191.407058013106
 30
0.0
 42
-0.0725190556333023
  0
VERTEX
  5
1CB
  8
0
 10
167.48024512939381
 20
194.67011449009561
 30
0.0
 42
-0.0341235768199648
 70
     2
 50
103.4939206985249
  0
VERTEX
  5
1CC
  8
0
 10
166.83833929220401
 20
198.47127540633551
 30
0.0
 42
-0.0247730608551025
  0
VERTEX
  5
1CD
  8
0
 10
166.57555390200091
 20
203.7718742937937
 30
0.0
 42
-0.0247730608551022
  0
SEQEND
  5
1CE
  8
0
  0
POLYLINE
  5
1CF
  8
0
 66
     1
 10
0.0
 20
0.0
 30
0.0
  0
VERTEX
  5
1D0
  8
0
 10
166.57555390200091
 20
203.7718742937937
 30
0.0
 42
-0.0345339610687482
  0
VERTEX
  5
1D1
  8
0
 10
166.83632058473609
 20
207.54288239381449
 30
0.0
 42
-0.046436085275913
  0
VERTEX
  5
1D2
  8
0
 10
167.48024512939381
 20
210.2820703280199
 30
0.0
 42
-0.089509422305752
 70
     2
 50
71.453815896081167
  0
VERTEX
  5
1D3
  8
0
 10
168.7117264057521
 20
212.52435574508971
 30
0.0
 42
-0.2262507140571177
  0
VERTEX
  5
1D4
  8
0
 10
169.66436296032541
 20
212.97868181910391
 30
0.0
 42
-0.2262507140571272
  0
SEQEND
  5
1D5
  8
0
  0
LINE
  5
1D6
  8
0
 10
177.8892624009853
 20
225.48616000807939
 30
0.0
 11
184.3158768594422
 21
225.48616000807939
 31
0.0
  0
POLYLINE
  5
1D7
  8
0
 66
     1
 10
0.0
 20
0.0
 30
0.0
  0
VERTEX
  5
1D8
  8
0
 10
177.8892624009853
 20
225.48616000807939
 30
0.0
 42
0.0375032381114614
  0
VERTEX
  5
1D9
  8
0
 10
174.52701555294661
 20
225.23361451638331
 30
0.0
 42
0.0499903084674384
  0
VERTEX
  5
1DA
  8
0
 10
172.07338023191721
 20
224.60751636029411
 30
0.0
 42
0.0933247509568806
 70
     2
 50
200.0384880981608
  0
VERTEX
  5
1DB
  8
0
 10
169.9947493171982
 20
223.373225799153
 30
0.0
 42
0.2512239759550847
  0
VERTEX
  5
1DC
  8
0
 10
169.66436296032569
 20
222.48628294931771
 30
0.0
 42
0.2154533742904706
  0
SEQEND
  5
1DD
  8
0
  0
POLYLINE
  5
1DE
  8
0
 66
     1
 10
0.0
 20
0.0
 30
0.0
  0
VERTEX
  5
1DF
  8
0
 10
186.3158768594422
 20
222.48628294931771
 30
0.0
 42
0.0674616806571715
  0
VERTEX
  5
1E0
  8
0
 10
186.15409543233019
 20
223.6798875674626
 30
0.0
 42
0.0798145994351946
  0
VERTEX
  5
1E1
  8
0
 10
185.73009042181531
 20
224.60751636029411
 30
0.0
 42
0.1071179736340392
 70
     2
 50
123.6911512511998
  0
VERTEX
  5
1E2
  8
0
 10
184.9877290576471
 20
225.3264288458721
 30
0.0
 42
0.1626707303288968
  0
VERTEX
  5
1E3
  8
0
 10
184.3158768594422
 20
225.48616000807931
 30
0.0
 42
0.1398844701409504
  0
SEQEND
  5
1E4
  8
0
  0
POLYLINE
  5
1E5
  8
0
 66
     1
 10
0.0
 20
0.0
 30
0.0
  0
VERTEX
  5
1E6
  8
0
 10
186.3158768594422
 20
217.05746563826969
 30
0.0
 42
-0.0674616806571715
  0
VERTEX
  5
1E7
  8
0
 10
186.15409543233019
 20
215.86386102012489
 30
0.0
 42
-0.0798145994351946
  0
VERTEX
  5
1E8
  8
0
 10
185.73009042181531
 20
214.9362322272934
 30
0.0
 42
-0.1071179736340392
 70
     2
 50
236.3088487488001
  0
VERTEX
  5
1E9
  8
0
 10
184.9877290576471
 20
214.21731974171539
 30
0.0
 42
-0.1626707303288968
  0
VERTEX
  5
1EA
  8
0
 10
184.3158768594422
 20
214.05758857950809
 30
0.0
 42
-0.1398844701409504
  0
SEQEND
  5
1EB
  8
0
  0
POLYLINE
  5
1EC
  8
0
 66
     1
 10
0.0
 20
0.0
 30
0.0
  0
VERTEX
  5
1ED
  8
0
 10
177.8892624009853
 20
214.05758857950801
 30
0.0
 42
-0.0375032381114614
  0
VERTEX
  5
1EE
  8
0
 10
174.52701555294661
 20
214.31013407120409
 30
0.0
 42
-0.0499903084674384
  0
VERTEX
  5
1EF
  8
0
 10
172.07338023191721
 20
214.9362322272934
 30
0.0
 42
-0.0933247509568806
 70
     2
 50
159.96151190183909
  0
VERTEX
  5
1F0
  8
0
 10
169.9947493171982
 20
216.1705227884344
 30
0.0
 42
-0.2512239759550847
  0
VERTEX
  5
1F1
  8
0
 10
169.66436296032569
 20
217.05746563826969
 30
0.0
 42
-0.2154533742904706
  0
SEQEND
  5
1F2
  8
0
  0
LINE
  5
1F3
  8
0
 10
169.66436296032541
 20
217.05746563826969
 30
0.0
 11
169.66436296032541
 21
222.48628294931771
 31
0.0
  0
POLYLINE
  5
1F4
  8
0
 66
     1
 10
0.0
 20
0.0
 30
0.0
  0
VERTEX
  5
1F5
  8
0
 10
177.8892624009853
 20
182.62901715093651
 30
0.0
 42
-0.014049044621695
  0
VERTEX
  5
1F6
  8
0
 10
174.16153667133059
 20
182.73377979875951
 30
0.0
 42
-0.0196988967580343
  0
VERTEX
  5
1F7
  8
0
 10
171.51354837983681
 20
182.98766190866729
 30
0.0
 42
-0.0425433538501831
 70
     2
 50
172.26633720805481
  0
VERTEX
  5
1F8
  8
0
 10
169.1885845839175
 20
183.50760145684151
 30
0.0
 42
-0.3998052163679323
  0
SEQEND
  5
1F9
  8
0
  0
POLYLINE
  5
1FA
  8
0
 66
     1
 10
0.0
 20
0.0
 30
0.0
  0
VERTEX
  5
1FB
  8
0
 10
184.3158768594422
 20
188.34330286522231
 30
0.0
 42
-0.0883162286527782
  0
VERTEX
  5
1FC
  8
0
 10
185.09183712044771
 20
188.2051656610285
 30
0.0
 42
-0.0936784760909244
  0
VERTEX
  5
1FD
  8
0
 10
185.73009042181531
 20
187.82330397516961
 30
0.0
 42
-0.1024146123325029
 70
     2
 50
318.4047395136642
  0
VERTEX
  5
1FE
  8
0
 10
186.1675368799911
 20
187.23663108030621
 30
0.0
 42
-0.1095822351360249
  0
VERTEX
  5
1FF
  8
0
 10
186.3158768594422
 20
186.56791560238531
 30
0.0
 42
-0.1095822351360312
  0
SEQEND
  5
200
  8
0
  0
POLYLINE
  5
201
  8
0
 66
     1
 10
0.0
 20
0.0
 30
0.0
  0
VERTEX
  5
202
  8
0
 10
186.3158768594422
 20
183.85350694685491
 30
0.0
 42
-0.149809088047153
  0
VERTEX
  5
203
  8
0
 10
186.18320503717419
 20
183.42064168576479
 30
0.0
 42
-0.1070584564297643
  0
VERTEX
  5
204
  8
0
 10
185.73009042181531
 20
182.98766190866729
 30
0.0
 42
-0.0753949568670071
 70
     2
 50
211.4768393495842
  0
VERTEX
  5
205
  8
0
 10
185.0458220784042
 20
182.69926944868661
 30
0.0
 42
-0.0763560856767091
  0
VERTEX
  5
206
  8
0
 10
184.3158768594422
 20
182.62901715093679
 30
0.0
 42
-0.0621709537807147
  0
SEQEND
  5
207
  8
0
  0
POLYLINE
  5
208
  8
0
 66
     1
 10
0.0
 20
0.0
 30
0.0
  0
VERTEX
  5
209
  8
0
 10
177.8892624009853
 20
182.62901715093651
 30
0.0
 42
-0.0153983298634053
  0
VERTEX
  5
20A
  8
0
 10
174.4901489039359
 20
182.73372331940709
 30
0.0
 42
-0.021553838956585
  0
VERTEX
  5
20B
  8
0
 10
172.07338023191721
 20
182.98766190866729
 30
0.0
 42
-0.0493525396935822
 70
     2
 50
171.53223035377351
  0
VERTEX
  5
20C
  8
0
 10
169.82251054112791
 20
183.5538168802056
 30
0.0
 42
-0.3879733399938947
  0
VERTEX
  5
20D
  8
0
 10
169.66436296032001
 20
183.85350694685491
 30
0.0
 42
-0.3164055000193597
  0
SEQEND
  5
20E
  8
0
  0
POLYLINE
  5
20F
  8
0
 66
     1
 10
0.0
 20
0.0
 30
0.0
  0
VERTEX
  5
210
  8
0
 10
169.66436296032541
 20
186.56791560238531
 30
0.0
 42
-0.2795580664896631
  0
VERTEX
  5
211
  8
0
 10
169.96379663425401
 20
187.06160931609469
 30
0.0
 42
-0.0670520922577397
  0
VERTEX
  5
212
  8
0
 10
172.07338023191721
 20
187.82330397516949
 30
0.0
 42
-0.0308648938759908
 70
     2
 50
12.18070602109125
  0
VERTEX
  5
213
  8
0
 10
174.49853899555021
 20
188.19202206259021
 30
0.0
 42
-0.0222969518133514
  0
VERTEX
  5
214
  8
0
 10
177.8892624009853
 20
188.34330286522231
 30
0.0
 42
-0.022296951813355
  0
SEQEND
  5
215
  8
0
  0
LINE
  5
216
  8
0
 10
169.66436296032541
 20
183.85350694685491
 30
0.0
 11
169.66436296032541
 21
186.5679156023854
 31
0.0
  0
LINE
  5
217
  8
0
 10
177.8892624009853
 20
214.05758857950801
 30
0.0
 11
184.3158768594422
 21
214.05758857950801
 31
0.0
  0
LINE
  5
218
  8
0
 10
177.8892624009853
 20
188.34330286522231
 30
0.0
 11
184.3158768594422
 21
188.34330286522231
 31
0.0
  0
LINE
  5
219
  8
0
 10
177.8892624009853
 20
182.62901715093659
 30
0.0
 11
184.3158768594422
 21
182.62901715093659
 31
0.0
  0
ARC
  5
21A
  8
0
 10
177.8892624009853
 20
191.7718742937937
 30
0.0
 40
12.0
 50
198.55300453502059
 51
223.52645309928809
  0
ARC
  5
21B
  8
0
 10
261.3158768594422
 20
219.7718742937937
 30
0.0
 40
100.0
 50
191.53695903281519
 51
198.55300453502059
  0
ARC
  5
21C
  8
0
 10
261.3158768594422
 20
219.7718742937937
 30
0.0
 40
99.000000000000028
 50
171.76656268461599
 51
188.23343731538401
  0
LINE
  5
21D
  8
0
 10
163.33628714811499
 20
239.7718742937937
 30
0.0
 11
163.33628714811499
 21
199.77187429379401
 31
0.0
  0
LINE
  5
21E
  8
0
 10
186.3158768594422
 20
183.85350694685491
 30
0.0
 11
186.3158768594422
 21
255.69024164073249
 31
0.0
  0
LINE
  5
21F
  8
0
 10
210.8158768594422
 20
207.2718742937937
 30
0.0
 11
210.8158768594422
 21
232.2718742937937
 31
0.0
  0
LINE
  5
220
  8
0
 10
186.3158768594422
 20
204.2718742937937
 30
0.0
 11
188.3158768594422
 21
204.2718742937937
 31
0.0
  0
LINE
  5
221
  8
0
 10
186.3158768594422
 20
235.2718742937937
 30
0.0
 11
188.3158768594422
 21
235.2718742937937
 31
0.0
  0
LINE
  5
222
  8
0
 10
188.3158768594422
 20
204.2718742937937
 30
0.0
 11
188.3158768594422
 21
235.2718742937937
 31
0.0
  0
LINE
  5
223
  8
1
 10
156.31587685944231
 20
219.7718742937937
 30
0.0
 11
216.3158768594418
 21
219.7718742937937
 31
0.0
  0
LINE
  5
224
  8
0
 10
188.3158768594422
 20
207.2718742937937
 30
0.0
 11
210.8158768594422
 21
207.2718742937937
 31
0.0
  0
LINE
  5
225
  8
0
 10
188.3158768594422
 20
232.2718742937937
 30
0.0
 11
210.8158768594422
 21
232.2718742937937
 31
0.0
  0
LINE
  5
226
  8
0
 10
211.3158768594422
 20
207.7718742937937
 30
0.0
 11
210.8158768594422
 21
207.2718742937937
 31
0.0
  0
LINE
  5
227
  8
0
 10
211.3158768594422
 20
231.7718742937937
 30
0.0
 11
210.8158768594422
 21
232.2718742937937
 31
0.0
  0
LINE
  5
228
  8
0
 10
211.3158768594422
 20
207.7718742937937
 30
0.0
 11
211.3158768594422
 21
231.7718742937937
 31
0.0
  0
LINE
  5
229
  8
2
 10
209.31587685944211
 20
141.4633633093525
 30
0.0
 11
211.3158768594422
 21
143.4633633093525
 31
0.0
  0
LINE
  5
22A
  8
2
 10
183.31587685944211
 20
141.4633633093525
 30
0.0
 11
179.32205637232289
 21
134.54586330935251
 31
0.0
  0
LINE
  5
22B
  8
2
 10
183.31587685944211
 20
141.4633633093525
 30
0.0
 11
209.3158768594422
 21
141.4633633093525
 31
0.0
  0
LINE
  5
22C
  8
2
 10
187.31587685944211
 20
142.54586330935251
 30
0.0
 11
210.3983768594421
 21
142.54586330935251
 31
0.0
  0
LINE
  5
22D
  8
2
 10
209.31587685944211
 20
127.62836330935249
 30
0.0
 11
211.3158768594422
 21
125.62836330935249
 31
0.0
  0
LINE
  5
22E
  8
2
 10
187.31587685944211
 20
126.5458633093525
 30
0.0
 11
210.3983768594421
 21
126.5458633093525
 31
0.0
  0
LINE
  5
22F
  8
2
 10
183.31587685944211
 20
127.62836330935249
 30
0.0
 11
209.3158768594422
 21
127.62836330935249
 31
0.0
  0
LINE
  5
230
  8
2
 10
183.31587685944211
 20
127.62836330935249
 30
0.0
 11
179.32205637232289
 21
134.54586330935251
 31
0.0
  0
LINE
  5
231
  8
2
 10
209.31587685944211
 20
141.4633633093525
 30
0.0
 11
209.31587685944211
 21
127.62836330935249
 31
0.0
  0
LINE
  5
232
  8
2
 10
183.31587685944211
 20
141.4633633093525
 30
0.0
 11
183.31587685944211
 21
127.62836330935249
 31
0.0
  0
LINE
  5
233
  8
2
 10
187.31587685944211
 20
142.54586330935251
 30
0.0
 11
187.31587685944211
 21
126.5458633093525
 31
0.0
  0
LINE
  5
234
  8
2
 10
209.3158768594422
 20
226.68937429379369
 30
0.0
 11
211.3158768594422
 21
228.68937429379369
 31
0.0
  0
LINE
  5
235
  8
2
 10
183.3158768594422
 20
226.68937429379369
 30
0.0
 11
179.32205637232289
 21
219.7718742937937
 31
0.0
  0
LINE
  5
236
  8
2
 10
183.3158768594422
 20
226.68937429379369
 30
0.0
 11
209.3158768594422
 21
226.68937429379369
 31
0.0
  0
LINE
  5
237
  8
2
 10
187.31587685944211
 20
227.7718742937937
 30
0.0
 11
210.39837685944221
 21
227.7718742937937
 31
0.0
  0
LINE
  5
238
  8
2
 10
209.3158768594422
 20
212.85437429379371
 30
0.0
 11
211.3158768594422
 21
210.85437429379371
 31
0.0
  0
LINE
  5
239
  8
2
 10
187.31587685944211
 20
211.7718742937937
 30
0.0
 11
210.39837685944221
 21
211.7718742937937
 31
0.0
  0
LINE
  5
23A
  8
2
 10
183.3158768594422
 20
212.85437429379371
 30
0.0
 11
209.3158768594422
 21
212.85437429379371
 31
0.0
  0
LINE
  5
23B
  8
2
 10
183.3158768594422
 20
212.85437429379371
 30
0.0
 11
179.32205637232289
 21
219.7718742937937
 31
0.0
  0
LINE
  5
23C
  8
2
 10
209.3158768594422
 20
226.68937429379369
 30
0.0
 11
209.3158768594422
 21
212.85437429379371
 31
0.0
  0
LINE
  5
23D
  8
2
 10
183.3158768594422
 20
226.68937429379369
 30
0.0
 11
183.3158768594422
 21
212.85437429379371
 31
0.0
  0
LINE
  5
23E
  8
2
 10
187.31587685944211
 20
227.7718742937937
 30
0.0
 11
187.31587685944211
 21
211.7718742937937
 31
0.0
  0
LINE
  5
23F
  8
2
 10
209.3158768594422
 20
56.237352324911299
 30
0.0
 11
211.3158768594422
 21
58.237352324911328
 31
0.0
  0
LINE
  5
240
  8
2
 10
183.31587685944211
 20
56.237352324911299
 30
0.0
 11
179.32205637232289
 21
49.319852324911309
 31
0.0
  0
LINE
  5
241
  8
2
 10
183.3158768594422
 20
56.237352324911321
 30
0.0
 11
209.3158768594422
 21
56.237352324911299
 31
0.0
  0
LINE
  5
242
  8
2
 10
187.31587685944211
 20
57.319852324911331
 30
0.0
 11
210.39837685944221
 21
57.319852324911309
 31
0.0
  0
LINE
  5
243
  8
2
 10
209.3158768594422
 20
42.40235232491132
 30
0.0
 11
211.3158768594422
 21
40.40235232491132
 31
0.0
  0
LINE
  5
244
  8
2
 10
187.31587685944211
 20
41.319852324911309
 30
0.0
 11
210.39837685944221
 21
41.319852324911309
 31
0.0
  0
LINE
  5
245
  8
2
 10
183.3158768594422
 20
42.402352324911291
 30
0.0
 11
209.3158768594422
 21
42.40235232491132
 31
0.0
  0
LINE
  5
246
  8
2
 10
183.31587685944211
 20
42.40235232491132
 30
0.0
 11
179.32205637232289
 21
49.319852324911309
 31
0.0
  0
LINE
  5
247
  8
2
 10
209.3158768594422
 20
56.237352324911299
 30
0.0
 11
209.3158768594422
 21
42.40235232491132
 31
0.0
  0
LINE
  5
248
  8
2
 10
183.31587685944211
 20
56.237352324911299
 30
0.0
 11
183.31587685944211
 21
42.402352324911291
 31
0.0
  0
LINE
  5
249
  8
2
 10
187.31587685944211
 20
57.319852324911331
 30
0.0
 11
187.31587685944211
 21
41.319852324911309
 31
0.0
  0
CIRCLE
  5
24A
  8
3
 10
319.96769706967223
 20
134.54586330935251
 30
0.0
 40
8.0
  0
CIRCLE
  5
24B
  8
0
 10
319.96769706967223
 20
134.54586330935251
 30
0.0
 40
6.9175000000000004
  0
TEXT
  5
421
  8
0
 62
     3
 10
0.0
 20
0.0
 30
0.0
 40
10.0
  1
EK80T
  7
STANDARD1
  0
ENDSEC
  0
EOF
