  0
SECTION
  2
HEADER
  9
$ACADVER
  1
AC1009
  9
$INSBASE
 10
0.0
 20
0.0
 30
0.0
  9
$EXTMIN
 10
0.0
 20
-2.960436562073669
 30
0.0
  9
$EXTMAX
 10
342.0939977902899
 20
239.91806083004221
 30
0.0
  9
$LIMMIN
 10
0.0
 20
0.0
  9
$LIMMAX
 10
375.0
 20
270.0
  9
$ORTHOMODE
 70
     1
  9
$REGENMODE
 70
     1
  9
$FILLMODE
 70
     1
  9
$QTEXTMODE
 70
     0
  9
$MIRRTEXT
 70
     0
  9
$DRAGMODE
 70
     2
  9
$LTSCALE
 40
10.0
  9
$OSMODE
 70
  3071
  9
$ATTMODE
 70
     1
  9
$TEXTSIZE
 40
0.2
  9
$TRACEWID
 40
0.05
  9
$TEXTSTYLE
  7
K90
  9
$CLAYER
  8
0
  9
$CELTYPE
  6
BYLAYER
  9
$CECOLOR
 62
   256
  9
$DIMSCALE
 40
1.0
  9
$DIMASZ
 40
3.0
  9
$DIMEXO
 40
2.0
  9
$DIMDLI
 40
0.38
  9
$DIMRND
 40
0.0
  9
$DIMDLE
 40
0.0
  9
$DIMEXE
 40
2.0
  9
$DIMTP
 40
0.0
  9
$DIMTM
 40
0.0
  9
$DIMTXT
 40
3.2000000000000002
  9
$DIMCEN
 40
0.0
  9
$DIMTSZ
 40
0.0
  9
$DIMTOL
 70
     0
  9
$DIMLIM
 70
     0
  9
$DIMTIH
 70
     0
  9
$DIMTOH
 70
     0
  9
$DIMSE1
 70
     0
  9
$DIMSE2
 70
     0
  9
$DIMTAD
 70
     1
  9
$DIMZIN
 70
     0
  9
$DIMBLK
  1

  9
$DIMASO
 70
     1
  9
$DIMSHO
 70
     0
  9
$DIMPOST
  1

  9
$DIMAPOST
  1

  9
$DIMALT
 70
     0
  9
$DIMALTD
 70
     2
  9
$DIMALTF
 40
25.399999999999999
  9
$DIMLFAC
 40
1.0
  9
$DIMTOFL
 70
     0
  9
$DIMTVP
 40
1.6000000000000001
  9
$DIMTIX
 70
     1
  9
$DIMSOXD
 70
     0
  9
$DIMSAH
 70
     0
  9
$DIMBLK1
  1

  9
$DIMBLK2
  1

  9
$DIMSTYLE
  2
STANDARD
  9
$DIMCLRD
 70
     0
  9
$DIMCLRE
 70
     0
  9
$DIMCLRT
 70
     0
  9
$DIMTFAC
 40
1.0
  9
$DIMGAP
 40
0.09
  9
$LUNITS
 70
     2
  9
$LUPREC
 70
     4
  9
$SKETCHINC
 40
0.1
  9
$FILLETRAD
 40
0.0
  9
$AUNITS
 70
     0
  9
$AUPREC
 70
     0
  9
$MENU
  1
E:\r13\win\SUPPORT\ACAD
  9
$ELEVATION
 40
0.0
  9
$PELEVATION
 40
0.0
  9
$THICKNESS
 40
0.0
  9
$LIMCHECK
 70
     0
  9
$BLIPMODE
 70
     0
  9
$CHAMFERA
 40
0.0
  9
$CHAMFERB
 40
0.0
  9
$SKPOLY
 70
     0
  9
$TDCREATE
 40
2449840.60318287
  9
$TDUPDATE
 40
2456598.6750701498
  9
$TDINDWG
 40
0.0004229977
  9
$TDUSRTIMER
 40
0.0004229977
  9
$USRTIMER
 70
     1
  9
$ANGBASE
 50
0.0
  9
$ANGDIR
 70
     0
  9
$PDMODE
 70
     0
  9
$PDSIZE
 40
0.0
  9
$PLINEWID
 40
0.0
  9
$COORDS
 70
     1
  9
$SPLFRAME
 70
     0
  9
$SPLINETYPE
 70
     6
  9
$SPLINESEGS
 70
     8
  9
$ATTDIA
 70
     0
  9
$ATTREQ
 70
     1
  9
$HANDLING
 70
     1
  9
$HANDSEED
  5
455
  9
$SURFTAB1
 70
     6
  9
$SURFTAB2
 70
     6
  9
$SURFTYPE
 70
     6
  9
$SURFU
 70
     6
  9
$SURFV
 70
     6
  9
$UCSNAME
  2

  9
$UCSORG
 10
0.0
 20
0.0
 30
0.0
  9
$UCSXDIR
 10
1.0
 20
0.0
 30
0.0
  9
$UCSYDIR
 10
0.0
 20
1.0
 30
0.0
  9
$PUCSNAME
  2

  9
$PUCSORG
 10
0.0
 20
0.0
 30
0.0
  9
$PUCSXDIR
 10
1.0
 20
0.0
 30
0.0
  9
$PUCSYDIR
 10
0.0
 20
1.0
 30
0.0
  9
$USERI1
 70
     0
  9
$USERI2
 70
     1
  9
$USERI3
 70
     1
  9
$USERI4
 70
     0
  9
$USERI5
 70
     0
  9
$USERR1
 40
0.0
  9
$USERR2
 40
0.0
  9
$USERR3
 40
0.0
  9
$USERR4
 40
0.0
  9
$USERR5
 40
0.0
  9
$WORLDVIEW
 70
     1
  9
$SHADEDGE
 70
     3
  9
$SHADEDIF
 70
    70
  9
$TILEMODE
 70
     1
  9
$MAXACTVP
 70
    16
  9
$PLIMCHECK
 70
     0
  9
$PEXTMIN
 10
1.0000000000000000E+020
 20
1.0000000000000000E+020
 30
1.0000000000000000E+020
  9
$PEXTMAX
 10
-1.0000000000000000E+020
 20
-1.0000000000000000E+020
 30
-1.0000000000000000E+020
  9
$PLIMMIN
 10
0.0
 20
0.0
  9
$PLIMMAX
 10
12.0
 20
9.0
  9
$UNITMODE
 70
     0
  9
$VISRETAIN
 70
     0
  9
$PLINEGEN
 70
     0
  9
$PSLTSCALE
 70
     0
  0
ENDSEC
  0
SECTION
  2
TABLES
  0
TABLE
  2
VPORT
 70
     1
  0
VPORT
  2
*ACTIVE
 70
     0
 10
0.0
 20
0.0
 11
1.0
 21
1.0
 12
187.49427839065231
 22
169.9063198933564
 13
0.0
 23
0.0
 14
10.0
 24
10.0
 15
10.0
 25
10.0
 16
0.0
 26
0.0
 36
1.0
 17
0.0
 27
0.0
 37
0.0
 40
348.89937369551939
 41
1.831871345029239
 42
50.0
 43
0.0
 44
0.0
 50
0.0
 51
0.0
 71
     0
 72
   500
 73
     1
 74
     0
 75
     0
 76
     0
 77
     0
 78
     0
  0
ENDTAB
  0
TABLE
  2
LTYPE
 70
     3
  0
LTYPE
  2
CONTINUOUS
 70
     0
  3
Solid Line
 72
    65
 73
     0
 40
0.0
  0
LTYPE
  2
CENTER
 70
     0
  3
____ _ ____ _ ____ _ ____ _ ____ _ ____ _ ____
 72
    65
 73
     4
 40
2.0
 49
1.25
 49
-0.25
 49
0.25
 49
-0.25
  0
LTYPE
  2
PHANTOM2
 70
     0
  3
___ _ _ ___ _ _ ___ _ _ ___ _ _
 72
    65
 73
     6
 40
1.25
 49
0.625
 49
-0.125
 49
0.125
 49
-0.125
 49
0.125
 49
-0.125
  0
ENDTAB
  0
TABLE
  2
LAYER
 70
     2
  0
LAYER
  2
0
 70
     0
 62
     7
  6
CONTINUOUS
  0
LAYER
  2
1
 70
     0
 62
     1
  6
CENTER
  0
ENDTAB
  0
TABLE
  2
STYLE
 70
     4
  0
STYLE
  2
STANDARD
 70
     0
 40
0.0
 41
1.0
 50
0.0
 71
     0
 42
0.2
  3
romans.shx
  4

  0
STYLE
  2
K70
 70
     0
 40
0.0
 41
1.0
 50
0.0
 71
     0
 42
0.2
  3
romans.shx
  4

  0
STYLE
  2
K90
 70
     0
 40
0.0
 41
1.0
 50
0.0
 71
     0
 42
0.2
  3
romans.shx
  4

  0
STYLE
  2
STANDARD1
 70
     0
 40
0.0
 41
1.0
 50
0.0
 71
     0
 42
3.0
  3
txt
  4

  0
ENDTAB
  0
TABLE
  2
VIEW
 70
     1
  0
VIEW
  2
ALL
 70
     0
 40
179.5384664489153
 10
135.0
 20
89.769233224457665
 41
0.0
 11
0.0
 21
0.0
 31
1.0
 12
0.0
 22
0.0
 32
0.0
 42
0.0
 43
0.0
 44
0.0
 50
0.0
 71
     0
  0
ENDTAB
  0
TABLE
  2
UCS
 70
     0
  0
ENDTAB
  0
TABLE
  2
APPID
 70
     3
  0
APPID
  2
ACAD
 70
     0
  0
APPID
  2
ACAD_MLEADERVER
 70
     0
  0
APPID
  2
ACAD_NAV_VCDISPLAY
 70
     0
  0
ENDTAB
  0
TABLE
  2
DIMSTYLE
 70
     1
  0
DIMSTYLE
  2
STANDARD
 70
     0
  3

  4

  5

  6

  7

 40
1.0
 41
0.18
 42
0.0625
 43
0.38
 44
0.18
 45
0.0
 46
0.0
 47
0.0
 48
0.0
140
0.18
141
0.09
142
0.0
143
25.399999999999999
144
1.0
145
0.0
146
1.0
147
0.09
 71
     0
 72
     0
 73
     1
 74
     1
 75
     0
 76
     0
 77
     0
 78
     0
170
     0
171
     2
172
     0
173
     0
174
     0
175
     0
176
     0
177
     0
178
     0
  0
ENDTAB
  0
ENDSEC
  0
SECTION
  2
BLOCKS
  0
BLOCK
  8
0
  2
$MODEL_SPACE
 70
     0
 10
0.0
 20
0.0
 30
0.0
  3
$MODEL_SPACE
  1

  0
ENDBLK
  5
25A
  8
0
  0
BLOCK
 67
     1
  8
0
  2
$PAPER_SPACE
 70
     0
 10
0.0
 20
0.0
 30
0.0
  3
$PAPER_SPACE
  1

  0
ENDBLK
  5
258
 67
     1
  8
0
  0
ENDSEC
  0
SECTION
  2
ENTITIES
  0
ARC
  5
35
  8
0
 10
178.8137062036956
 20
151.5
 30
0.0
 40
10.0
 50
90.0
 51
162.11287012538489
  0
ARC
  5
36
  8
0
 10
245.430145616201
 20
130.0
 30
0.0
 40
80.000000000000014
 50
162.11287012538489
 51
168.4630409671847
  0
LINE
  5
37
  8
1
 10
160.43014561620291
 20
130.0
 30
0.0
 11
210.43014561620259
 21
130.0
 31
0.0
  0
ARC
  5
38
  8
0
 10
181.93014561620291
 20
159.0
 30
0.0
 40
2.5
 50
0.0
 51
90.0
  0
ARC
  5
39
  8
0
 10
181.93014561620291
 20
101.0
 30
0.0
 40
2.5
 50
270.0
 51
359.99999999999977
  0
ARC
  5
3A
  8
0
 10
178.81370620369751
 20
108.5
 30
0.0
 40
10.0
 50
197.88712987461511
 51
270.0
  0
LINE
  5
3B
  8
0
 10
186.43014561620291
 20
140.5
 30
0.0
 11
204.93014561620291
 21
140.5
 31
0.0
  0
LINE
  5
3C
  8
0
 10
186.43014561620291
 20
119.5
 30
0.0
 11
204.93014561620291
 21
119.5
 31
0.0
  0
LINE
  5
3D
  8
0
 10
205.43014561620291
 20
140.0
 30
0.0
 11
204.93014561620291
 21
140.5
 31
0.0
  0
LINE
  5
3E
  8
0
 10
205.43014561620291
 20
120.0
 30
0.0
 11
204.93014561620291
 21
119.5
 31
0.0
  0
LINE
  5
3F
  8
0
 10
184.43014561620291
 20
143.0
 30
0.0
 11
186.43014561620291
 21
143.0
 31
0.0
  0
LINE
  5
40
  8
0
 10
184.43014561620291
 20
117.0
 30
0.0
 11
186.43014561620291
 21
117.0
 31
0.0
  0
LINE
  5
41
  8
0
 10
178.8137062036956
 20
161.5
 30
0.0
 11
181.93014561620291
 21
161.5
 31
0.0
  0
LINE
  5
42
  8
0
 10
178.81370620369751
 20
98.500000000000014
 30
0.0
 11
181.93014561620291
 21
98.500000000000014
 31
0.0
  0
LINE
  5
43
  8
0
 10
205.43014561620291
 20
140.0
 30
0.0
 11
205.43014561620291
 21
120.0
 31
0.0
  0
LINE
  5
44
  8
0
 10
186.43014561620291
 20
143.0
 30
0.0
 11
186.43014561620291
 21
117.0
 31
0.0
  0
LINE
  5
45
  8
0
 10
184.43014561620291
 20
159.0
 30
0.0
 11
184.43014561620291
 21
100.99999618530271
 31
0.0
  0
ARC
  5
46
  8
0
 10
73.364322383778614
 20
130.0
 30
0.0
 40
31.5
 50
25.945698434540311
 51
34.054301565459681
  0
ARC
  5
47
  8
0
 10
121.3643223837786
 20
130.0
 30
0.0
 40
22.0
 50
153.5271172532523
 51
206.4728827467477
  0
ARC
  5
48
  8
0
 10
97.642968217111957
 20
141.81301640139239
 30
0.0
 40
4.5
 50
333.5271172532523
 51
25.945698434540311
  0
ARC
  5
49
  8
0
 10
97.642968217111928
 20
118.1869835986075
 30
0.0
 40
4.5
 50
334.05430156545958
 51
26.472882746747551
  0
ARC
  5
4A
  8
0
 10
73.364322383778614
 20
130.0
 30
0.0
 40
31.5
 50
325.9456984345403
 51
334.0543015654597
  0
ARC
  5
4B
  8
0
 10
97.364322383778585
 20
88.430780618346972
 30
0.0
 40
22.0
 50
93.527117253252257
 51
146.47288274674781
  0
ARC
  5
4C
  8
0
 10
95.734017599373345
 20
114.8805841395443
 30
0.0
 40
4.5
 50
273.5271172532523
 51
325.9456984345403
  0
ARC
  5
4D
  8
0
 10
75.273273001517197
 20
103.06756773815189
 30
0.0
 40
4.5
 50
274.05430156545958
 51
326.47288274674759
  0
ARC
  5
4E
  8
0
 10
73.364322383778614
 20
130.0
 30
0.0
 40
31.5
 50
265.9456984345403
 51
274.0543015654597
  0
ARC
  5
4F
  8
0
 10
49.364322383778607
 20
88.430780618346972
 30
0.0
 40
22.0
 50
33.527117253252278
 51
86.472882746747743
  0
ARC
  5
50
  8
0
 10
71.455371766040031
 20
103.06756773815189
 30
0.0
 40
4.5
 50
213.52711725325241
 51
265.9456984345403
  0
ARC
  5
51
  8
0
 10
50.994627168183882
 20
114.8805841395443
 30
0.0
 40
4.5
 50
214.0543015654597
 51
266.47288274674759
  0
ARC
  5
52
  8
0
 10
73.364322383778614
 20
130.0
 30
0.0
 40
31.5
 50
205.9456984345403
 51
214.0543015654597
  0
ARC
  5
53
  8
0
 10
25.364322383778632
 20
130.0
 30
0.0
 40
22.0
 50
333.5271172532523
 51
26.472882746747761
  0
ARC
  5
54
  8
0
 10
49.085676550445299
 20
118.1869835986075
 30
0.0
 40
4.5
 50
153.5271172532523
 51
205.9456984345403
  0
ARC
  5
55
  8
0
 10
49.085676550445299
 20
141.81301640139239
 30
0.0
 40
4.5
 50
154.0543015654597
 51
206.47288274674759
  0
ARC
  5
56
  8
0
 10
73.364322383778614
 20
130.0
 30
0.0
 40
31.5
 50
145.9456984345403
 51
154.0543015654597
  0
ARC
  5
57
  8
0
 10
49.364322383778642
 20
171.569219381653
 30
0.0
 40
22.0
 50
273.52711725325219
 51
326.4728827467477
  0
ARC
  5
58
  8
0
 10
50.994627168183882
 20
145.1194158604556
 30
0.0
 40
4.5
 50
93.527117253252328
 51
145.9456984345403
  0
ARC
  5
59
  8
0
 10
71.455371766040031
 20
156.93243226184811
 30
0.0
 40
4.5
 50
94.054301565459681
 51
146.47288274674759
  0
ARC
  5
5A
  8
0
 10
95.734017599373345
 20
145.1194158604556
 30
0.0
 40
4.5
 50
34.054301565459689
 51
86.472882746747587
  0
ARC
  5
5B
  8
0
 10
75.273273001517197
 20
156.93243226184811
 30
0.0
 40
4.5
 50
33.527117253252342
 51
85.945698434540304
  0
ARC
  5
5C
  8
0
 10
97.364322383778614
 20
171.569219381653
 30
0.0
 40
22.0
 50
213.5271172532523
 51
266.4728827467477
  0
CIRCLE
  5
5D
  8
0
 10
73.364322383778614
 20
130.0
 30
0.0
 40
16.0
  0
ARC
  5
5E
  8
0
 10
73.364322383778614
 20
130.0
 30
0.0
 40
31.5
 50
85.945698434540304
 51
94.054301565459681
  0
LINE
  5
5F
  8
1
 10
73.364322383778614
 20
166.5
 30
0.0
 11
73.364322383778614
 21
93.499999999999986
 31
0.0
  0
LINE
  5
60
  8
1
 10
36.8643223837786
 20
130.0
 30
0.0
 11
109.8643223837786
 21
130.0
 31
0.0
  0
LINE
  5
61
  8
1
 10
269.09399779028979
 20
130.0
 30
0.0
 11
342.0939977902899
 21
130.0
 31
0.0
  0
LINE
  5
62
  8
1
 10
305.5939977902899
 20
166.5
 30
0.0
 11
305.5939977902899
 21
93.499999999999986
 31
0.0
  0
ARC
  5
63
  8
0
 10
305.5939977902899
 20
130.0
 30
0.0
 40
31.5
 50
85.945698434540304
 51
94.054301565459681
  0
CIRCLE
  5
64
  8
0
 10
305.5939977902899
 20
130.0
 30
0.0
 40
13.0
  0
ARC
  5
65
  8
0
 10
329.5939977902899
 20
171.569219381653
 30
0.0
 40
22.0
 50
213.5271172532523
 51
266.4728827467477
  0
ARC
  5
66
  8
0
 10
307.50294840802849
 20
156.93243226184811
 30
0.0
 40
4.5
 50
33.527117253252342
 51
85.945698434540304
  0
ARC
  5
67
  8
0
 10
327.96369300588458
 20
145.1194158604556
 30
0.0
 40
4.5
 50
34.054301565459689
 51
86.472882746747587
  0
ARC
  5
68
  8
0
 10
303.68504717255132
 20
156.93243226184811
 30
0.0
 40
4.5
 50
94.054301565459681
 51
146.47288274674759
  0
ARC
  5
69
  8
0
 10
283.22430257469517
 20
145.1194158604556
 30
0.0
 40
4.5
 50
93.527117253252328
 51
145.9456984345403
  0
ARC
  5
6A
  8
0
 10
281.5939977902899
 20
171.569219381653
 30
0.0
 40
22.0
 50
273.52711725325219
 51
326.4728827467477
  0
ARC
  5
6B
  8
0
 10
305.5939977902899
 20
130.0
 30
0.0
 40
31.5
 50
145.9456984345403
 51
154.0543015654597
  0
ARC
  5
6C
  8
0
 10
281.31535195695659
 20
141.81301640139239
 30
0.0
 40
4.5
 50
154.0543015654597
 51
206.47288274674759
  0
ARC
  5
6D
  8
0
 10
281.31535195695659
 20
118.1869835986075
 30
0.0
 40
4.5
 50
153.5271172532523
 51
205.9456984345403
  0
ARC
  5
6E
  8
0
 10
257.5939977902899
 20
130.0
 30
0.0
 40
22.0
 50
333.5271172532523
 51
26.472882746747761
  0
ARC
  5
6F
  8
0
 10
305.5939977902899
 20
130.0
 30
0.0
 40
31.5
 50
205.9456984345403
 51
214.0543015654597
  0
ARC
  5
70
  8
0
 10
283.22430257469517
 20
114.8805841395443
 30
0.0
 40
4.5
 50
214.0543015654597
 51
266.47288274674759
  0
ARC
  5
71
  8
0
 10
303.68504717255132
 20
103.06756773815189
 30
0.0
 40
4.5
 50
213.52711725325241
 51
265.9456984345403
  0
ARC
  5
72
  8
0
 10
281.5939977902899
 20
88.430780618346972
 30
0.0
 40
22.0
 50
33.527117253252278
 51
86.472882746747743
  0
ARC
  5
73
  8
0
 10
305.5939977902899
 20
130.0
 30
0.0
 40
31.5
 50
265.9456984345403
 51
274.0543015654597
  0
ARC
  5
74
  8
0
 10
307.50294840802849
 20
103.06756773815189
 30
0.0
 40
4.5
 50
274.05430156545958
 51
326.47288274674759
  0
ARC
  5
75
  8
0
 10
327.96369300588458
 20
114.8805841395443
 30
0.0
 40
4.5
 50
273.5271172532523
 51
325.9456984345403
  0
ARC
  5
76
  8
0
 10
329.59399779028979
 20
88.430780618346972
 30
0.0
 40
22.0
 50
93.527117253252257
 51
146.47288274674781
  0
ARC
  5
77
  8
0
 10
305.5939977902899
 20
130.0
 30
0.0
 40
31.5
 50
325.9456984345403
 51
334.0543015654597
  0
ARC
  5
78
  8
0
 10
329.87264362362322
 20
118.1869835986075
 30
0.0
 40
4.5
 50
334.05430156545958
 51
26.472882746747551
  0
ARC
  5
79
  8
0
 10
329.87264362362322
 20
141.81301640139239
 30
0.0
 40
4.5
 50
333.5271172532523
 51
25.945698434540311
  0
ARC
  5
7A
  8
0
 10
353.5939977902899
 20
130.0
 30
0.0
 40
22.0
 50
153.5271172532523
 51
206.4728827467477
  0
ARC
  5
7B
  8
0
 10
305.5939977902899
 20
130.0
 30
0.0
 40
31.5
 50
25.945698434540311
 51
34.054301565459681
  0
CIRCLE
  5
7C
  8
0
 10
305.5939977902899
 20
130.0
 30
0.0
 40
10.5
  0
ARC
  5
7D
  8
0
 10
305.5939977902899
 20
130.0
 30
0.0
 40
27.5
 50
325.9456984345403
 51
334.0543015654597
  0
ARC
  5
7E
  8
0
 10
329.59399779028979
 20
88.430780618346972
 30
0.0
 40
26.0
 50
93.527117253252257
 51
146.47288274674781
  0
ARC
  5
7F
  8
0
 10
353.5939977902899
 20
130.0
 30
0.0
 40
26.0
 50
153.5271172532523
 51
206.4728827467477
  0
ARC
  5
80
  8
0
 10
329.5939977902899
 20
171.569219381653
 30
0.0
 40
26.0
 50
213.5271172532523
 51
266.4728827467477
  0
ARC
  5
81
  8
0
 10
305.5939977902899
 20
130.0
 30
0.0
 40
27.5
 50
25.945698434540311
 51
34.054301565459681
  0
ARC
  5
82
  8
0
 10
305.5939977902899
 20
130.0
 30
0.0
 40
27.5
 50
85.945698434540304
 51
94.054301565459681
  0
ARC
  5
83
  8
0
 10
281.5939977902899
 20
171.569219381653
 30
0.0
 40
26.0
 50
273.52711725325219
 51
326.4728827467477
  0
ARC
  5
84
  8
0
 10
305.5939977902899
 20
130.0
 30
0.0
 40
27.5
 50
145.9456984345403
 51
154.0543015654597
  0
ARC
  5
85
  8
0
 10
257.5939977902899
 20
130.0
 30
0.0
 40
26.0
 50
333.5271172532523
 51
26.472882746747761
  0
ARC
  5
86
  8
0
 10
305.5939977902899
 20
130.0
 30
0.0
 40
27.5
 50
205.9456984345403
 51
214.0543015654597
  0
ARC
  5
87
  8
0
 10
281.5939977902899
 20
88.430780618346972
 30
0.0
 40
26.0
 50
33.527117253252278
 51
86.472882746747743
  0
ARC
  5
88
  8
0
 10
305.5939977902899
 20
130.0
 30
0.0
 40
27.5
 50
265.9456984345403
 51
274.0543015654597
  0
ARC
  5
89
  8
0
 10
307.50294840802849
 20
103.06756773815189
 30
0.0
 40
0.5
 50
274.05430156545958
 51
326.47288274674759
  0
ARC
  5
8A
  8
0
 10
303.68504717255132
 20
103.06756773815189
 30
0.0
 40
0.5
 50
213.52711725325241
 51
265.9456984345403
  0
ARC
  5
8B
  8
0
 10
327.96369300588458
 20
114.8805841395443
 30
0.0
 40
0.5
 50
273.5271172532523
 51
325.9456984345403
  0
ARC
  5
8C
  8
0
 10
329.87264362362322
 20
118.1869835986075
 30
0.0
 40
0.5
 50
334.05430156545958
 51
26.472882746747551
  0
ARC
  5
8D
  8
0
 10
329.87264362362322
 20
141.81301640139239
 30
0.0
 40
0.5
 50
333.5271172532523
 51
25.945698434540311
  0
ARC
  5
8E
  8
0
 10
327.96369300588458
 20
145.1194158604556
 30
0.0
 40
0.5
 50
34.054301565459689
 51
86.472882746747587
  0
ARC
  5
8F
  8
0
 10
307.50294840802849
 20
156.93243226184811
 30
0.0
 40
0.5
 50
33.527117253252342
 51
85.945698434540304
  0
ARC
  5
90
  8
0
 10
303.68504717255132
 20
156.93243226184811
 30
0.0
 40
0.5
 50
94.054301565459681
 51
146.47288274674759
  0
ARC
  5
91
  8
0
 10
283.22430257469517
 20
145.1194158604556
 30
0.0
 40
0.5
 50
93.527117253252328
 51
145.9456984345403
  0
ARC
  5
92
  8
0
 10
281.31535195695659
 20
141.81301640139239
 30
0.0
 40
0.5
 50
154.0543015654597
 51
206.47288274674759
  0
ARC
  5
93
  8
0
 10
281.31535195695659
 20
118.1869835986075
 30
0.0
 40
0.5
 50
153.5271172532523
 51
205.9456984345403
  0
ARC
  5
94
  8
0
 10
283.22430257469517
 20
114.8805841395443
 30
0.0
 40
0.5
 50
214.0543015654597
 51
266.47288274674759
  0
TEXT
  5
95
  8
0
 10
293.18811946480861
 20
117.5152590992758
 30
0.0
 40
2.5
  1
EK-63
 50
330.0
 41
0.7
  7
K70
 72
     1
 11
297.04914939001418
 21
115.2860924326091
 31
0.0
  0
LINE
  5
96
  8
0
 10
204.93014561620291
 20
140.5
 30
0.0
 11
204.93014561620291
 21
119.5
 31
0.0
  0
CIRCLE
  5
97
  8
0
 10
305.5939977902899
 20
130.0
 30
0.0
 40
10.00000000000008
  0
LINE
  5
A1
  8
0
 10
178.81370620369751
 20
110.4204020817654
 30
0.0
 11
181.93014561620291
 21
110.4204020817654
 31
0.0
  0
LINE
  5
A2
  8
0
 10
178.81370620369751
 20
118.42003038245269
 30
0.0
 11
181.93014561620291
 21
118.42003038245269
 31
0.0
  0
LINE
  5
A3
  8
0
 10
171.89274016836109
 20
112.360681496135
 30
0.0
 11
171.89274016836109
 21
116.21814753170879
 31
0.0
  0
POLYLINE
  5
A4
  8
0
 66
     1
 10
0.0
 20
0.0
 30
0.0
  0
VERTEX
  5
A5
  8
0
 10
171.8927401683612
 20
112.3606814961351
 30
0.0
 42
0.248906616957514
  0
VERTEX
  5
A6
  8
0
 10
172.1968757838051
 20
111.7875889690294
 30
0.0
 42
0.0805906898030546
  0
VERTEX
  5
A7
  8
0
 10
173.91984418774939
 20
110.9886967648376
 30
0.0
 42
0.0394517609840131
 70
     2
 50
344.3392625615478
  0
VERTEX
  5
A8
  8
0
 10
175.96958208426531
 20
110.5849845912833
 30
0.0
 42
0.0289095957764304
 50
344.3392625615478
  0
VERTEX
  5
A9
  8
0
 10
178.81370620369751
 20
110.4204020817654
 30
0.0
 42
0.0289095957764235
  0
SEQEND
  5
AA
  8
0
  0
POLYLINE
  5
AB
  8
0
 66
     1
 10
0.0
 20
0.0
 30
0.0
  0
VERTEX
  5
AC
  8
0
 10
178.81370620369751
 20
118.42003038245269
 30
0.0
 42
0.0327681479095555
  0
VERTEX
  5
AD
  8
0
 10
175.97585112978771
 20
118.23384795917769
 30
0.0
 42
0.044277708641851
  0
VERTEX
  5
AE
  8
0
 10
173.91984418774939
 20
117.7751138268482
 30
0.0
 42
0.0869550885288958
 70
     2
 50
197.64829965678641
  0
VERTEX
  5
AF
  8
0
 10
172.1462248448787
 20
116.8483760293162
 30
0.0
 42
0.2732177268175035
 50
197.64829965678641
  0
VERTEX
  5
B0
  8
0
 10
171.89274016836109
 20
116.21814753170879
 30
0.0
 42
0.2330433777091375
  0
SEQEND
  5
B1
  8
0
  0
POLYLINE
  5
B2
  8
0
 66
     1
 10
0.0
 20
0.0
 30
0.0
  0
VERTEX
  5
B3
  8
0
 10
184.43014561620279
 20
116.21814753170879
 30
0.0
 42
0.1103451791911952
  0
VERTEX
  5
B4
  8
0
 10
184.24506583926791
 20
117.0465762681102
 30
0.0
 42
0.1026368727368505
  0
VERTEX
  5
B5
  8
0
 10
183.6979125691692
 20
117.7751138268482
 30
0.0
 42
0.0933354288985482
 70
     2
 50
138.62791279041119
  0
VERTEX
  5
B6
  8
0
 10
182.90090524056831
 20
118.24848385834891
 30
0.0
 42
0.0876776181929673
 50
138.62791279041119
  0
VERTEX
  5
B7
  8
0
 10
181.93014561620291
 20
118.42003038245269
 30
0.0
 42
0.0876776181929722
  0
SEQEND
  5
B8
  8
0
  0
POLYLINE
  5
B9
  8
0
 66
     1
 10
0.0
 20
0.0
 30
0.0
  0
VERTEX
  5
BA
  8
0
 10
181.93014561620291
 20
110.4204020817654
 30
0.0
 42
0.0779174314732457
  0
VERTEX
  5
BB
  8
0
 10
182.91290184664331
 20
110.5744852224269
 30
0.0
 42
0.0874627521634284
  0
VERTEX
  5
BC
  8
0
 10
183.6979125691692
 20
110.9886967648376
 30
0.0
 42
0.105525748830314
 70
     2
 50
37.815459521178582
  0
VERTEX
  5
BD
  8
0
 10
184.2919676574316
 20
111.6932417189976
 30
0.0
 42
0.1440351077177334
 50
37.815459521178582
  0
VERTEX
  5
BE
  8
0
 10
184.43014561620279
 20
112.360681496135
 30
0.0
 42
0.1231787540570669
  0
SEQEND
  5
BF
  8
0
  0
ARC
  5
C0
  8
0
 10
194.82103021230739
 20
129.99999999999989
 30
0.0
 40
24.937609558355529
 50
156.842330879808
 51
203.1576691201918
  0
POLYLINE
  5
C1
  8
0
 66
     1
 10
0.0
 20
0.0
 30
0.0
  0
VERTEX
  5
C2
  8
0
 10
171.8927401683612
 20
110.389108069907
 30
0.0
 42
0.1357481196869982
  0
VERTEX
  5
C3
  8
0
 10
171.16586361076321
 20
110.1880589753865
 30
0.0
 42
0.1069320115053184
  0
VERTEX
  5
C4
  8
0
 10
170.47193671415189
 20
109.53802816081
 30
0.0
 42
0.0816901095350843
 70
     2
 50
235.33640125083221
  0
VERTEX
  5
C5
  8
0
 10
169.99930203181819
 20
108.53921511808259
 30
0.0
 42
0.0850269427588665
 50
235.33640125083221
  0
VERTEX
  5
C6
  8
0
 10
169.88342065395219
 20
107.4833395016046
 30
0.0
 42
0.0698526433688827
  0
SEQEND
  5
C7
  8
0
  0
POLYLINE
  5
C8
  8
0
 66
     1
 10
0.0
 20
0.0
 30
0.0
  0
VERTEX
  5
C9
  8
0
 10
169.88342065395179
 20
107.4833395016046
 30
0.0
 42
0.0300139195678638
  0
VERTEX
  5
CA
  8
0
 10
170.05371162362499
 20
104.64902848867359
 30
0.0
 42
0.0277295176527378
  0
VERTEX
  5
CB
  8
0
 10
170.30136207590701
 20
103.25214353758891
 30
0.0
 42
0.0825246401338456
 70
     2
 50
286.23304543798429
  0
SEQEND
  5
CC
  8
0
  0
POLYLINE
  5
CD
  8
0
 66
     1
 10
0.0
 20
0.0
 30
0.0
  0
VERTEX
  5
CE
  8
0
 10
181.93014561620291
 20
149.57959791823461
 30
0.0
 42
-0.0779174314732457
  0
VERTEX
  5
CF
  8
0
 10
182.91290184664331
 20
149.425514777573
 30
0.0
 42
-0.0874627521634284
  0
VERTEX
  5
D0
  8
0
 10
183.6979125691692
 20
149.01130323516239
 30
0.0
 42
-0.105525748830314
 70
     2
 50
322.18454047882142
  0
VERTEX
  5
D1
  8
0
 10
184.2919676574316
 20
148.30675828100229
 30
0.0
 42
-0.1440351077177334
  0
VERTEX
  5
D2
  8
0
 10
184.43014561620279
 20
147.6393185038649
 30
0.0
 42
-0.1231787540570669
  0
SEQEND
  5
D3
  8
0
  0
POLYLINE
  5
D4
  8
0
 66
     1
 10
0.0
 20
0.0
 30
0.0
  0
VERTEX
  5
D5
  8
0
 10
184.43014561620279
 20
143.78185246829119
 30
0.0
 42
-0.1103451791911952
  0
VERTEX
  5
D6
  8
0
 10
184.24506583926791
 20
142.9534237318897
 30
0.0
 42
-0.1026368727368505
  0
VERTEX
  5
D7
  8
0
 10
183.6979125691692
 20
142.22488617315179
 30
0.0
 42
-0.0933354288985482
 70
     2
 50
221.3720872095887
  0
VERTEX
  5
D8
  8
0
 10
182.90090524056831
 20
141.751516141651
 30
0.0
 42
-0.0876776181929673
  0
VERTEX
  5
D9
  8
0
 10
181.93014561620291
 20
141.57996961754719
 30
0.0
 42
-0.0876776181929722
  0
SEQEND
  5
DA
  8
0
  0
POLYLINE
  5
DB
  8
0
 66
     1
 10
0.0
 20
0.0
 30
0.0
  0
VERTEX
  5
DC
  8
0
 10
178.81370620369751
 20
141.57996961754719
 30
0.0
 42
-0.0327681479095555
  0
VERTEX
  5
DD
  8
0
 10
175.97585112978771
 20
141.76615204082231
 30
0.0
 42
-0.044277708641851
  0
VERTEX
  5
DE
  8
0
 10
173.91984418774939
 20
142.22488617315179
 30
0.0
 42
-0.0869550885288958
 70
     2
 50
162.35170034321359
  0
VERTEX
  5
DF
  8
0
 10
172.1462248448787
 20
143.15162397068369
 30
0.0
 42
-0.2732177268175035
  0
VERTEX
  5
E0
  8
0
 10
171.89274016836109
 20
143.78185246829111
 30
0.0
 42
-0.2330433777091375
  0
SEQEND
  5
E1
  8
0
  0
POLYLINE
  5
E2
  8
0
 66
     1
 10
0.0
 20
0.0
 30
0.0
  0
VERTEX
  5
E3
  8
0
 10
171.8927401683612
 20
147.6393185038649
 30
0.0
 42
-0.248906616957514
  0
VERTEX
  5
E4
  8
0
 10
172.1968757838051
 20
148.21241103097049
 30
0.0
 42
-0.0805906898030546
  0
VERTEX
  5
E5
  8
0
 10
173.91984418774939
 20
149.0113032351623
 30
0.0
 42
-0.0394517609840131
 70
     2
 50
15.660737438452211
  0
VERTEX
  5
E6
  8
0
 10
175.96958208426531
 20
149.4150154087167
 30
0.0
 42
-0.0289095957764304
  0
VERTEX
  5
E7
  8
0
 10
178.81370620369751
 20
149.57959791823461
 30
0.0
 42
-0.0289095957764235
  0
SEQEND
  5
E8
  8
0
  0
LINE
  5
E9
  8
0
 10
171.89274016836109
 20
147.6393185038649
 30
0.0
 11
171.89274016836109
 21
143.78185246829111
 31
0.0
  0
LINE
  5
EA
  8
0
 10
178.81370620369751
 20
141.57996961754719
 30
0.0
 11
181.93014561620291
 21
141.57996961754719
 31
0.0
  0
LINE
  5
EB
  8
0
 10
178.81370620369751
 20
149.57959791823461
 30
0.0
 11
181.93014561620291
 21
149.57959791823461
 31
0.0
  0
POLYLINE
  5
EC
  8
0
 66
     1
 10
0.0
 20
0.0
 30
0.0
  0
VERTEX
  5
ED
  8
0
 10
171.8927401683612
 20
149.61089193009289
 30
0.0
 42
-0.1357481196869982
  0
VERTEX
  5
EE
  8
0
 10
171.16586361076321
 20
149.81194102461339
 30
0.0
 42
-0.1069320115053184
  0
VERTEX
  5
EF
  8
0
 10
170.47193671415189
 20
150.46197183919
 30
0.0
 42
-0.0816901095350843
 70
     2
 50
124.6635987491677
  0
VERTEX
  5
F0
  8
0
 10
169.99930203181819
 20
151.46078488191731
 30
0.0
 42
-0.0850269427588665
  0
VERTEX
  5
F1
  8
0
 10
169.88342065395219
 20
152.5166604983954
 30
0.0
 42
-0.0698526433688827
  0
SEQEND
  5
F2
  8
0
  0
POLYLINE
  5
F3
  8
0
 66
     1
 10
0.0
 20
0.0
 30
0.0
  0
VERTEX
  5
F4
  8
0
 10
169.88342065395179
 20
152.5166604983954
 30
0.0
 42
-0.0300139195678638
  0
VERTEX
  5
F5
  8
0
 10
170.05371162362499
 20
155.35097151132641
 30
0.0
 42
-0.0277295176527378
  0
VERTEX
  5
F6
  8
0
 10
170.30136207590701
 20
156.74785646241099
 30
0.0
 42
-0.0825246401338456
 70
     2
 50
73.766954562015727
  0
SEQEND
  5
F7
  8
0
  0
LINE
  5
F8
  8
0
 10
167.04647384713931
 20
114.0
 30
0.0
 11
167.04647384713931
 21
145.9999999999998
 31
0.0
  0
ARC
  5
F9
  8
0
 10
245.430145616201
 20
130.0
 30
0.0
 40
79.000000000000014
 50
172.83835367085251
 51
187.16164632914749
  0
ARC
  5
FA
  8
0
 10
245.430145616201
 20
130.0
 30
0.0
 40
80.000000000000014
 50
191.5369590328153
 51
197.88712987461511
  0
LINE
  5
FB
  8
1
 10
160.43014561620291
 20
49.376210003291114
 30
0.0
 11
210.43014561620251
 21
49.376210003291099
 31
0.0
  0
LINE
  5
FC
  8
0
 10
186.43014561620291
 20
59.876210003291099
 30
0.0
 11
204.93014561620291
 21
59.876210003291099
 31
0.0
  0
LINE
  5
FD
  8
0
 10
186.43014561620291
 20
38.876210003291142
 30
0.0
 11
204.93014561620291
 21
38.876210003291114
 31
0.0
  0
LINE
  5
FE
  8
0
 10
205.43014561620291
 20
59.376210003291099
 30
0.0
 11
204.93014561620291
 21
59.876210003291099
 31
0.0
  0
LINE
  5
FF
  8
0
 10
205.43014561620291
 20
39.376210003291114
 30
0.0
 11
204.93014561620291
 21
38.876210003291114
 31
0.0
  0
LINE
  5
100
  8
0
 10
184.43014561620291
 20
62.376210003291099
 30
0.0
 11
186.43014561620291
 21
62.376210003291099
 31
0.0
  0
LINE
  5
101
  8
0
 10
184.43014561620291
 20
36.376210003291114
 30
0.0
 11
186.43014561620291
 21
36.376210003291114
 31
0.0
  0
LINE
  5
102
  8
0
 10
205.43014561620291
 20
59.376210003291099
 30
0.0
 11
205.43014561620291
 21
39.376210003291114
 31
0.0
  0
LINE
  5
103
  8
0
 10
186.43014561620291
 20
62.376210003291099
 30
0.0
 11
186.43014561620291
 21
36.376210003291114
 31
0.0
  0
LINE
  5
104
  8
0
 10
204.93014561620291
 20
59.876210003291099
 30
0.0
 11
204.93014561620291
 21
38.876210003291114
 31
0.0
  0
ARC
  5
105
  8
0
 10
245.430145616201
 20
49.376210003291099
 30
0.0
 40
80.000000000000014
 50
162.11287012538489
 51
168.4630409671847
  0
LINE
  5
106
  8
0
 10
167.0464738471392
 20
33.376210003291114
 30
0.0
 11
167.04647384713931
 21
65.376210003290879
 31
0.0
  0
ARC
  5
107
  8
0
 10
245.430145616201
 20
49.376210003291099
 30
0.0
 40
79.000000000000014
 50
172.83835367085251
 51
187.16164632914749
  0
ARC
  5
108
  8
0
 10
178.8137062036956
 20
70.876210003291106
 30
0.0
 40
10.0
 50
134.73905163632821
 51
162.11287012538489
  0
LINE
  5
109
  8
0
 10
184.43014561620279
 20
77.701296808846621
 30
0.0
 11
184.43014561620279
 21
21.051123197735599
 31
0.0
  0
LINE
  5
10A
  8
0
 10
178.81370620369751
 20
78.670480836624435
 30
0.0
 11
181.93014561620279
 21
78.670480836624435
 31
0.0
  0
LINE
  5
10B
  8
0
 10
178.81370620369751
 20
74.05189328380564
 30
0.0
 11
181.93014561620291
 21
74.05189328380564
 31
0.0
  0
LINE
  5
10C
  8
0
 10
178.81370620369751
 20
53.994797556109887
 30
0.0
 11
181.93014561620291
 21
53.994797556109887
 31
0.0
  0
LINE
  5
10D
  8
0
 10
171.89274016836109
 20
75.474187754818274
 30
0.0
 11
171.89274016836109
 21
77.701296808846635
 31
0.0
  0
LINE
  5
10E
  8
0
 10
171.89274016836109
 20
51.60331905731946
 30
0.0
 11
171.89274016836109
 21
47.149100949262781
 31
0.0
  0
POLYLINE
  5
10F
  8
0
 66
     1
 10
0.0
 20
0.0
 30
0.0
  0
VERTEX
  5
110
  8
0
 10
184.43014561620291
 20
51.603319057319453
 30
0.0
 42
0.1025157588903996
 50
90.0
  0
VERTEX
  5
111
  8
0
 10
184.2415820265424
 20
52.513334679556358
 30
0.0
 42
0.1000682342388718
 50
90.0
  0
VERTEX
  5
112
  8
0
 10
183.6979125691692
 20
53.294349720875999
 30
0.0
 42
0.0967908503699837
 70
     2
 50
136.27094581894889
  0
VERTEX
  5
113
  8
0
 10
182.8919988701102
 20
53.811182773333847
 30
0.0
 42
0.0945943572934223
 50
136.27094581894889
  0
VERTEX
  5
114
  8
0
 10
181.93014561620279
 20
53.994797556109887
 30
0.0
 42
0.0945943572934384
 50
90.0
  0
SEQEND
  5
115
  8
0
  0
POLYLINE
  5
116
  8
0
 66
     1
 10
0.0
 20
0.0
 30
0.0
  0
VERTEX
  5
117
  8
0
 10
178.81370620369751
 20
53.994797556109887
 30
0.0
 42
0.0355555504347376
 50
90.0
  0
VERTEX
  5
118
  8
0
 10
175.98081450229009
 20
53.7930925136356
 30
0.0
 42
0.0476697435424328
 50
90.0
  0
VERTEX
  5
119
  8
0
 10
173.91984418774931
 20
53.294349720875992
 30
0.0
 42
0.0908886465964663
 70
     2
 50
199.06213695801941
  0
VERTEX
  5
11A
  8
0
 10
172.16108054627361
 20
52.301368022718179
 30
0.0
 42
0.2598962313887226
 50
199.06213695801941
  0
VERTEX
  5
11B
  8
0
 10
171.89274016836171
 20
51.60331905731946
 30
0.0
 42
0.2224491750543853
 50
90.0
  0
SEQEND
  5
11C
  8
0
  0
POLYLINE
  5
11D
  8
0
 66
     1
 10
0.0
 20
0.0
 30
0.0
  0
VERTEX
  5
11E
  8
0
 10
178.81370620369751
 20
44.757622450472319
 30
0.0
 42
-0.0355555504347376
 50
90.0
  0
VERTEX
  5
11F
  8
0
 10
175.98081450229009
 20
44.959327492946613
 30
0.0
 42
-0.0476697435424328
 50
90.0
  0
VERTEX
  5
120
  8
0
 10
173.91984418774931
 20
45.458070285706242
 30
0.0
 42
-0.0908886465964663
 70
     2
 50
160.93786304198059
  0
VERTEX
  5
121
  8
0
 10
172.16108054627361
 20
46.451051983864041
 30
0.0
 42
-0.2598962313887226
 50
90.0
  0
VERTEX
  5
122
  8
0
 10
171.89274016836171
 20
47.149100949262767
 30
0.0
 42
-0.2224491750543853
 50
90.0
  0
SEQEND
  5
123
  8
0
  0
LINE
  5
124
  8
0
 10
178.81370620369751
 20
44.757622450472319
 30
0.0
 11
181.93014561620291
 21
44.757622450472319
 31
0.0
  0
POLYLINE
  5
125
  8
0
 66
     1
 10
0.0
 20
0.0
 30
0.0
  0
VERTEX
  5
126
  8
0
 10
184.43014561620291
 20
47.14910094926276
 30
0.0
 42
-0.1025157588903996
 50
90.0
  0
VERTEX
  5
127
  8
0
 10
184.2415820265424
 20
46.239085327025848
 30
0.0
 42
-0.1000682342388718
 50
90.0
  0
VERTEX
  5
128
  8
0
 10
183.6979125691692
 20
45.458070285706206
 30
0.0
 42
-0.0967908503699837
 70
     2
 50
223.7290541810512
  0
VERTEX
  5
129
  8
0
 10
182.8919988701102
 20
44.941237233248351
 30
0.0
 42
-0.0945943572934223
 50
90.0
  0
VERTEX
  5
12A
  8
0
 10
181.93014561620279
 20
44.757622450472319
 30
0.0
 42
-0.0945943572934384
 50
90.0
  0
SEQEND
  5
12B
  8
0
  0
POLYLINE
  5
12C
  8
0
 66
     1
 10
0.0
 20
0.0
 30
0.0
  0
VERTEX
  5
12D
  8
0
 10
171.89274016836109
 20
75.474187754818317
 30
0.0
 42
0.2849162417363825
 50
90.0
  0
VERTEX
  5
12E
  8
0
 10
172.13539807616411
 20
75.082915566884381
 30
0.0
 42
0.0645560052243928
 50
90.0
  0
VERTEX
  5
12F
  8
0
 10
173.91984418774931
 20
74.468473689521133
 30
0.0
 42
0.0294497691951512
 70
     2
 50
348.38709840300982
  0
VERTEX
  5
130
  8
0
 10
176.26908517142161
 20
74.128302840967237
 30
0.0
 42
0.0274566347316368
 50
348.38709840300982
  0
VERTEX
  5
131
  8
0
 10
178.81370620369751
 20
74.05189328380564
 30
0.0
 42
0.0212327722727789
 50
90.0
  0
SEQEND
  5
132
  8
0
  0
POLYLINE
  5
133
  8
0
 66
     1
 10
0.0
 20
0.0
 30
0.0
  0
VERTEX
  5
134
  8
0
 10
178.81370620369751
 20
78.670480836624435
 30
0.0
 42
0.0144859795679636
 50
90.0
  0
VERTEX
  5
135
  8
0
 10
175.95272490846091
 20
78.587575206233936
 30
0.0
 42
0.0203006207507405
 50
90.0
  0
VERTEX
  5
136
  8
0
 10
173.91984418774939
 20
78.38661340710604
 30
0.0
 42
0.0467545933818674
 70
     2
 50
187.97163036166751
  0
VERTEX
  5
137
  8
0
 10
172.0701056883193
 20
77.948487374509895
 30
0.0
 42
0.3216464155858821
 50
187.97163036166751
  0
VERTEX
  5
138
  8
0
 10
171.89274016836109
 20
77.701296808846664
 30
0.0
 42
0.3216464155858657
 50
90.0
  0
SEQEND
  5
139
  8
0
  0
POLYLINE
  5
13A
  8
0
 66
     1
 10
0.0
 20
0.0
 30
0.0
  0
VERTEX
  5
13B
  8
0
 10
184.43014561620291
 20
77.701296808846635
 30
0.0
 42
0.2075251901849011
 50
90.0
  0
VERTEX
  5
13C
  8
0
 10
184.29590080568011
 20
78.0108094246756
 30
0.0
 42
0.0959120267712997
 50
90.0
  0
VERTEX
  5
13D
  8
0
 10
183.6979125691692
 20
78.386613407106026
 30
0.0
 42
0.0527024173364597
 70
     2
 50
158.81000245554301
  0
VERTEX
  5
13E
  8
0
 10
182.84896565974049
 20
78.616572462655441
 30
0.0
 42
0.0503506269741292
 50
158.81000245554301
  0
VERTEX
  5
13F
  8
0
 10
181.93014561620279
 20
78.670480836624435
 30
0.0
 42
0.0398261387055096
 50
90.0
  0
SEQEND
  5
140
  8
0
  0
POLYLINE
  5
141
  8
0
 66
     1
 10
0.0
 20
0.0
 30
0.0
  0
VERTEX
  5
142
  8
0
 10
181.93014561620291
 20
74.05189328380564
 30
0.0
 42
0.0579224304399028
 50
90.0
  0
VERTEX
  5
143
  8
0
 10
182.93478682488441
 20
74.168667583563291
 30
0.0
 42
0.0715769081525948
 50
90.0
  0
VERTEX
  5
144
  8
0
 10
183.6979125691692
 20
74.468473689521119
 30
0.0
 42
0.1064558444960413
 70
     2
 50
29.63631775778201
  0
VERTEX
  5
145
  8
0
 10
184.30392437228761
 20
75.010110720441716
 30
0.0
 42
0.1839123653059275
 50
29.63631775778201
  0
VERTEX
  5
146
  8
0
 10
184.43014561620291
 20
75.474187754818288
 30
0.0
 42
0.1586409376496414
 50
90.0
  0
SEQEND
  5
147
  8
0
  0
POLYLINE
  5
148
  8
0
 66
     1
 10
0.0
 20
0.0
 30
0.0
  0
VERTEX
  5
149
  8
0
 10
178.81370620369751
 20
78.670480836624435
 30
0.0
 42
0.0137188291723675
 50
90.0
  0
VERTEX
  5
14A
  8
0
 10
175.79178705505831
 20
78.587550843533677
 30
0.0
 42
0.0192435017349832
 50
90.0
  0
VERTEX
  5
14B
  8
0
 10
173.64562193113289
 20
78.386613407106012
 30
0.0
 42
0.0412706473527352
 70
     2
 50
187.5536682764203
  0
VERTEX
  5
14C
  8
0
 10
171.77491614533861
 20
77.979408896351515
 30
0.0
 42
0.402778744963994
 50
187.5536682764203
  0
SEQEND
  5
14D
  8
0
  0
POLYLINE
  5
14E
  8
0
 66
     1
 10
0.0
 20
0.0
 30
0.0
  0
VERTEX
  5
14F
  8
0
 10
169.8834206539517
 20
62.376210003291071
 30
0.0
 42
0.0282355940511584
 50
90.0
  0
VERTEX
  5
150
  8
0
 10
170.0539470980998
 20
59.358910423171103
 30
0.0
 42
0.0385940712468606
 50
90.0
  0
VERTEX
  5
151
  8
0
 10
170.47193671415181
 20
57.186230706610033
 30
0.0
 42
0.0793651049633746
 70
     2
 50
285.31012451247312
  0
VERTEX
  5
152
  8
0
 10
171.33749014256551
 20
55.27685976006552
 30
0.0
 42
0.2974399064867994
 50
285.31012451247312
  0
VERTEX
  5
153
  8
0
 10
171.89274016836109
 20
55.03647089348916
 30
0.0
 42
0.2518264820252841
 50
90.0
  0
SEQEND
  5
154
  8
0
  0
POLYLINE
  5
155
  8
0
 66
     1
 10
0.0
 20
0.0
 30
0.0
  0
VERTEX
  5
156
  8
0
 10
171.89274016836109
 20
72.022749427558423
 30
0.0
 42
0.2834601796409964
 50
90.0
  0
VERTEX
  5
157
  8
0
 10
171.33835478824639
 20
71.680997405296182
 30
0.0
 42
0.0652374559038068
 50
90.0
  0
VERTEX
  5
158
  8
0
 10
170.47193671415181
 20
69.197343445173885
 30
0.0
 42
0.0298320467326153
 70
     2
 50
258.23385257792228
  0
VERTEX
  5
159
  8
0
 10
170.05471341759309
 20
66.354287219664045
 30
0.0
 42
0.0215196223769099
 50
258.23385257792228
  0
VERTEX
  5
15A
  8
0
 10
169.8834206539517
 20
62.376210003291071
 30
0.0
 42
0.0215196223769082
 50
90.0
  0
SEQEND
  5
15B
  8
0
  0
POLYLINE
  5
15C
  8
0
 66
     1
 10
0.0
 20
0.0
 30
0.0
  0
VERTEX
  5
15D
  8
0
 10
178.81370620369751
 20
20.081939169957781
 30
0.0
 42
-0.0137188291723675
 50
90.0
  0
VERTEX
  5
15E
  8
0
 10
175.79178705505831
 20
20.164869163048539
 30
0.0
 42
-0.0192435017349832
 50
90.0
  0
VERTEX
  5
15F
  8
0
 10
173.64562193113281
 20
20.365806599476201
 30
0.0
 42
-0.0412706473527352
 70
     2
 50
172.4463317235797
  0
VERTEX
  5
160
  8
0
 10
171.77491614533861
 20
20.773011110230701
 30
0.0
 42
-0.402778744963994
 50
90.0
  0
SEQEND
  5
161
  8
0
  0
POLYLINE
  5
162
  8
0
 66
     1
 10
0.0
 20
0.0
 30
0.0
  0
VERTEX
  5
163
  8
0
 10
181.93014561620291
 20
24.70052672277658
 30
0.0
 42
-0.0579224304399028
 50
90.0
  0
VERTEX
  5
164
  8
0
 10
182.93478682488441
 20
24.583752423018922
 30
0.0
 42
-0.0715769081525948
 50
90.0
  0
VERTEX
  5
165
  8
0
 10
183.6979125691692
 20
24.283946317061101
 30
0.0
 42
-0.1064558444960413
 70
     2
 50
330.36368224221798
  0
VERTEX
  5
166
  8
0
 10
184.30392437228761
 20
23.7423092861405
 30
0.0
 42
-0.1839123653059275
 50
90.0
  0
VERTEX
  5
167
  8
0
 10
184.43014561620291
 20
23.278232251763932
 30
0.0
 42
-0.1586409376496414
 50
90.0
  0
SEQEND
  5
168
  8
0
  0
POLYLINE
  5
169
  8
0
 66
     1
 10
0.0
 20
0.0
 30
0.0
  0
VERTEX
  5
16A
  8
0
 10
184.43014561620291
 20
21.051123197735571
 30
0.0
 42
-0.2075251901849011
 50
90.0
  0
VERTEX
  5
16B
  8
0
 10
184.29590080568011
 20
20.74161058190662
 30
0.0
 42
-0.0959120267712997
 50
90.0
  0
VERTEX
  5
16C
  8
0
 10
183.6979125691692
 20
20.365806599476191
 30
0.0
 42
-0.0527024173364597
 70
     2
 50
201.1899975444569
  0
VERTEX
  5
16D
  8
0
 10
182.84896565974049
 20
20.135847543926769
 30
0.0
 42
-0.0503506269741292
 50
90.0
  0
VERTEX
  5
16E
  8
0
 10
181.93014561620279
 20
20.081939169957781
 30
0.0
 42
-0.0398261387055096
 50
90.0
  0
SEQEND
  5
16F
  8
0
  0
POLYLINE
  5
170
  8
0
 66
     1
 10
0.0
 20
0.0
 30
0.0
  0
VERTEX
  5
171
  8
0
 10
178.81370620369751
 20
20.081939169957781
 30
0.0
 42
-0.0144859795679636
 50
90.0
  0
VERTEX
  5
172
  8
0
 10
175.95272490846091
 20
20.164844800348281
 30
0.0
 42
-0.0203006207507405
 50
90.0
  0
VERTEX
  5
173
  8
0
 10
173.91984418774939
 20
20.36580659947618
 30
0.0
 42
-0.0467545933818674
 70
     2
 50
172.02836963833249
  0
VERTEX
  5
174
  8
0
 10
172.0701056883193
 20
20.803932632072311
 30
0.0
 42
-0.3216464155858821
 50
90.0
  0
VERTEX
  5
175
  8
0
 10
171.89274016836109
 20
21.051123197735549
 30
0.0
 42
-0.3216464155858657
 50
90.0
  0
SEQEND
  5
176
  8
0
  0
POLYLINE
  5
177
  8
0
 66
     1
 10
0.0
 20
0.0
 30
0.0
  0
VERTEX
  5
178
  8
0
 10
171.89274016836109
 20
23.2782322517639
 30
0.0
 42
-0.2849162417363825
 50
90.0
  0
VERTEX
  5
179
  8
0
 10
172.13539807616411
 20
23.669504439697839
 30
0.0
 42
-0.0645560052243928
 50
90.0
  0
VERTEX
  5
17A
  8
0
 10
173.91984418774931
 20
24.283946317061091
 30
0.0
 42
-0.0294497691951512
 70
     2
 50
11.612901596990231
  0
VERTEX
  5
17B
  8
0
 10
176.26908517142161
 20
24.62411716561498
 30
0.0
 42
-0.0274566347316368
 50
90.0
  0
VERTEX
  5
17C
  8
0
 10
178.81370620369751
 20
24.70052672277658
 30
0.0
 42
-0.0212327722727789
 50
90.0
  0
SEQEND
  5
17D
  8
0
  0
LINE
  5
17E
  8
0
 10
171.89274016836109
 20
23.278232251763939
 30
0.0
 11
171.89274016836109
 21
21.051123197735581
 31
0.0
  0
LINE
  5
17F
  8
0
 10
178.81370620369751
 20
24.70052672277658
 30
0.0
 11
181.93014561620291
 21
24.70052672277658
 31
0.0
  0
LINE
  5
180
  8
0
 10
178.81370620369751
 20
20.081939169957781
 30
0.0
 11
181.93014561620279
 21
20.081939169957781
 31
0.0
  0
ARC
  5
181
  8
0
 10
178.8137062036956
 20
27.87621000329111
 30
0.0
 40
10.0
 50
197.88712987461511
 51
225.2609483636717
  0
POLYLINE
  5
182
  8
0
 66
     1
 10
0.0
 20
0.0
 30
0.0
  0
VERTEX
  5
183
  8
0
 10
171.89274016836109
 20
26.7296705790238
 30
0.0
 42
-0.2834601796409964
 50
90.0
  0
VERTEX
  5
184
  8
0
 10
171.33835478824639
 20
27.071422601286041
 30
0.0
 42
-0.0652374559038068
 50
90.0
  0
VERTEX
  5
185
  8
0
 10
170.47193671415181
 20
29.555076561408331
 30
0.0
 42
-0.0298320467326153
 70
     2
 50
101.76614742207769
  0
VERTEX
  5
186
  8
0
 10
170.05471341759309
 20
32.398132786918161
 30
0.0
 42
-0.0215196223769099
 50
90.0
  0
VERTEX
  5
187
  8
0
 10
169.8834206539517
 20
36.376210003291163
 30
0.0
 42
-0.0215196223769082
 50
90.0
  0
SEQEND
  5
188
  8
0
  0
ARC
  5
189
  8
0
 10
245.430145616201
 20
49.376210003291099
 30
0.0
 40
80.000000000000014
 50
191.53695903281519
 51
197.88712987461511
  0
POLYLINE
  5
18A
  8
0
 66
     1
 10
0.0
 20
0.0
 30
0.0
  0
VERTEX
  5
18B
  8
0
 10
169.8834206539517
 20
36.376210003291163
 30
0.0
 42
-0.0282355940511584
 50
90.0
  0
VERTEX
  5
18C
  8
0
 10
170.0539470980998
 20
39.393509583411117
 30
0.0
 42
-0.0385940712468606
 50
90.0
  0
VERTEX
  5
18D
  8
0
 10
170.47193671415181
 20
41.566189299972201
 30
0.0
 42
-0.0793651049633746
 70
     2
 50
74.689875487526933
  0
VERTEX
  5
18E
  8
0
 10
171.33749014256551
 20
43.4755602465167
 30
0.0
 42
-0.2974399064867994
 50
90.0
  0
VERTEX
  5
18F
  8
0
 10
171.89274016836109
 20
43.715949113093068
 30
0.0
 42
-0.2518264820252841
 50
90.0
  0
SEQEND
  5
190
  8
0
  0
POLYLINE
  5
191
  8
0
 66
     1
 10
0.0
 20
0.0
 30
0.0
  0
VERTEX
  5
192
  8
0
 10
169.8834206539517
 20
223.62378999670881
 30
0.0
 42
0.0282355940511584
  0
VERTEX
  5
193
  8
0
 10
170.0539470980998
 20
220.60649041658891
 30
0.0
 42
0.0385940712468606
  0
VERTEX
  5
194
  8
0
 10
170.47193671415181
 20
218.43381070002781
 30
0.0
 42
0.0793651049633746
 70
     2
 50
285.31012451247312
  0
VERTEX
  5
195
  8
0
 10
171.33749014256551
 20
216.52443975348331
 30
0.0
 42
0.2974399064867994
  0
VERTEX
  5
196
  8
0
 10
171.89274016836109
 20
216.2840508869069
 30
0.0
 42
0.2518264820252841
  0
SEQEND
  5
197
  8
0
  0
ARC
  5
198
  8
0
 10
245.430145616201
 20
210.62378999670889
 30
0.0
 40
80.000000000000014
 50
162.11287012538489
 51
168.4630409671847
  0
POLYLINE
  5
199
  8
0
 66
     1
 10
0.0
 20
0.0
 30
0.0
  0
VERTEX
  5
19A
  8
0
 10
171.89274016836109
 20
233.2703294209762
 30
0.0
 42
0.2834601796409964
  0
VERTEX
  5
19B
  8
0
 10
171.33835478824639
 20
232.928577398714
 30
0.0
 42
0.0652374559038068
  0
VERTEX
  5
19C
  8
0
 10
170.47193671415181
 20
230.4449234385917
 30
0.0
 42
0.0298320467326153
 70
     2
 50
258.23385257792228
  0
VERTEX
  5
19D
  8
0
 10
170.05471341759309
 20
227.6018672130819
 30
0.0
 42
0.0215196223769099
  0
VERTEX
  5
19E
  8
0
 10
169.8834206539517
 20
223.62378999670881
 30
0.0
 42
0.0215196223769082
  0
SEQEND
  5
19F
  8
0
  0
ARC
  5
1A0
  8
0
 10
178.8137062036956
 20
232.12378999670889
 30
0.0
 40
10.0
 50
134.73905163632821
 51
162.11287012538489
  0
LINE
  5
1A1
  8
0
 10
178.81370620369751
 20
239.91806083004221
 30
0.0
 11
181.93014561620279
 21
239.91806083004221
 31
0.0
  0
LINE
  5
1A2
  8
0
 10
178.81370620369751
 20
235.2994732772234
 30
0.0
 11
181.93014561620291
 21
235.2994732772234
 31
0.0
  0
LINE
  5
1A3
  8
0
 10
171.89274016836109
 20
236.72176774823609
 30
0.0
 11
171.89274016836109
 21
238.94887680226441
 31
0.0
  0
POLYLINE
  5
1A4
  8
0
 66
     1
 10
0.0
 20
0.0
 30
0.0
  0
VERTEX
  5
1A5
  8
0
 10
171.89274016836109
 20
236.72176774823609
 30
0.0
 42
0.2849162417363825
  0
VERTEX
  5
1A6
  8
0
 10
172.13539807616411
 20
236.3304955603021
 30
0.0
 42
0.0645560052243928
  0
VERTEX
  5
1A7
  8
0
 10
173.91984418774931
 20
235.71605368293891
 30
0.0
 42
0.0294497691951512
 70
     2
 50
348.38709840300982
  0
VERTEX
  5
1A8
  8
0
 10
176.26908517142161
 20
235.37588283438501
 30
0.0
 42
0.0274566347316368
  0
VERTEX
  5
1A9
  8
0
 10
178.81370620369751
 20
235.2994732772234
 30
0.0
 42
0.0212327722727789
  0
SEQEND
  5
1AA
  8
0
  0
POLYLINE
  5
1AB
  8
0
 66
     1
 10
0.0
 20
0.0
 30
0.0
  0
VERTEX
  5
1AC
  8
0
 10
178.81370620369751
 20
239.91806083004221
 30
0.0
 42
0.0144859795679636
  0
VERTEX
  5
1AD
  8
0
 10
175.95272490846091
 20
239.83515519965169
 30
0.0
 42
0.0203006207507405
  0
VERTEX
  5
1AE
  8
0
 10
173.91984418774939
 20
239.6341934005238
 30
0.0
 42
0.0467545933818674
 70
     2
 50
187.97163036166751
  0
VERTEX
  5
1AF
  8
0
 10
172.0701056883193
 20
239.1960673679277
 30
0.0
 42
0.3216464155858821
  0
VERTEX
  5
1B0
  8
0
 10
171.89274016836109
 20
238.94887680226441
 30
0.0
 42
0.3216464155858657
  0
SEQEND
  5
1B1
  8
0
  0
POLYLINE
  5
1B2
  8
0
 66
     1
 10
0.0
 20
0.0
 30
0.0
  0
VERTEX
  5
1B3
  8
0
 10
184.43014561620291
 20
238.94887680226441
 30
0.0
 42
0.2075251901849011
  0
VERTEX
  5
1B4
  8
0
 10
184.29590080568011
 20
239.2583894180934
 30
0.0
 42
0.0959120267712997
  0
VERTEX
  5
1B5
  8
0
 10
183.6979125691692
 20
239.6341934005238
 30
0.0
 42
0.0527024173364597
 70
     2
 50
158.81000245554301
  0
VERTEX
  5
1B6
  8
0
 10
182.84896565974049
 20
239.86415245607321
 30
0.0
 42
0.0503506269741292
  0
VERTEX
  5
1B7
  8
0
 10
181.93014561620279
 20
239.91806083004221
 30
0.0
 42
0.0398261387055096
  0
SEQEND
  5
1B8
  8
0
  0
POLYLINE
  5
1B9
  8
0
 66
     1
 10
0.0
 20
0.0
 30
0.0
  0
VERTEX
  5
1BA
  8
0
 10
181.93014561620291
 20
235.2994732772234
 30
0.0
 42
0.0579224304399028
  0
VERTEX
  5
1BB
  8
0
 10
182.93478682488441
 20
235.41624757698111
 30
0.0
 42
0.0715769081525948
  0
VERTEX
  5
1BC
  8
0
 10
183.6979125691692
 20
235.71605368293891
 30
0.0
 42
0.1064558444960413
 70
     2
 50
29.63631775778202
  0
VERTEX
  5
1BD
  8
0
 10
184.30392437228761
 20
236.25769071385949
 30
0.0
 42
0.1839123653059275
  0
VERTEX
  5
1BE
  8
0
 10
184.43014561620291
 20
236.72176774823609
 30
0.0
 42
0.1586409376496414
  0
SEQEND
  5
1BF
  8
0
  0
POLYLINE
  5
1C0
  8
0
 66
     1
 10
0.0
 20
0.0
 30
0.0
  0
VERTEX
  5
1C1
  8
0
 10
178.81370620369751
 20
239.91806083004221
 30
0.0
 42
0.0137188291723675
  0
VERTEX
  5
1C2
  8
0
 10
175.79178705505831
 20
239.83513083695149
 30
0.0
 42
0.0192435017349832
  0
VERTEX
  5
1C3
  8
0
 10
173.64562193113281
 20
239.6341934005238
 30
0.0
 42
0.0412706473527352
 70
     2
 50
187.5536682764203
  0
VERTEX
  5
1C4
  8
0
 10
171.77491614533861
 20
239.2269888897693
 30
0.0
 42
0.402778744963994
  0
SEQEND
  5
1C5
  8
0
  0
POLYLINE
  5
1C6
  8
0
 66
     1
 10
0.0
 20
0.0
 30
0.0
  0
VERTEX
  5
1C7
  8
0
 10
171.89274016836109
 20
187.97725057244151
 30
0.0
 42
-0.2834601796409964
  0
VERTEX
  5
1C8
  8
0
 10
171.33835478824639
 20
188.31900259470379
 30
0.0
 42
-0.0652374559038068
  0
VERTEX
  5
1C9
  8
0
 10
170.47193671415181
 20
190.80265655482609
 30
0.0
 42
-0.0298320467326153
 70
     2
 50
101.76614742207769
  0
VERTEX
  5
1CA
  8
0
 10
170.05471341759309
 20
193.64571278033591
 30
0.0
 42
-0.0215196223769099
  0
VERTEX
  5
1CB
  8
0
 10
169.8834206539517
 20
197.62378999670889
 30
0.0
 42
-0.0215196223769082
  0
SEQEND
  5
1CC
  8
0
  0
POLYLINE
  5
1CD
  8
0
 66
     1
 10
0.0
 20
0.0
 30
0.0
  0
VERTEX
  5
1CE
  8
0
 10
169.8834206539517
 20
197.62378999670889
 30
0.0
 42
-0.0282355940511584
  0
VERTEX
  5
1CF
  8
0
 10
170.0539470980998
 20
200.6410895768289
 30
0.0
 42
-0.0385940712468606
  0
VERTEX
  5
1D0
  8
0
 10
170.47193671415181
 20
202.81376929339001
 30
0.0
 42
-0.0793651049633746
 70
     2
 50
74.689875487526947
  0
VERTEX
  5
1D1
  8
0
 10
171.33749014256551
 20
204.72314023993451
 30
0.0
 42
-0.2974399064867994
  0
VERTEX
  5
1D2
  8
0
 10
171.89274016836109
 20
204.9635291065108
 30
0.0
 42
-0.2518264820252841
  0
SEQEND
  5
1D3
  8
0
  0
POLYLINE
  5
1D4
  8
0
 66
     1
 10
0.0
 20
0.0
 30
0.0
  0
VERTEX
  5
1D5
  8
0
 10
178.81370620369751
 20
181.32951916337549
 30
0.0
 42
-0.0137188291723675
  0
VERTEX
  5
1D6
  8
0
 10
175.79178705505831
 20
181.41244915646629
 30
0.0
 42
-0.0192435017349832
  0
VERTEX
  5
1D7
  8
0
 10
173.64562193113289
 20
181.61338659289399
 30
0.0
 42
-0.0412706473527352
 70
     2
 50
172.4463317235797
  0
VERTEX
  5
1D8
  8
0
 10
171.77491614533861
 20
182.02059110364851
 30
0.0
 42
-0.402778744963994
  0
SEQEND
  5
1D9
  8
0
  0
POLYLINE
  5
1DA
  8
0
 66
     1
 10
0.0
 20
0.0
 30
0.0
  0
VERTEX
  5
1DB
  8
0
 10
181.93014561620291
 20
185.9481067161943
 30
0.0
 42
-0.0579224304399028
  0
VERTEX
  5
1DC
  8
0
 10
182.93478682488441
 20
185.83133241643671
 30
0.0
 42
-0.0715769081525948
  0
VERTEX
  5
1DD
  8
0
 10
183.6979125691692
 20
185.53152631047891
 30
0.0
 42
-0.1064558444960413
 70
     2
 50
330.36368224221798
  0
VERTEX
  5
1DE
  8
0
 10
184.30392437228761
 20
184.9898892795583
 30
0.0
 42
-0.1839123653059275
  0
VERTEX
  5
1DF
  8
0
 10
184.43014561620291
 20
184.5258122451817
 30
0.0
 42
-0.1586409376496414
  0
SEQEND
  5
1E0
  8
0
  0
POLYLINE
  5
1E1
  8
0
 66
     1
 10
0.0
 20
0.0
 30
0.0
  0
VERTEX
  5
1E2
  8
0
 10
184.43014561620291
 20
182.29870319115329
 30
0.0
 42
-0.2075251901849011
  0
VERTEX
  5
1E3
  8
0
 10
184.29590080568011
 20
181.98919057532439
 30
0.0
 42
-0.0959120267712997
  0
VERTEX
  5
1E4
  8
0
 10
183.6979125691692
 20
181.6133865928939
 30
0.0
 42
-0.0527024173364597
 70
     2
 50
201.1899975444569
  0
VERTEX
  5
1E5
  8
0
 10
182.84896565974049
 20
181.38342753734449
 30
0.0
 42
-0.0503506269741292
  0
VERTEX
  5
1E6
  8
0
 10
181.93014561620279
 20
181.32951916337549
 30
0.0
 42
-0.0398261387055096
  0
SEQEND
  5
1E7
  8
0
  0
POLYLINE
  5
1E8
  8
0
 66
     1
 10
0.0
 20
0.0
 30
0.0
  0
VERTEX
  5
1E9
  8
0
 10
178.81370620369751
 20
181.32951916337549
 30
0.0
 42
-0.0144859795679636
  0
VERTEX
  5
1EA
  8
0
 10
175.95272490846091
 20
181.41242479376601
 30
0.0
 42
-0.0203006207507405
  0
VERTEX
  5
1EB
  8
0
 10
173.91984418774939
 20
181.6133865928939
 30
0.0
 42
-0.0467545933818674
 70
     2
 50
172.02836963833249
  0
VERTEX
  5
1EC
  8
0
 10
172.0701056883193
 20
182.05151262549009
 30
0.0
 42
-0.3216464155858821
  0
VERTEX
  5
1ED
  8
0
 10
171.89274016836109
 20
182.29870319115329
 30
0.0
 42
-0.3216464155858657
  0
SEQEND
  5
1EE
  8
0
  0
POLYLINE
  5
1EF
  8
0
 66
     1
 10
0.0
 20
0.0
 30
0.0
  0
VERTEX
  5
1F0
  8
0
 10
171.89274016836109
 20
184.52581224518161
 30
0.0
 42
-0.2849162417363825
  0
VERTEX
  5
1F1
  8
0
 10
172.13539807616411
 20
184.9170844331156
 30
0.0
 42
-0.0645560052243928
  0
VERTEX
  5
1F2
  8
0
 10
173.91984418774931
 20
185.5315263104788
 30
0.0
 42
-0.0294497691951512
 70
     2
 50
11.61290159699025
  0
VERTEX
  5
1F3
  8
0
 10
176.26908517142161
 20
185.87169715903269
 30
0.0
 42
-0.0274566347316368
  0
VERTEX
  5
1F4
  8
0
 10
178.81370620369751
 20
185.9481067161943
 30
0.0
 42
-0.0212327722727789
  0
SEQEND
  5
1F5
  8
0
  0
POLYLINE
  5
1F6
  8
0
 66
     1
 10
0.0
 20
0.0
 30
0.0
  0
VERTEX
  5
1F7
  8
0
 10
184.43014561620291
 20
212.8508990507373
 30
0.0
 42
0.1025157588903996
  0
VERTEX
  5
1F8
  8
0
 10
184.2415820265424
 20
213.7609146729742
 30
0.0
 42
0.1000682342388718
  0
VERTEX
  5
1F9
  8
0
 10
183.6979125691692
 20
214.54192971429379
 30
0.0
 42
0.0967908503699837
 70
     2
 50
136.2709458189488
  0
VERTEX
  5
1FA
  8
0
 10
182.8919988701102
 20
215.05876276675161
 30
0.0
 42
0.0945943572934223
  0
VERTEX
  5
1FB
  8
0
 10
181.93014561620279
 20
215.2423775495277
 30
0.0
 42
0.0945943572934384
  0
SEQEND
  5
1FC
  8
0
  0
LINE
  5
1FD
  8
0
 10
178.81370620369751
 20
215.2423775495277
 30
0.0
 11
181.93014561620291
 21
215.2423775495277
 31
0.0
  0
POLYLINE
  5
1FE
  8
0
 66
     1
 10
0.0
 20
0.0
 30
0.0
  0
VERTEX
  5
1FF
  8
0
 10
178.81370620369751
 20
215.2423775495277
 30
0.0
 42
0.0355555504347376
  0
VERTEX
  5
200
  8
0
 10
175.98081450229009
 20
215.04067250705339
 30
0.0
 42
0.0476697435424328
  0
VERTEX
  5
201
  8
0
 10
173.91984418774931
 20
214.54192971429379
 30
0.0
 42
0.0908886465964663
 70
     2
 50
199.06213695801929
  0
VERTEX
  5
202
  8
0
 10
172.16108054627361
 20
213.54894801613599
 30
0.0
 42
0.2598962313887226
  0
VERTEX
  5
203
  8
0
 10
171.89274016836171
 20
212.8508990507373
 30
0.0
 42
0.2224491750543853
  0
SEQEND
  5
204
  8
0
  0
POLYLINE
  5
205
  8
0
 66
     1
 10
0.0
 20
0.0
 30
0.0
  0
VERTEX
  5
206
  8
0
 10
178.81370620369751
 20
206.00520244389011
 30
0.0
 42
-0.0355555504347376
  0
VERTEX
  5
207
  8
0
 10
175.98081450229009
 20
206.2069074863644
 30
0.0
 42
-0.0476697435424328
  0
VERTEX
  5
208
  8
0
 10
173.91984418774931
 20
206.705650279124
 30
0.0
 42
-0.0908886465964663
 70
     2
 50
160.93786304198059
  0
VERTEX
  5
209
  8
0
 10
172.16108054627361
 20
207.69863197728179
 30
0.0
 42
-0.2598962313887226
  0
VERTEX
  5
20A
  8
0
 10
171.89274016836171
 20
208.39668094268049
 30
0.0
 42
-0.2224491750543853
  0
SEQEND
  5
20B
  8
0
  0
POLYLINE
  5
20C
  8
0
 66
     1
 10
0.0
 20
0.0
 30
0.0
  0
VERTEX
  5
20D
  8
0
 10
184.43014561620291
 20
208.39668094268049
 30
0.0
 42
-0.1025157588903996
  0
VERTEX
  5
20E
  8
0
 10
184.2415820265424
 20
207.48666532044359
 30
0.0
 42
-0.1000682342388718
  0
VERTEX
  5
20F
  8
0
 10
183.6979125691692
 20
206.705650279124
 30
0.0
 42
-0.0967908503699837
 70
     2
 50
223.72905418105111
  0
VERTEX
  5
210
  8
0
 10
182.8919988701102
 20
206.18881722666609
 30
0.0
 42
-0.0945943572934223
  0
VERTEX
  5
211
  8
0
 10
181.93014561620279
 20
206.00520244389011
 30
0.0
 42
-0.0945943572934384
  0
SEQEND
  5
212
  8
0
  0
LINE
  5
213
  8
0
 10
171.89274016836109
 20
208.39668094268049
 30
0.0
 11
171.89274016836109
 21
212.85089905073721
 31
0.0
  0
LINE
  5
214
  8
0
 10
171.89274016836109
 20
184.5258122451817
 30
0.0
 11
171.89274016836109
 21
182.29870319115341
 31
0.0
  0
LINE
  5
215
  8
0
 10
178.81370620369751
 20
206.00520244389011
 30
0.0
 11
181.93014561620291
 21
206.00520244389011
 31
0.0
  0
LINE
  5
216
  8
0
 10
178.81370620369751
 20
185.9481067161943
 30
0.0
 11
181.93014561620291
 21
185.9481067161943
 31
0.0
  0
LINE
  5
217
  8
0
 10
178.81370620369751
 20
181.32951916337549
 30
0.0
 11
181.93014561620279
 21
181.32951916337549
 31
0.0
  0
LINE
  5
218
  8
0
 10
184.43014561620279
 20
182.29870319115341
 30
0.0
 11
184.43014561620279
 21
238.94887680226441
 31
0.0
  0
ARC
  5
219
  8
0
 10
178.8137062036956
 20
189.12378999670889
 30
0.0
 40
10.0
 50
197.88712987461511
 51
225.2609483636717
  0
ARC
  5
21A
  8
0
 10
245.430145616201
 20
210.62378999670889
 30
0.0
 40
79.000000000000014
 50
172.83835367085251
 51
187.1616463291474
  0
LINE
  5
21B
  8
0
 10
167.0464738471392
 20
226.62378999670889
 30
0.0
 11
167.04647384713931
 21
194.62378999670909
 31
0.0
  0
ARC
  5
21C
  8
0
 10
245.430145616201
 20
210.62378999670889
 30
0.0
 40
80.000000000000014
 50
191.53695903281519
 51
197.88712987461511
  0
LINE
  5
21D
  8
0
 10
204.93014561620291
 20
200.12378999670889
 30
0.0
 11
204.93014561620291
 21
221.12378999670889
 31
0.0
  0
LINE
  5
21E
  8
0
 10
186.43014561620291
 20
197.62378999670889
 30
0.0
 11
186.43014561620291
 21
223.62378999670889
 31
0.0
  0
LINE
  5
21F
  8
0
 10
205.43014561620291
 20
200.62378999670889
 30
0.0
 11
205.43014561620291
 21
220.62378999670889
 31
0.0
  0
LINE
  5
220
  8
0
 10
184.43014561620291
 20
223.62378999670889
 30
0.0
 11
186.43014561620291
 21
223.62378999670889
 31
0.0
  0
LINE
  5
221
  8
0
 10
184.43014561620291
 20
197.62378999670889
 30
0.0
 11
186.43014561620291
 21
197.62378999670889
 31
0.0
  0
LINE
  5
222
  8
0
 10
205.43014561620291
 20
220.62378999670889
 30
0.0
 11
204.93014561620291
 21
221.12378999670889
 31
0.0
  0
LINE
  5
223
  8
0
 10
205.43014561620291
 20
200.62378999670889
 30
0.0
 11
204.93014561620291
 21
200.12378999670889
 31
0.0
  0
LINE
  5
224
  8
0
 10
186.43014561620291
 20
221.12378999670881
 30
0.0
 11
204.93014561620291
 21
221.12378999670889
 31
0.0
  0
LINE
  5
225
  8
0
 10
186.43014561620291
 20
200.12378999670889
 30
0.0
 11
204.93014561620291
 21
200.12378999670889
 31
0.0
  0
LINE
  5
226
  8
1
 10
160.43014561620291
 20
210.62378999670889
 30
0.0
 11
210.43014561620251
 21
210.62378999670889
 31
0.0
  0
CIRCLE
  5
227
  8
0
 10
305.5939977902899
 20
130.0
 30
0.0
 40
2.5
  0
TEXT
  5
3C3
  8
0
 62
     3
 10
0.0
 20
0.0
 30
0.0
 40
10.0
  1
EK63N-SUS
  7
STANDARD1
  0
ENDSEC
  0
EOF
