  0
SECTION
  2
HEADER
  9
$ACADVER
  1
AC1009
  9
$INSBASE
 10
0.0
 20
0.0
 30
0.0
  9
$EXTMIN
 10
0.0
 20
-2.960436562073669
 30
0.0
  9
$EXTMAX
 10
323.9703381810516
 20
237.0804321251297
 30
0.0
  9
$LIMMIN
 10
0.0
 20
0.0
  9
$LIMMAX
 10
375.0
 20
270.0
  9
$ORTHOMODE
 70
     1
  9
$REGENMODE
 70
     1
  9
$FILLMODE
 70
     1
  9
$QTEXTMODE
 70
     0
  9
$MIRRTEXT
 70
     0
  9
$DRAGMODE
 70
     2
  9
$LTSCALE
 40
10.0
  9
$OSMODE
 70
  3071
  9
$ATTMODE
 70
     1
  9
$TEXTSIZE
 40
0.2
  9
$TRACEWID
 40
0.05
  9
$TEXTSTYLE
  7
K90
  9
$CLAYER
  8
0
  9
$CELTYPE
  6
BYLAYER
  9
$CECOLOR
 62
   256
  9
$DIMSCALE
 40
1.0
  9
$DIMASZ
 40
3.0
  9
$DIMEXO
 40
2.0
  9
$DIMDLI
 40
0.38
  9
$DIMRND
 40
0.0
  9
$DIMDLE
 40
0.0
  9
$DIMEXE
 40
2.0
  9
$DIMTP
 40
0.0
  9
$DIMTM
 40
0.0
  9
$DIMTXT
 40
3.2000000000000002
  9
$DIMCEN
 40
0.0
  9
$DIMTSZ
 40
0.0
  9
$DIMTOL
 70
     0
  9
$DIMLIM
 70
     0
  9
$DIMTIH
 70
     0
  9
$DIMTOH
 70
     0
  9
$DIMSE1
 70
     0
  9
$DIMSE2
 70
     0
  9
$DIMTAD
 70
     1
  9
$DIMZIN
 70
     0
  9
$DIMBLK
  1

  9
$DIMASO
 70
     1
  9
$DIMSHO
 70
     0
  9
$DIMPOST
  1

  9
$DIMAPOST
  1

  9
$DIMALT
 70
     0
  9
$DIMALTD
 70
     2
  9
$DIMALTF
 40
25.399999999999999
  9
$DIMLFAC
 40
1.0
  9
$DIMTOFL
 70
     0
  9
$DIMTVP
 40
1.6000000000000001
  9
$DIMTIX
 70
     1
  9
$DIMSOXD
 70
     0
  9
$DIMSAH
 70
     0
  9
$DIMBLK1
  1

  9
$DIMBLK2
  1

  9
$DIMSTYLE
  2
STANDARD
  9
$DIMCLRD
 70
     0
  9
$DIMCLRE
 70
     0
  9
$DIMCLRT
 70
     0
  9
$DIMTFAC
 40
1.0
  9
$DIMGAP
 40
0.09
  9
$LUNITS
 70
     2
  9
$LUPREC
 70
     1
  9
$SKETCHINC
 40
0.1
  9
$FILLETRAD
 40
0.0
  9
$AUNITS
 70
     0
  9
$AUPREC
 70
     0
  9
$MENU
  1
E:\r13\win\SUPPORT\ACAD
  9
$ELEVATION
 40
0.0
  9
$PELEVATION
 40
0.0
  9
$THICKNESS
 40
0.0
  9
$LIMCHECK
 70
     0
  9
$BLIPMODE
 70
     0
  9
$CHAMFERA
 40
0.0
  9
$CHAMFERB
 40
0.0
  9
$SKPOLY
 70
     0
  9
$TDCREATE
 40
2449840.6031365739
  9
$TDUPDATE
 40
2456598.6748041902
  9
$TDINDWG
 40
0.0035722222
  9
$TDUSRTIMER
 40
0.0035722222
  9
$USRTIMER
 70
     1
  9
$ANGBASE
 50
0.0
  9
$ANGDIR
 70
     0
  9
$PDMODE
 70
     0
  9
$PDSIZE
 40
0.0
  9
$PLINEWID
 40
0.0
  9
$COORDS
 70
     1
  9
$SPLFRAME
 70
     0
  9
$SPLINETYPE
 70
     6
  9
$SPLINESEGS
 70
     8
  9
$ATTDIA
 70
     0
  9
$ATTREQ
 70
     1
  9
$HANDLING
 70
     1
  9
$HANDSEED
  5
4B0
  9
$SURFTAB1
 70
     6
  9
$SURFTAB2
 70
     6
  9
$SURFTYPE
 70
     6
  9
$SURFU
 70
     6
  9
$SURFV
 70
     6
  9
$UCSNAME
  2

  9
$UCSORG
 10
0.0
 20
0.0
 30
0.0
  9
$UCSXDIR
 10
1.0
 20
0.0
 30
0.0
  9
$UCSYDIR
 10
0.0
 20
1.0
 30
0.0
  9
$PUCSNAME
  2

  9
$PUCSORG
 10
0.0
 20
0.0
 30
0.0
  9
$PUCSXDIR
 10
1.0
 20
0.0
 30
0.0
  9
$PUCSYDIR
 10
0.0
 20
1.0
 30
0.0
  9
$USERI1
 70
     0
  9
$USERI2
 70
     1
  9
$USERI3
 70
     1
  9
$USERI4
 70
     0
  9
$USERI5
 70
     0
  9
$USERR1
 40
0.0
  9
$USERR2
 40
0.0
  9
$USERR3
 40
0.0
  9
$USERR4
 40
0.0
  9
$USERR5
 40
0.0
  9
$WORLDVIEW
 70
     1
  9
$SHADEDGE
 70
     3
  9
$SHADEDIF
 70
    70
  9
$TILEMODE
 70
     1
  9
$MAXACTVP
 70
    16
  9
$PLIMCHECK
 70
     0
  9
$PEXTMIN
 10
1.0000000000000000E+020
 20
1.0000000000000000E+020
 30
1.0000000000000000E+020
  9
$PEXTMAX
 10
-1.0000000000000000E+020
 20
-1.0000000000000000E+020
 30
-1.0000000000000000E+020
  9
$PLIMMIN
 10
0.0
 20
0.0
  9
$PLIMMAX
 10
12.0
 20
9.0
  9
$UNITMODE
 70
     0
  9
$VISRETAIN
 70
     0
  9
$PLINEGEN
 70
     0
  9
$PSLTSCALE
 70
     0
  0
ENDSEC
  0
SECTION
  2
TABLES
  0
TABLE
  2
VPORT
 70
     1
  0
VPORT
  2
*ACTIVE
 70
     0
 10
0.0
 20
0.0
 11
1.0
 21
1.0
 12
187.49427839065231
 22
169.9063198933564
 13
0.0
 23
0.0
 14
10.0
 24
10.0
 15
10.0
 25
10.0
 16
0.0
 26
0.0
 36
1.0
 17
0.0
 27
0.0
 37
0.0
 40
348.89937369551939
 41
1.831871345029239
 42
50.0
 43
0.0
 44
0.0
 50
0.0
 51
0.0
 71
     0
 72
   500
 73
     1
 74
     0
 75
     0
 76
     0
 77
     0
 78
     2
  0
ENDTAB
  0
TABLE
  2
LTYPE
 70
     4
  0
LTYPE
  2
CONTINUOUS
 70
     0
  3
Solid Line
 72
    65
 73
     0
 40
0.0
  0
LTYPE
  2
CENTER
 70
     0
  3
____ _ ____ _ ____ _ ____ _ ____ _ ____ _ ____
 72
    65
 73
     4
 40
2.0
 49
1.25
 49
-0.25
 49
0.25
 49
-0.25
  0
LTYPE
  2
HIDDEN
 70
     0
  3
_ _ _ _ _ _ _ _ _ _ _ _ _ _ _ _ _ _ _ _ _ _ _
 72
    65
 73
     2
 40
0.375
 49
0.25
 49
-0.125
  0
LTYPE
  2
PHANTOM2
 70
     0
  3
___ _ _ ___ _ _ ___ _ _ ___ _ _
 72
    65
 73
     6
 40
1.25
 49
0.625
 49
-0.125
 49
0.125
 49
-0.125
 49
0.125
 49
-0.125
  0
ENDTAB
  0
TABLE
  2
LAYER
 70
     3
  0
LAYER
  2
0
 70
     0
 62
     7
  6
CONTINUOUS
  0
LAYER
  2
1
 70
     0
 62
     1
  6
CENTER
  0
LAYER
  2
2
 70
     0
 62
     2
  6
HIDDEN
  0
ENDTAB
  0
TABLE
  2
STYLE
 70
     4
  0
STYLE
  2
STANDARD
 70
     0
 40
0.0
 41
1.0
 50
0.0
 71
     0
 42
0.2
  3
romans.shx
  4

  0
STYLE
  2
K70
 70
     0
 40
0.0
 41
1.0
 50
0.0
 71
     0
 42
0.2
  3
romans.shx
  4

  0
STYLE
  2
K90
 70
     0
 40
0.0
 41
1.0
 50
0.0
 71
     0
 42
0.2
  3
romans.shx
  4

  0
STYLE
  2
STANDARD1
 70
     0
 40
0.0
 41
1.0
 50
0.0
 71
     0
 42
3.0
  3
txt
  4

  0
ENDTAB
  0
TABLE
  2
VIEW
 70
     1
  0
VIEW
  2
ALL
 70
     0
 40
270.0
 10
220.99159663865549
 20
135.0
 41
0.0
 11
0.0
 21
0.0
 31
1.0
 12
0.0
 22
0.0
 32
0.0
 42
0.0
 43
0.0
 44
0.0
 50
0.0
 71
     0
  0
ENDTAB
  0
TABLE
  2
UCS
 70
     0
  0
ENDTAB
  0
TABLE
  2
APPID
 70
     3
  0
APPID
  2
ACAD
 70
     0
  0
APPID
  2
ACAD_MLEADERVER
 70
     0
  0
APPID
  2
ACAD_NAV_VCDISPLAY
 70
     0
  0
ENDTAB
  0
TABLE
  2
DIMSTYLE
 70
     1
  0
DIMSTYLE
  2
STANDARD
 70
     0
  3

  4

  5

  6

  7

 40
1.0
 41
0.18
 42
0.0625
 43
0.38
 44
0.18
 45
0.0
 46
0.0
 47
0.0
 48
0.0
140
0.18
141
0.09
142
0.0
143
25.399999999999999
144
1.0
145
0.0
146
1.0
147
0.09
 71
     0
 72
     0
 73
     1
 74
     1
 75
     0
 76
     0
 77
     0
 78
     0
170
     0
171
     2
172
     0
173
     0
174
     0
175
     0
176
     0
177
     0
178
     0
  0
ENDTAB
  0
ENDSEC
  0
SECTION
  2
BLOCKS
  0
BLOCK
  8
0
  2
$MODEL_SPACE
 70
     0
 10
0.0
 20
0.0
 30
0.0
  3
$MODEL_SPACE
  1

  0
ENDBLK
  5
26F
  8
0
  0
BLOCK
 67
     1
  8
0
  2
$PAPER_SPACE
 70
     0
 10
0.0
 20
0.0
 30
0.0
  3
$PAPER_SPACE
  1

  0
ENDBLK
  5
26D
 67
     1
  8
0
  0
ENDSEC
  0
SECTION
  2
ENTITIES
  0
LINE
  5
44
  8
0
 10
182.48625009425129
 20
147.6376131680754
 30
0.0
 11
184.4862500942512
 21
147.6376131680754
 31
0.0
  0
LINE
  5
45
  8
0
 10
182.48625009425129
 20
125.6376131680754
 30
0.0
 11
184.48625009425129
 21
125.6376131680754
 31
0.0
  0
LINE
  5
46
  8
0
 10
184.4862500942512
 20
147.6376131680754
 30
0.0
 11
184.48625009425149
 21
125.6376131680754
 31
0.0
  0
ARC
  5
4A
  8
0
 10
75.0
 20
136.6376131680754
 30
0.0
 40
25.0
 50
266.13049923028069
 51
273.86950076973631
  0
ARC
  5
4B
  8
0
 10
54.5
 20
101.1305716129134
 30
0.0
 40
20.0
 50
37.333598469617549
 51
82.666401530382416
  0
ARC
  5
4C
  8
0
 10
57.563509700216542
 20
124.934245873764
 30
0.0
 40
4.0
 50
213.86950076971931
 51
262.6664015303823
  0
ARC
  5
4D
  8
0
 10
73.582831763198101
 20
115.6854859684662
 30
0.0
 40
4.0
 50
217.33359846961741
 51
266.13049923028098
  0
ARC
  5
4E
  8
0
 10
74.999999999999972
 20
136.6376131680754
 30
0.0
 40
25.0
 50
206.13049923028069
 51
213.86950076973619
  0
ARC
  5
4F
  8
0
 10
34.000000000000021
 20
136.6376131680754
 30
0.0
 40
20.0
 50
337.33359846961758
 51
22.666401530382441
  0
ARC
  5
50
  8
0
 10
56.146341463414643
 20
145.88637307337311
 30
0.0
 40
4.0
 50
153.86950076971931
 51
202.6664015303825
  0
ARC
  5
51
  8
0
 10
56.146341463414622
 20
127.3888532627776
 30
0.0
 40
4.0
 50
157.33359846961741
 51
206.13049923028089
  0
ARC
  5
52
  8
0
 10
74.999999999999957
 20
136.6376131680754
 30
0.0
 40
25.0
 50
146.1304992302808
 51
153.86950076973631
  0
ARC
  5
53
  8
0
 10
54.499999999999972
 20
172.1446547232373
 30
0.0
 40
20.0
 50
277.33359846961758
 51
322.66640153038247
  0
ARC
  5
54
  8
0
 10
73.582831763198072
 20
157.5897403676845
 30
0.0
 40
4.0
 50
93.869500769719323
 51
142.66640153038239
  0
ARC
  5
55
  8
0
 10
57.563509700216493
 20
148.3409804623868
 30
0.0
 40
4.0
 50
97.333598469617428
 51
146.130499230281
  0
ARC
  5
56
  8
0
 10
74.999999999999972
 20
136.6376131680754
 30
0.0
 40
25.0
 50
86.130499230280776
 51
93.869500769736234
  0
ARC
  5
57
  8
0
 10
95.499999999999943
 20
172.14465472323741
 30
0.0
 40
20.0
 50
217.33359846961761
 51
262.66640153038247
  0
ARC
  5
58
  8
0
 10
92.436490299783443
 20
148.3409804623868
 30
0.0
 40
4.0
 50
33.869500769719359
 51
82.666401530382416
  0
ARC
  5
59
  8
0
 10
76.417168236801842
 20
157.5897403676845
 30
0.0
 40
4.0
 50
37.333598469617442
 51
86.130499230280961
  0
ARC
  5
5A
  8
0
 10
75.0
 20
136.6376131680754
 30
0.0
 40
25.0
 50
26.13049923028073
 51
33.869500769736213
  0
ARC
  5
5B
  8
0
 10
116.0
 20
136.6376131680754
 30
0.0
 40
20.0
 50
157.3335984696175
 51
202.6664015303825
  0
ARC
  5
5C
  8
0
 10
93.853658536585357
 20
127.3888532627777
 30
0.0
 40
4.0
 50
333.86950076971931
 51
22.66640153038238
  0
ARC
  5
5D
  8
0
 10
93.853658536585357
 20
145.88637307337311
 30
0.0
 40
4.0
 50
337.33359846961741
 51
26.130499230280929
  0
ARC
  5
5E
  8
0
 10
92.436490299783486
 20
124.934245873764
 30
0.0
 40
4.0
 50
277.33359846961741
 51
326.13049923028092
  0
ARC
  5
5F
  8
0
 10
76.417168236801899
 20
115.6854859684663
 30
0.0
 40
4.0
 50
273.86950076971942
 51
322.66640153038242
  0
ARC
  5
60
  8
0
 10
95.5
 20
101.1305716129134
 30
0.0
 40
20.0
 50
97.33359846961757
 51
142.66640153038239
  0
ARC
  5
61
  8
0
 10
75.000000000000014
 20
136.6376131680754
 30
0.0
 40
25.0
 50
326.13049923028069
 51
333.86950076973619
  0
CIRCLE
  5
62
  8
0
 10
75.000000000000014
 20
136.6376131680754
 30
0.0
 40
12.5
  0
LINE
  5
63
  8
1
 10
75.0
 20
166.6376131680754
 30
0.0
 11
75.0
 21
106.6376131680754
 31
0.0
  0
LINE
  5
64
  8
1
 10
105.0
 20
136.6376131680754
 30
0.0
 11
45.0
 21
136.6376131680754
 31
0.0
  0
LINE
  5
65
  8
1
 10
162.48625009429941
 20
136.6376131680754
 30
0.0
 11
204.48625009425089
 21
136.6376131680754
 31
0.0
  0
LINE
  5
66
  8
0
 10
184.48625009425129
 20
145.1376131680754
 30
0.0
 11
199.28625009425119
 21
145.1376131680754
 31
0.0
  0
LINE
  5
67
  8
0
 10
184.48625009425149
 20
128.1376131680754
 30
0.0
 11
199.28625009425119
 21
128.1376131680754
 31
0.0
  0
LINE
  5
68
  8
0
 10
199.4862500942512
 20
144.93761316807539
 30
0.0
 11
199.4862500942512
 21
128.33761316807539
 31
0.0
  0
LINE
  5
69
  8
0
 10
199.28625009425119
 20
145.1376131680754
 30
0.0
 11
199.4862500942512
 21
144.93761316807539
 31
0.0
  0
LINE
  5
6A
  8
0
 10
199.4862500942512
 20
128.33761316807539
 30
0.0
 11
199.28625009425119
 21
128.1376131680754
 31
0.0
  0
LINE
  5
6B
  8
1
 10
323.9703381810516
 20
136.6376131680754
 30
0.0
 11
263.9703381810516
 21
136.6376131680754
 31
0.0
  0
LINE
  5
6C
  8
1
 10
293.9703381810516
 20
166.6376131680754
 30
0.0
 11
293.9703381810516
 21
106.6376131680754
 31
0.0
  0
CIRCLE
  5
6D
  8
0
 10
293.9703381810516
 20
136.6376131680754
 30
0.0
 40
11.0
  0
ARC
  5
6E
  8
0
 10
293.9703381810516
 20
136.6376131680754
 30
0.0
 40
25.0
 50
326.13049923028069
 51
333.86950076973619
  0
ARC
  5
6F
  8
0
 10
314.4703381810516
 20
101.1305716129134
 30
0.0
 40
20.0
 50
97.33359846961757
 51
142.66640153038239
  0
ARC
  5
70
  8
0
 10
295.3875064178535
 20
115.6854859684663
 30
0.0
 40
4.0
 50
273.86950076971942
 51
322.66640153038242
  0
ARC
  5
71
  8
0
 10
311.40682848083509
 20
124.934245873764
 30
0.0
 40
4.0
 50
277.33359846961741
 51
326.13049923028092
  0
ARC
  5
72
  8
0
 10
312.82399671763687
 20
145.88637307337311
 30
0.0
 40
4.0
 50
337.33359846961741
 51
26.130499230280929
  0
ARC
  5
73
  8
0
 10
312.82399671763687
 20
127.3888532627777
 30
0.0
 40
4.0
 50
333.86950076971931
 51
22.66640153038238
  0
ARC
  5
74
  8
0
 10
334.97033818105149
 20
136.6376131680754
 30
0.0
 40
20.0
 50
157.3335984696175
 51
202.6664015303825
  0
ARC
  5
75
  8
0
 10
293.9703381810516
 20
136.6376131680754
 30
0.0
 40
25.0
 50
26.13049923028073
 51
33.869500769736213
  0
ARC
  5
76
  8
0
 10
295.38750641785339
 20
157.5897403676845
 30
0.0
 40
4.0
 50
37.333598469617442
 51
86.130499230280961
  0
ARC
  5
77
  8
0
 10
311.40682848083497
 20
148.3409804623868
 30
0.0
 40
4.0
 50
33.869500769719359
 51
82.666401530382416
  0
ARC
  5
78
  8
0
 10
314.47033818105149
 20
172.14465472323741
 30
0.0
 40
20.0
 50
217.33359846961761
 51
262.66640153038247
  0
ARC
  5
79
  8
0
 10
293.97033818105149
 20
136.6376131680754
 30
0.0
 40
25.0
 50
86.130499230280776
 51
93.869500769736234
  0
ARC
  5
7A
  8
0
 10
276.533847881268
 20
148.3409804623868
 30
0.0
 40
4.0
 50
97.333598469617428
 51
146.130499230281
  0
ARC
  5
7B
  8
0
 10
292.5531699442497
 20
157.5897403676845
 30
0.0
 40
4.0
 50
93.869500769719323
 51
142.66640153038239
  0
ARC
  5
7C
  8
0
 10
273.47033818105149
 20
172.1446547232373
 30
0.0
 40
20.0
 50
277.33359846961758
 51
322.66640153038247
  0
ARC
  5
7D
  8
0
 10
293.97033818105149
 20
136.6376131680754
 30
0.0
 40
25.0
 50
146.1304992302808
 51
153.86950076973631
  0
ARC
  5
7E
  8
0
 10
275.11667964446622
 20
127.3888532627776
 30
0.0
 40
4.0
 50
157.33359846961741
 51
206.13049923028089
  0
ARC
  5
7F
  8
0
 10
275.11667964446622
 20
145.88637307337311
 30
0.0
 40
4.0
 50
153.86950076971931
 51
202.6664015303825
  0
ARC
  5
80
  8
0
 10
252.9703381810516
 20
136.6376131680754
 30
0.0
 40
20.0
 50
337.33359846961758
 51
22.666401530382441
  0
ARC
  5
81
  8
0
 10
293.97033818105149
 20
136.6376131680754
 30
0.0
 40
25.0
 50
206.13049923028069
 51
213.86950076973619
  0
ARC
  5
82
  8
0
 10
292.5531699442497
 20
115.6854859684662
 30
0.0
 40
4.0
 50
217.33359846961741
 51
266.13049923028098
  0
ARC
  5
83
  8
0
 10
276.53384788126812
 20
124.934245873764
 30
0.0
 40
4.0
 50
213.86950076971931
 51
262.6664015303823
  0
ARC
  5
84
  8
0
 10
273.4703381810516
 20
101.1305716129134
 30
0.0
 40
20.0
 50
37.333598469617549
 51
82.666401530382416
  0
ARC
  5
85
  8
0
 10
293.9703381810516
 20
136.6376131680754
 30
0.0
 40
25.0
 50
266.13049923028069
 51
273.86950076973631
  0
CIRCLE
  5
86
  8
0
 10
293.9703381810516
 20
136.6376131680754
 30
0.0
 40
8.5
  0
ARC
  5
87
  8
0
 10
334.97033818105149
 20
136.6376131680754
 30
0.0
 40
24.0
 50
157.3335984696175
 51
202.6664015303825
  0
ARC
  5
88
  8
0
 10
293.9703381810516
 20
136.6376131680754
 30
0.0
 40
21.0
 50
26.13049923028073
 51
33.869500769736213
  0
ARC
  5
89
  8
0
 10
314.47033818105149
 20
172.14465472323741
 30
0.0
 40
24.0
 50
217.33359846961761
 51
262.66640153038247
  0
ARC
  5
8A
  8
0
 10
293.97033818105149
 20
136.6376131680754
 30
0.0
 40
21.0
 50
86.130499230280776
 51
93.869500769736234
  0
ARC
  5
8B
  8
0
 10
273.47033818105149
 20
172.1446547232373
 30
0.0
 40
24.0
 50
277.33359846961758
 51
322.66640153038247
  0
ARC
  5
8C
  8
0
 10
252.9703381810516
 20
136.6376131680754
 30
0.0
 40
24.0
 50
337.33359846961758
 51
22.666401530382441
  0
ARC
  5
8D
  8
0
 10
293.97033818105149
 20
136.6376131680754
 30
0.0
 40
21.0
 50
146.1304992302808
 51
153.86950076973631
  0
ARC
  5
8E
  8
0
 10
293.97033818105149
 20
136.6376131680754
 30
0.0
 40
21.0
 50
206.13049923028069
 51
213.86950076973619
  0
ARC
  5
8F
  8
0
 10
273.4703381810516
 20
101.1305716129134
 30
0.0
 40
24.0
 50
37.333598469617549
 51
82.666401530382416
  0
ARC
  5
90
  8
0
 10
293.9703381810516
 20
136.6376131680754
 30
0.0
 40
21.0
 50
266.13049923028069
 51
273.86950076973631
  0
ARC
  5
91
  8
0
 10
314.4703381810516
 20
101.1305716129134
 30
0.0
 40
24.0
 50
97.33359846961757
 51
142.66640153038239
  0
ARC
  5
92
  8
0
 10
293.9703381810516
 20
136.6376131680754
 30
0.0
 40
21.0
 50
326.13049923028069
 51
333.86950076973619
  0
TEXT
  5
93
  8
0
 10
283.84563552066692
 20
126.30341028598291
 30
0.0
 40
2.0
  1
EK-50
 50
330.0
 41
0.7
  7
K70
 72
     1
 11
286.93445946083142
 21
124.5200769526496
 31
0.0
  0
LINE
  5
94
  8
0
 10
199.28625009425119
 20
145.1376131680754
 30
0.0
 11
199.28625009425119
 21
128.1376131680754
 31
0.0
  0
CIRCLE
  5
95
  8
0
 10
293.97033818105149
 20
136.6376131680754
 30
0.0
 40
8.2999999999999687
  0
LINE
  5
9A
  8
0
 10
177.86242935119591
 20
121.11000371723701
 30
0.0
 11
180.4862500942512
 21
121.11000371723701
 31
0.0
  0
LINE
  5
9B
  8
0
 10
177.86242935119591
 20
127.4332120791877
 30
0.0
 11
180.4862500942512
 21
127.4332120791877
 31
0.0
  0
LINE
  5
9C
  8
0
 10
172.1027659411412
 20
122.7050330557999
 30
0.0
 11
172.1027659411412
 21
125.62718470938761
 31
0.0
  0
POLYLINE
  5
9D
  8
0
 66
     1
 10
0.0
 20
0.0
 30
0.0
  0
VERTEX
  5
9E
  8
0
 10
177.86242935119591
 20
127.4332120791877
 30
0.0
 42
0.0323011567657956
  0
VERTEX
  5
9F
  8
0
 10
175.50008913787309
 20
127.2804400391002
 30
0.0
 42
0.0437015060185473
  0
VERTEX
  5
A0
  8
0
 10
173.7897322965942
 20
126.90423890958181
 30
0.0
 42
0.0862426888910096
 70
     2
 50
197.40958547614821
  0
VERTEX
  5
A1
  8
0
 10
172.31154601111311
 20
126.142339311242
 30
0.0
 42
0.2755611379825962
 50
197.40958547614821
  0
VERTEX
  5
A2
  8
0
 10
172.10276594114271
 20
125.62718470938761
 30
0.0
 42
0.2348877848095426
  0
SEQEND
  5
A3
  8
0
  0
POLYLINE
  5
A4
  8
0
 66
     1
 10
0.0
 20
0.0
 30
0.0
  0
VERTEX
  5
A5
  8
0
 10
172.1027659411412
 20
122.7050330557999
 30
0.0
 42
0.2504149840547289
  0
VERTEX
  5
A6
  8
0
 10
172.353767664906
 20
122.2352888173798
 30
0.0
 42
0.0799595011282775
  0
VERTEX
  5
A7
  8
0
 10
173.7897322965942
 20
121.57717699431061
 30
0.0
 42
0.0390075565885099
 70
     2
 50
344.52094029497562
  0
VERTEX
  5
A8
  8
0
 10
175.49509151097891
 20
121.2453369669898
 30
0.0
 42
0.0285601106106367
 50
344.52094029497562
  0
VERTEX
  5
A9
  8
0
 10
177.86242935119591
 20
121.11000371723701
 30
0.0
 42
0.028560110610635
  0
SEQEND
  5
AA
  8
0
  0
POLYLINE
  5
AB
  8
0
 66
     1
 10
0.0
 20
0.0
 30
0.0
  0
VERTEX
  5
AC
  8
0
 10
180.4862500942512
 20
121.11000371723701
 30
0.0
 42
0.0799334400569161
  0
VERTEX
  5
AD
  8
0
 10
181.27052130885161
 20
121.2361889517168
 30
0.0
 42
0.0887741747851548
  0
VERTEX
  5
AE
  8
0
 10
181.9004636566244
 20
121.57717699431061
 30
0.0
 42
0.1050188345523539
 70
     2
 50
38.572874291094948
  0
VERTEX
  5
AF
  8
0
 10
182.34188601737171
 20
122.1138701029583
 30
0.0
 42
0.1203337044614298
 50
38.572874291094948
  0
VERTEX
  5
B0
  8
0
 10
182.48625009425129
 20
122.7050330557999
 30
0.0
 42
0.1203337044614141
  0
SEQEND
  5
B1
  8
0
  0
POLYLINE
  5
B2
  8
0
 66
     1
 10
0.0
 20
0.0
 30
0.0
  0
VERTEX
  5
B3
  8
0
 10
182.4862500942512
 20
125.62718470938761
 30
0.0
 42
0.1079327988317539
  0
VERTEX
  5
B4
  8
0
 10
182.33731637283449
 20
126.3090845639785
 30
0.0
 42
0.1019137478329986
  0
VERTEX
  5
B5
  8
0
 10
181.90046365662431
 20
126.90423890958181
 30
0.0
 42
0.0944161676062342
 70
     2
 50
137.91753175681239
  0
VERTEX
  5
B6
  8
0
 10
181.26077751705921
 20
127.2931000283216
 30
0.0
 42
0.0897219013937935
 50
137.91753175681239
  0
VERTEX
  5
B7
  8
0
 10
180.4862500942512
 20
127.4332120791877
 30
0.0
 42
0.0897219013937846
  0
SEQEND
  5
B8
  8
0
  0
ARC
  5
B9
  8
0
 10
196.9358891936709
 20
136.6376131680754
 30
0.0
 40
26.001663072750411
 50
162.757554490518
 51
197.24244550948191
  0
POLYLINE
  5
BA
  8
0
 66
     1
 10
0.0
 20
0.0
 30
0.0
  0
VERTEX
  5
BB
  8
0
 10
172.1027659411412
 20
120.9669668302889
 30
0.0
 42
0.1841066405900567
  0
VERTEX
  5
BC
  8
0
 10
171.71343225756189
 20
120.8185793662351
 30
0.0
 42
0.1022814137581561
  0
VERTEX
  5
BD
  8
0
 10
171.2764835101766
 20
120.2300805471889
 30
0.0
 42
0.0612644684929261
 70
     2
 50
245.08681295879711
  0
VERTEX
  5
BE
  8
0
 10
171.0315117223285
 20
119.4717038770974
 30
0.0
 42
0.0475520863658937
 50
245.08681295879711
  0
VERTEX
  5
BF
  8
0
 10
170.93422612092041
 20
118.45107968860221
 30
0.0
 42
0.0475520863659135
  0
SEQEND
  5
C0
  8
0
  0
POLYLINE
  5
C1
  8
0
 66
     1
 10
0.0
 20
0.0
 30
0.0
  0
VERTEX
  5
C2
  8
0
 10
170.93422612092041
 20
118.45107968860221
 30
0.0
 42
0.023245921992599
  0
VERTEX
  5
C3
  8
0
 10
171.0337395333942
 20
116.31178751178
 30
0.0
 42
0.0225241421988013
  0
VERTEX
  5
C4
  8
0
 10
171.18341824673661
 20
115.2341133478745
 30
0.0
 42
0.0692037785145942
 70
     2
 50
282.68534109933222
  0
SEQEND
  5
C5
  8
0
  0
POLYLINE
  5
C6
  8
0
 66
     1
 10
0.0
 20
0.0
 30
0.0
  0
VERTEX
  5
C7
  8
0
 10
172.1027659411412
 20
152.30825950586191
 30
0.0
 42
-0.1841066405900567
  0
VERTEX
  5
C8
  8
0
 10
171.71343225756189
 20
152.45664696991571
 30
0.0
 42
-0.1022814137581561
  0
VERTEX
  5
C9
  8
0
 10
171.2764835101766
 20
153.04514578896189
 30
0.0
 42
-0.0612644684929261
 70
     2
 50
114.9131870412029
  0
VERTEX
  5
CA
  8
0
 10
171.0315117223285
 20
153.8035224590534
 30
0.0
 42
-0.0475520863658937
  0
VERTEX
  5
CB
  8
0
 10
170.93422612092041
 20
154.82414664754859
 30
0.0
 42
-0.0475520863659135
  0
SEQEND
  5
CC
  8
0
  0
POLYLINE
  5
CD
  8
0
 66
     1
 10
0.0
 20
0.0
 30
0.0
  0
VERTEX
  5
CE
  8
0
 10
182.4862500942512
 20
147.6480416267631
 30
0.0
 42
-0.1079327988317539
  0
VERTEX
  5
CF
  8
0
 10
182.33731637283449
 20
146.96614177217231
 30
0.0
 42
-0.1019137478329986
  0
VERTEX
  5
D0
  8
0
 10
181.90046365662431
 20
146.370987426569
 30
0.0
 42
-0.0944161676062342
 70
     2
 50
222.08246824318761
  0
VERTEX
  5
D1
  8
0
 10
181.26077751705921
 20
145.98212630782919
 30
0.0
 42
-0.0897219013937935
  0
VERTEX
  5
D2
  8
0
 10
180.4862500942512
 20
145.84201425696301
 30
0.0
 42
-0.0897219013937846
  0
SEQEND
  5
D3
  8
0
  0
POLYLINE
  5
D4
  8
0
 66
     1
 10
0.0
 20
0.0
 30
0.0
  0
VERTEX
  5
D5
  8
0
 10
180.4862500942512
 20
152.1652226189137
 30
0.0
 42
-0.0799334400569161
  0
VERTEX
  5
D6
  8
0
 10
181.27052130885161
 20
152.0390373844339
 30
0.0
 42
-0.0887741747851548
  0
VERTEX
  5
D7
  8
0
 10
181.9004636566244
 20
151.69804934184009
 30
0.0
 42
-0.1050188345523539
 70
     2
 50
321.42712570890512
  0
VERTEX
  5
D8
  8
0
 10
182.34188601737171
 20
151.16135623319241
 30
0.0
 42
-0.1203337044614298
  0
VERTEX
  5
D9
  8
0
 10
182.48625009425129
 20
150.57019328035079
 30
0.0
 42
-0.1203337044614141
  0
SEQEND
  5
DA
  8
0
  0
POLYLINE
  5
DB
  8
0
 66
     1
 10
0.0
 20
0.0
 30
0.0
  0
VERTEX
  5
DC
  8
0
 10
172.1027659411412
 20
150.57019328035091
 30
0.0
 42
-0.2504149840547289
  0
VERTEX
  5
DD
  8
0
 10
172.353767664906
 20
151.0399375187709
 30
0.0
 42
-0.0799595011282775
  0
VERTEX
  5
DE
  8
0
 10
173.7897322965942
 20
151.6980493418402
 30
0.0
 42
-0.0390075565885099
 70
     2
 50
15.479059705024371
  0
VERTEX
  5
DF
  8
0
 10
175.49509151097891
 20
152.029889369161
 30
0.0
 42
-0.0285601106106367
  0
VERTEX
  5
E0
  8
0
 10
177.86242935119591
 20
152.1652226189137
 30
0.0
 42
-0.028560110610635
  0
SEQEND
  5
E1
  8
0
  0
POLYLINE
  5
E2
  8
0
 66
     1
 10
0.0
 20
0.0
 30
0.0
  0
VERTEX
  5
E3
  8
0
 10
177.86242935119591
 20
145.8420142569631
 30
0.0
 42
-0.0323011567657956
  0
VERTEX
  5
E4
  8
0
 10
175.50008913787309
 20
145.9947862970505
 30
0.0
 42
-0.0437015060185473
  0
VERTEX
  5
E5
  8
0
 10
173.7897322965942
 20
146.370987426569
 30
0.0
 42
-0.0862426888910096
 70
     2
 50
162.59041452385171
  0
VERTEX
  5
E6
  8
0
 10
172.31154601111311
 20
147.13288702490871
 30
0.0
 42
-0.2755611379825962
  0
VERTEX
  5
E7
  8
0
 10
172.10276594114271
 20
147.6480416267631
 30
0.0
 42
-0.2348877848095426
  0
SEQEND
  5
E8
  8
0
  0
LINE
  5
E9
  8
0
 10
172.1027659411412
 20
150.57019328035079
 30
0.0
 11
172.1027659411412
 21
147.6480416267631
 31
0.0
  0
LINE
  5
EA
  8
0
 10
177.86242935119591
 20
145.8420142569631
 30
0.0
 11
180.4862500942512
 21
145.84201425696301
 31
0.0
  0
LINE
  5
EB
  8
0
 10
177.86242935119591
 20
152.1652226189137
 30
0.0
 11
180.4862500942512
 21
152.1652226189137
 31
0.0
  0
POLYLINE
  5
EC
  8
0
 66
     1
 10
0.0
 20
0.0
 30
0.0
  0
VERTEX
  5
ED
  8
0
 10
170.93422612092041
 20
154.82414664754859
 30
0.0
 42
-0.023245921992599
  0
VERTEX
  5
EE
  8
0
 10
171.0337395333942
 20
156.9634388243708
 30
0.0
 42
-0.0225241421988013
  0
VERTEX
  5
EF
  8
0
 10
171.18341824673661
 20
158.04111298827621
 30
0.0
 42
-0.0692037785145942
 70
     2
 50
77.314658900667823
  0
SEQEND
  5
F0
  8
0
  0
LINE
  5
F4
  8
0
 10
182.4862500942512
 20
70.438696650045486
 30
0.0
 11
184.4862500942512
 21
70.438696650045458
 31
0.0
  0
LINE
  5
F5
  8
0
 10
182.4862500942512
 20
48.438696650045472
 30
0.0
 11
184.4862500942512
 21
48.438696650045472
 31
0.0
  0
LINE
  5
F6
  8
0
 10
184.4862500942512
 20
70.438696650045458
 30
0.0
 11
184.48625009425149
 21
48.438696650045472
 31
0.0
  0
LINE
  5
F7
  8
1
 10
162.48625009429941
 20
59.438696650045479
 30
0.0
 11
204.48625009425081
 21
59.438696650045479
 31
0.0
  0
LINE
  5
F8
  8
0
 10
184.4862500942512
 20
67.938696650045458
 30
0.0
 11
199.28625009425119
 21
67.938696650045458
 31
0.0
  0
LINE
  5
F9
  8
0
 10
184.48625009425149
 20
50.9386966500455
 30
0.0
 11
199.28625009425119
 21
50.938696650045458
 31
0.0
  0
LINE
  5
FA
  8
0
 10
199.4862500942512
 20
67.738696650045455
 30
0.0
 11
199.4862500942512
 21
51.138696650045468
 31
0.0
  0
LINE
  5
FB
  8
0
 10
199.28625009425119
 20
67.938696650045458
 30
0.0
 11
199.4862500942512
 21
67.738696650045455
 31
0.0
  0
LINE
  5
FC
  8
0
 10
199.4862500942512
 20
51.138696650045468
 30
0.0
 11
199.28625009425119
 21
50.938696650045458
 31
0.0
  0
LINE
  5
FD
  8
0
 10
199.2862500942511
 20
67.938696650045458
 30
0.0
 11
199.2862500942511
 21
50.938696650045458
 31
0.0
  0
LINE
  5
FE
  8
0
 10
182.4862500942512
 20
81.883528241218556
 30
0.0
 11
182.4862500942512
 21
36.993865058872437
 31
0.0
  0
ARC
  5
102
  8
0
 10
177.86242935119591
 20
76.438696650045515
 30
0.0
 40
8.0
 50
135.37127454482501
 51
164.0860393138191
  0
LINE
  5
103
  8
0
 10
177.86242852528969
 20
63.089402699959791
 30
0.0
 11
180.4862500942512
 21
63.089402699959798
 31
0.0
  0
LINE
  5
104
  8
0
 10
177.86242852528969
 20
79.031893039155563
 30
0.0
 11
180.4862500942512
 21
79.031893039155563
 31
0.0
  0
LINE
  5
105
  8
0
 10
172.10276594114109
 20
57.751591606233688
 30
0.0
 11
172.10276594114109
 21
61.125801693857269
 31
0.0
  0
LINE
  5
106
  8
0
 10
172.1027659411412
 20
80.196423197406745
 30
0.0
 11
172.10276594114109
 21
81.883528241218514
 31
0.0
  0
POLYLINE
  5
107
  8
0
 66
     1
 10
0.0
 20
0.0
 30
0.0
  0
VERTEX
  5
108
  8
0
 10
172.10276594114109
 20
80.196423197406745
 30
0.0
 42
0.2866600438292025
 50
90.0
  0
VERTEX
  5
109
  8
0
 10
172.302176983208
 20
79.877186793731084
 30
0.0
 42
0.0637369177227748
 50
90.0
  0
VERTEX
  5
10A
  8
0
 10
173.7897320546918
 20
79.372976025611095
 30
0.0
 42
0.0289941354995826
 70
     2
 50
348.56961990689013
  0
VERTEX
  5
10B
  8
0
 10
175.48663730237931
 20
79.131203904797104
 30
0.0
 42
0.0208914655727931
 50
348.56961990689013
  0
VERTEX
  5
10C
  8
0
 10
177.86242852528969
 20
79.031893039155563
 30
0.0
 42
0.0208914655727958
 50
90.0
  0
SEQEND
  5
10D
  8
0
  0
POLYLINE
  5
10E
  8
0
 66
     1
 10
0.0
 20
0.0
 30
0.0
  0
VERTEX
  5
10F
  8
0
 10
180.4862500942512
 20
79.031893039155563
 30
0.0
 42
0.0592347327749133
 50
90.0
  0
VERTEX
  5
110
  8
0
 10
181.2889195302271
 20
79.127319686839243
 30
0.0
 42
0.0727817673038582
 50
90.0
  0
VERTEX
  5
111
  8
0
 10
181.90046365662431
 20
79.372976025611081
 30
0.0
 42
0.1067007914655766
 70
     2
 50
30.21074893670475
  0
VERTEX
  5
112
  8
0
 10
182.3843898032128
 20
79.814732344577408
 30
0.0
 42
0.1806972461237873
 50
30.21074893670475
  0
VERTEX
  5
113
  8
0
 10
182.486250094252
 20
80.196423197406745
 30
0.0
 42
0.1558243594865898
 50
90.0
  0
SEQEND
  5
114
  8
0
  0
LINE
  5
115
  8
0
 10
177.86242852528969
 20
82.682599089069896
 30
0.0
 11
180.4862500942512
 21
82.682599089069896
 31
0.0
  0
POLYLINE
  5
116
  8
0
 66
     1
 10
0.0
 20
0.0
 30
0.0
  0
VERTEX
  5
117
  8
0
 10
182.4862500942512
 20
81.883528241221782
 30
0.0
 42
0.2036039372321349
 50
90.0
  0
VERTEX
  5
118
  8
0
 10
182.37705960971951
 20
82.140556769516806
 30
0.0
 42
0.0971177748327592
 50
90.0
  0
VERTEX
  5
119
  8
0
 10
181.90046365662431
 20
82.448556656383658
 30
0.0
 42
0.0540774494389552
 70
     2
 50
158.22154095492559
  0
VERTEX
  5
11A
  8
0
 10
181.3017829854752
 20
82.615572430638437
 30
0.0
 42
0.0410246183758421
 50
158.22154095492559
  0
VERTEX
  5
11B
  8
0
 10
180.4862500942512
 20
82.682599089069896
 30
0.0
 42
0.0410246183758407
 50
90.0
  0
SEQEND
  5
11C
  8
0
  0
POLYLINE
  5
11D
  8
0
 66
     1
 10
0.0
 20
0.0
 30
0.0
  0
VERTEX
  5
11E
  8
0
 10
177.86242852528969
 20
82.682599089069896
 30
0.0
 42
0.0143517545871211
 50
90.0
  0
VERTEX
  5
11F
  8
0
 10
175.48141737796749
 20
82.614241633978239
 30
0.0
 42
0.0201158771316441
 50
90.0
  0
VERTEX
  5
120
  8
0
 10
173.7897320546918
 20
82.448556656383658
 30
0.0
 42
0.0463676821434233
 70
     2
 50
187.8985518212815
  0
VERTEX
  5
121
  8
0
 10
172.2063204506974
 20
82.076934824017556
 30
0.0
 42
0.0651139239734937
 50
187.8985518212815
  0
VERTEX
  5
122
  8
0
 10
172.1690379156895
 20
82.058776183477661
 30
0.0
 42
0.3224244621817259
 50
90.0
  0
SEQEND
  5
123
  8
0
  0
POLYLINE
  5
124
  8
0
 66
     1
 10
0.0
 20
0.0
 30
0.0
  0
VERTEX
  5
125
  8
0
 10
172.12179093306469
 20
82.010506997883681
 30
0.0
 42
0.2095683222006994
 50
187.8985518212815
  0
VERTEX
  5
126
  8
0
 10
172.10276594114339
 20
81.883528241221782
 30
0.0
 42
0.3224244621817259
 50
90.0
  0
SEQEND
  5
127
  8
0
  0
POLYLINE
  5
128
  8
0
 66
     1
 10
0.0
 20
0.0
 30
0.0
  0
VERTEX
  5
129
  8
0
 10
177.86242852528969
 20
63.089402699959777
 30
0.0
 42
0.0350862085369867
 50
90.0
  0
VERTEX
  5
12A
  8
0
 10
175.5041655651423
 20
62.923713717849409
 30
0.0
 42
0.0471043614743445
 50
90.0
  0
VERTEX
  5
12B
  8
0
 10
173.7897320546918
 20
62.514277280817083
 30
0.0
 42
0.0902638253050833
 70
     2
 50
198.82542004123641
  0
VERTEX
  5
12C
  8
0
 10
172.38978232670749
 20
61.733764599821257
 30
0.0
 42
0.2241842008984638
 50
198.82542004123641
  0
VERTEX
  5
12D
  8
0
 10
172.10276594114109
 20
61.125801693857269
 30
0.0
 42
0.2241842008984586
 50
90.0
  0
SEQEND
  5
12E
  8
0
  0
POLYLINE
  5
12F
  8
0
 66
     1
 10
0.0
 20
0.0
 30
0.0
  0
VERTEX
  5
130
  8
0
 10
182.4862500942512
 20
61.125801693857277
 30
0.0
 42
0.1001415041778247
 50
90.0
  0
VERTEX
  5
131
  8
0
 10
182.33457547547101
 20
61.875508712289466
 30
0.0
 42
0.099159647449904
 50
90.0
  0
VERTEX
  5
132
  8
0
 10
181.90046365662431
 20
62.514277280817112
 30
0.0
 42
0.0978019613447172
 70
     2
 50
135.52615036243211
  0
VERTEX
  5
133
  8
0
 10
181.19644025924731
 20
62.976771155084108
 30
0.0
 42
0.1149847294203537
 50
135.52615036243211
  0
VERTEX
  5
134
  8
0
 10
180.4862500942512
 20
63.089402699959663
 30
0.0
 42
0.096863114649287
 50
90.0
  0
SEQEND
  5
135
  8
0
  0
POLYLINE
  5
136
  8
0
 66
     1
 10
0.0
 20
0.0
 30
0.0
  0
VERTEX
  5
137
  8
0
 10
182.4862500942512
 20
57.751591606233688
 30
0.0
 42
-0.1001415041778247
 50
90.0
  0
VERTEX
  5
138
  8
0
 10
182.33457547547101
 20
57.001884587801499
 30
0.0
 42
-0.099159647449904
 50
90.0
  0
VERTEX
  5
139
  8
0
 10
181.90046365662431
 20
56.363116019273861
 30
0.0
 42
-0.0978019613447172
 70
     2
 50
224.47384963756789
  0
VERTEX
  5
13A
  8
0
 10
181.19644025924731
 20
55.900622145006849
 30
0.0
 42
-0.1149847294203537
 50
90.0
  0
VERTEX
  5
13B
  8
0
 10
180.4862500942512
 20
55.787990600131309
 30
0.0
 42
-0.096863114649287
 50
90.0
  0
SEQEND
  5
13C
  8
0
  0
POLYLINE
  5
13D
  8
0
 66
     1
 10
0.0
 20
0.0
 30
0.0
  0
VERTEX
  5
13E
  8
0
 10
177.86242852528969
 20
55.787990600131181
 30
0.0
 42
-0.0350862085369867
 50
90.0
  0
VERTEX
  5
13F
  8
0
 10
175.5041655651423
 20
55.953679582241548
 30
0.0
 42
-0.0471043614743445
 50
90.0
  0
VERTEX
  5
140
  8
0
 10
173.7897320546918
 20
56.363116019273882
 30
0.0
 42
-0.0902638253050833
 70
     2
 50
161.1745799587635
  0
VERTEX
  5
141
  8
0
 10
172.38978232670749
 20
57.143628700269709
 30
0.0
 42
-0.2241842008984638
 50
90.0
  0
VERTEX
  5
142
  8
0
 10
172.10276594114109
 20
57.751591606233688
 30
0.0
 42
-0.2241842008984586
 50
90.0
  0
SEQEND
  5
143
  8
0
  0
LINE
  5
144
  8
0
 10
177.86242852528969
 20
55.787990600131167
 30
0.0
 11
180.4862500942512
 21
55.787990600131167
 31
0.0
  0
POLYLINE
  5
145
  8
0
 66
     1
 10
0.0
 20
0.0
 30
0.0
  0
VERTEX
  5
146
  8
0
 10
170.93422612092041
 20
69.9386966500455
 30
0.0
 42
0.0204584175974586
 50
90.0
  0
VERTEX
  5
147
  8
0
 10
171.033903009185
 20
67.503631270664883
 30
0.0
 42
0.0284148225486278
 50
90.0
  0
VERTEX
  5
148
  8
0
 10
171.27648351017649
 20
65.765098008578121
 30
0.0
 42
0.0626847738901419
 70
     2
 50
281.19851577448122
  0
VERTEX
  5
149
  8
0
 10
171.80166081842259
 20
64.183802478104738
 30
0.0
 42
0.347852883295403
 50
281.19851577448122
  0
VERTEX
  5
14A
  8
0
 10
172.10276594114109
 20
64.036336847380426
 30
0.0
 42
0.2888902692977648
 50
90.0
  0
SEQEND
  5
14B
  8
0
  0
POLYLINE
  5
14C
  8
0
 66
     1
 10
0.0
 20
0.0
 30
0.0
  0
VERTEX
  5
14D
  8
0
 10
172.1027659411412
 20
77.385771899865063
 30
0.0
 42
0.311715605559856
 50
90.0
  0
VERTEX
  5
14E
  8
0
 10
171.79846714138981
 20
77.175645232850925
 30
0.0
 42
0.0516640070779251
 50
90.0
  0
VERTEX
  5
14F
  8
0
 10
171.27648351017649
 20
75.204574059199416
 30
0.0
 42
0.0226887519851276
 70
     2
 50
261.08228608518721
  0
VERTEX
  5
150
  8
0
 10
171.0341124844721
 20
73.01558715799446
 30
0.0
 42
0.0162274316008073
 50
261.08228608518721
  0
VERTEX
  5
151
  8
0
 10
170.93422612092041
 20
69.9386966500455
 30
0.0
 42
0.0162274316008076
 50
90.0
  0
SEQEND
  5
152
  8
0
  0
POLYLINE
  5
153
  8
0
 66
     1
 10
0.0
 20
0.0
 30
0.0
  0
VERTEX
  5
154
  8
0
 10
172.12179093306469
 20
36.866886302207298
 30
0.0
 42
-0.2095683222006994
 50
90.0
  0
VERTEX
  5
155
  8
0
 10
172.10276594114339
 20
36.993865058869197
 30
0.0
 42
-0.3224244621817259
 50
90.0
  0
SEQEND
  5
156
  8
0
  0
POLYLINE
  5
157
  8
0
 66
     1
 10
0.0
 20
0.0
 30
0.0
  0
VERTEX
  5
158
  8
0
 10
177.86242852528969
 20
36.194794211021097
 30
0.0
 42
-0.0143517545871211
 50
90.0
  0
VERTEX
  5
159
  8
0
 10
175.48141737796749
 20
36.263151666112741
 30
0.0
 42
-0.0201158771316441
 50
90.0
  0
VERTEX
  5
15A
  8
0
 10
173.7897320546918
 20
36.428836643707321
 30
0.0
 42
-0.0463676821434233
 70
     2
 50
172.1014481787185
  0
VERTEX
  5
15B
  8
0
 10
172.20632045069729
 20
36.800458476073409
 30
0.0
 42
-0.0651139239734937
 50
90.0
  0
VERTEX
  5
15C
  8
0
 10
172.1690379156895
 20
36.818617116613318
 30
0.0
 42
-0.3224244621817259
 50
90.0
  0
SEQEND
  5
15D
  8
0
  0
POLYLINE
  5
15E
  8
0
 66
     1
 10
0.0
 20
0.0
 30
0.0
  0
VERTEX
  5
15F
  8
0
 10
182.4862500942512
 20
36.993865058869197
 30
0.0
 42
-0.2036039372321349
 50
90.0
  0
VERTEX
  5
160
  8
0
 10
182.37705960971951
 20
36.736836530574173
 30
0.0
 42
-0.0971177748327592
 50
90.0
  0
VERTEX
  5
161
  8
0
 10
181.90046365662431
 20
36.428836643707321
 30
0.0
 42
-0.0540774494389552
 70
     2
 50
201.77845904507441
  0
VERTEX
  5
162
  8
0
 10
181.3017829854752
 20
36.261820869452549
 30
0.0
 42
-0.0410246183758421
 50
90.0
  0
VERTEX
  5
163
  8
0
 10
180.4862500942512
 20
36.194794211021097
 30
0.0
 42
-0.0410246183758407
 50
90.0
  0
SEQEND
  5
164
  8
0
  0
LINE
  5
165
  8
0
 10
177.86242852528969
 20
36.194794211021097
 30
0.0
 11
180.4862500942512
 21
36.194794211021097
 31
0.0
  0
POLYLINE
  5
166
  8
0
 66
     1
 10
0.0
 20
0.0
 30
0.0
  0
VERTEX
  5
167
  8
0
 10
180.4862500942512
 20
39.84550026093541
 30
0.0
 42
-0.0592347327749133
 50
90.0
  0
VERTEX
  5
168
  8
0
 10
181.2889195302271
 20
39.750073613251729
 30
0.0
 42
-0.0727817673038582
 50
90.0
  0
VERTEX
  5
169
  8
0
 10
181.90046365662431
 20
39.504417274479891
 30
0.0
 42
-0.1067007914655766
 70
     2
 50
329.7892510632953
  0
VERTEX
  5
16A
  8
0
 10
182.3843898032128
 20
39.062660955513572
 30
0.0
 42
-0.1806972461237873
 50
90.0
  0
VERTEX
  5
16B
  8
0
 10
182.486250094252
 20
38.680970102684213
 30
0.0
 42
-0.1558243594865898
 50
90.0
  0
SEQEND
  5
16C
  8
0
  0
POLYLINE
  5
16D
  8
0
 66
     1
 10
0.0
 20
0.0
 30
0.0
  0
VERTEX
  5
16E
  8
0
 10
172.10276594114109
 20
38.680970102684213
 30
0.0
 42
-0.2866600438292025
 50
90.0
  0
VERTEX
  5
16F
  8
0
 10
172.302176983208
 20
39.000206506359888
 30
0.0
 42
-0.0637369177227748
 50
90.0
  0
VERTEX
  5
170
  8
0
 10
173.7897320546918
 20
39.504417274479877
 30
0.0
 42
-0.0289941354995826
 70
     2
 50
11.43038009310991
  0
VERTEX
  5
171
  8
0
 10
175.48663730237931
 20
39.746189395293868
 30
0.0
 42
-0.0208914655727931
 50
90.0
  0
VERTEX
  5
172
  8
0
 10
177.86242852528969
 20
39.84550026093541
 30
0.0
 42
-0.0208914655727958
 50
90.0
  0
SEQEND
  5
173
  8
0
  0
LINE
  5
174
  8
0
 10
172.10276594114109
 20
38.680970102684213
 30
0.0
 11
172.10276594114109
 21
36.993865058872473
 31
0.0
  0
LINE
  5
175
  8
0
 10
177.86242852528969
 20
39.84550026093541
 30
0.0
 11
180.4862500942512
 21
39.84550026093541
 31
0.0
  0
ARC
  5
176
  8
0
 10
177.86242935119591
 20
42.438696650045458
 30
0.0
 40
8.0
 50
195.9139606861809
 51
224.62872545517499
  0
POLYLINE
  5
178
  8
0
 66
     1
 10
0.0
 20
0.0
 30
0.0
  0
VERTEX
  5
179
  8
0
 10
172.10276594114109
 20
41.491621400225917
 30
0.0
 42
-0.311715605559856
 50
90.0
  0
VERTEX
  5
17A
  8
0
 10
171.79846714138981
 20
41.701748067240047
 30
0.0
 42
-0.0516640070779251
 50
90.0
  0
VERTEX
  5
17B
  8
0
 10
171.27648351017649
 20
43.67281924089157
 30
0.0
 42
-0.0226887519851276
 70
     2
 50
98.917713914812921
  0
VERTEX
  5
17C
  8
0
 10
171.0341124844721
 20
45.861806142096519
 30
0.0
 42
-0.0162274316008073
 50
90.0
  0
VERTEX
  5
17D
  8
0
 10
170.93422612092041
 20
48.938696650045479
 30
0.0
 42
-0.0162274316008076
 50
90.0
  0
SEQEND
  5
17E
  8
0
  0
POLYLINE
  5
17F
  8
0
 66
     1
 10
0.0
 20
0.0
 30
0.0
  0
VERTEX
  5
180
  8
0
 10
170.93422612092041
 20
48.938696650045479
 30
0.0
 42
-0.0204584175974586
 50
90.0
  0
VERTEX
  5
181
  8
0
 10
171.033903009185
 20
51.373762029426103
 30
0.0
 42
-0.0284148225486278
 50
90.0
  0
VERTEX
  5
182
  8
0
 10
171.27648351017649
 20
53.112295291512851
 30
0.0
 42
-0.0626847738901419
 70
     2
 50
78.80148422551882
  0
VERTEX
  5
183
  8
0
 10
171.80166081842259
 20
54.693590821986248
 30
0.0
 42
-0.347852883295403
 50
90.0
  0
VERTEX
  5
184
  8
0
 10
172.10276594114109
 20
54.841056452710561
 30
0.0
 42
-0.2888902692977648
 50
90.0
  0
SEQEND
  5
185
  8
0
  0
POLYLINE
  5
186
  8
0
 66
     1
 10
0.0
 20
0.0
 30
0.0
  0
VERTEX
  5
187
  8
0
 10
170.93422612092041
 20
224.33652968610531
 30
0.0
 42
0.0204584175974586
  0
VERTEX
  5
188
  8
0
 10
171.033903009185
 20
221.90146430672471
 30
0.0
 42
0.0284148225486278
  0
VERTEX
  5
189
  8
0
 10
171.27648351017649
 20
220.16293104463799
 30
0.0
 42
0.0626847738901419
 70
     2
 50
281.19851577448122
  0
VERTEX
  5
18A
  8
0
 10
171.80166081842259
 20
218.58163551416459
 30
0.0
 42
0.347852883295403
  0
VERTEX
  5
18B
  8
0
 10
172.10276594114109
 20
218.43416988344021
 30
0.0
 42
0.2888902692977648
  0
SEQEND
  5
18C
  8
0
  0
POLYLINE
  5
18D
  8
0
 66
     1
 10
0.0
 20
0.0
 30
0.0
  0
VERTEX
  5
18E
  8
0
 10
172.10276594114109
 20
231.7836049359249
 30
0.0
 42
0.311715605559856
  0
VERTEX
  5
18F
  8
0
 10
171.79846714138981
 20
231.5734782689108
 30
0.0
 42
0.0516640070779251
  0
VERTEX
  5
190
  8
0
 10
171.27648351017649
 20
229.60240709525931
 30
0.0
 42
0.0226887519851276
 70
     2
 50
261.08228608518709
  0
VERTEX
  5
191
  8
0
 10
171.0341124844721
 20
227.41342019405431
 30
0.0
 42
0.0162274316008073
  0
VERTEX
  5
192
  8
0
 10
170.93422612092041
 20
224.33652968610531
 30
0.0
 42
0.0162274316008076
  0
SEQEND
  5
193
  8
0
  0
ARC
  5
195
  8
0
 10
177.86242935119591
 20
230.83652968610531
 30
0.0
 40
8.0
 50
135.37127454482501
 51
164.0860393138191
  0
LINE
  5
196
  8
0
 10
177.86242852528969
 20
233.4297260752154
 30
0.0
 11
180.4862500942512
 21
233.4297260752154
 31
0.0
  0
LINE
  5
197
  8
0
 10
172.10276594114109
 20
234.59425623346661
 30
0.0
 11
172.10276594114109
 21
236.28136127727831
 31
0.0
  0
POLYLINE
  5
198
  8
0
 66
     1
 10
0.0
 20
0.0
 30
0.0
  0
VERTEX
  5
199
  8
0
 10
172.10276594114109
 20
234.59425623346661
 30
0.0
 42
0.2866600438292025
  0
VERTEX
  5
19A
  8
0
 10
172.302176983208
 20
234.27501982979089
 30
0.0
 42
0.0637369177227748
  0
VERTEX
  5
19B
  8
0
 10
173.7897320546918
 20
233.77080906167089
 30
0.0
 42
0.0289941354995826
 70
     2
 50
348.56961990689013
  0
VERTEX
  5
19C
  8
0
 10
175.48663730237931
 20
233.529036940857
 30
0.0
 42
0.0208914655727931
  0
VERTEX
  5
19D
  8
0
 10
177.86242852528969
 20
233.4297260752154
 30
0.0
 42
0.0208914655727958
  0
SEQEND
  5
19E
  8
0
  0
POLYLINE
  5
19F
  8
0
 66
     1
 10
0.0
 20
0.0
 30
0.0
  0
VERTEX
  5
1A0
  8
0
 10
180.4862500942512
 20
233.4297260752154
 30
0.0
 42
0.0592347327749133
  0
VERTEX
  5
1A1
  8
0
 10
181.2889195302271
 20
233.52515272289909
 30
0.0
 42
0.0727817673038582
  0
VERTEX
  5
1A2
  8
0
 10
181.90046365662431
 20
233.77080906167089
 30
0.0
 42
0.1067007914655766
 70
     2
 50
30.210748936704729
  0
VERTEX
  5
1A3
  8
0
 10
182.3843898032128
 20
234.21256538063719
 30
0.0
 42
0.1806972461237873
  0
VERTEX
  5
1A4
  8
0
 10
182.486250094252
 20
234.59425623346661
 30
0.0
 42
0.1558243594865898
  0
SEQEND
  5
1A5
  8
0
  0
LINE
  5
1A6
  8
0
 10
177.86242852528969
 20
237.0804321251297
 30
0.0
 11
180.4862500942512
 21
237.0804321251297
 31
0.0
  0
POLYLINE
  5
1A7
  8
0
 66
     1
 10
0.0
 20
0.0
 30
0.0
  0
VERTEX
  5
1A8
  8
0
 10
182.4862500942512
 20
236.2813612772816
 30
0.0
 42
0.2036039372321349
  0
VERTEX
  5
1A9
  8
0
 10
182.37705960971951
 20
236.5383898055766
 30
0.0
 42
0.0971177748327592
  0
VERTEX
  5
1AA
  8
0
 10
181.90046365662431
 20
236.84638969244349
 30
0.0
 42
0.0540774494389552
 70
     2
 50
158.22154095492559
  0
VERTEX
  5
1AB
  8
0
 10
181.3017829854752
 20
237.01340546669829
 30
0.0
 42
0.0410246183758421
  0
VERTEX
  5
1AC
  8
0
 10
180.4862500942512
 20
237.0804321251297
 30
0.0
 42
0.0410246183758407
  0
SEQEND
  5
1AD
  8
0
  0
POLYLINE
  5
1AE
  8
0
 66
     1
 10
0.0
 20
0.0
 30
0.0
  0
VERTEX
  5
1AF
  8
0
 10
177.86242852528969
 20
237.0804321251297
 30
0.0
 42
0.0143517545871211
  0
VERTEX
  5
1B0
  8
0
 10
175.48141737796749
 20
237.01207467003809
 30
0.0
 42
0.0201158771316441
  0
VERTEX
  5
1B1
  8
0
 10
173.7897320546918
 20
236.84638969244349
 30
0.0
 42
0.0463676821434233
 70
     2
 50
187.8985518212815
  0
VERTEX
  5
1B2
  8
0
 10
172.20632045069729
 20
236.47476786007741
 30
0.0
 42
0.0651139239734937
  0
VERTEX
  5
1B3
  8
0
 10
172.1690379156895
 20
236.45660921953751
 30
0.0
 42
0.3224244621817259
  0
SEQEND
  5
1B4
  8
0
  0
POLYLINE
  5
1B5
  8
0
 66
     1
 10
0.0
 20
0.0
 30
0.0
  0
VERTEX
  5
1B6
  8
0
 10
172.12179093306469
 20
236.40834003394349
 30
0.0
 42
0.2095683222006994
  0
VERTEX
  5
1B7
  8
0
 10
172.10276594114339
 20
236.2813612772816
 30
0.0
 42
0.3224244621817259
  0
SEQEND
  5
1B8
  8
0
  0
POLYLINE
  5
1B9
  8
0
 66
     1
 10
0.0
 20
0.0
 30
0.0
  0
VERTEX
  5
1BA
  8
0
 10
172.1027659411412
 20
195.88945443628569
 30
0.0
 42
-0.311715605559856
  0
VERTEX
  5
1BB
  8
0
 10
171.79846714138981
 20
196.0995811032999
 30
0.0
 42
-0.0516640070779251
  0
VERTEX
  5
1BC
  8
0
 10
171.27648351017649
 20
198.07065227695139
 30
0.0
 42
-0.0226887519851276
 70
     2
 50
98.917713914812879
  0
VERTEX
  5
1BD
  8
0
 10
171.0341124844721
 20
200.25963917815639
 30
0.0
 42
-0.0162274316008073
  0
VERTEX
  5
1BE
  8
0
 10
170.93422612092041
 20
203.33652968610531
 30
0.0
 42
-0.0162274316008076
  0
SEQEND
  5
1BF
  8
0
  0
POLYLINE
  5
1C0
  8
0
 66
     1
 10
0.0
 20
0.0
 30
0.0
  0
VERTEX
  5
1C1
  8
0
 10
170.93422612092041
 20
203.33652968610531
 30
0.0
 42
-0.0204584175974586
  0
VERTEX
  5
1C2
  8
0
 10
171.033903009185
 20
205.77159506548591
 30
0.0
 42
-0.0284148225486278
  0
VERTEX
  5
1C3
  8
0
 10
171.27648351017649
 20
207.51012832757269
 30
0.0
 42
-0.0626847738901419
 70
     2
 50
78.801484225518792
  0
VERTEX
  5
1C4
  8
0
 10
171.80166081842259
 20
209.09142385804611
 30
0.0
 42
-0.347852883295403
  0
VERTEX
  5
1C5
  8
0
 10
172.10276594114109
 20
209.23888948877041
 30
0.0
 42
-0.2888902692977648
  0
SEQEND
  5
1C6
  8
0
  0
LINE
  5
1C7
  8
0
 10
177.86242852528969
 20
217.4872357360197
 30
0.0
 11
180.4862500942512
 21
217.4872357360197
 31
0.0
  0
POLYLINE
  5
1C8
  8
0
 66
     1
 10
0.0
 20
0.0
 30
0.0
  0
VERTEX
  5
1C9
  8
0
 10
177.86242852528969
 20
217.48723573601961
 30
0.0
 42
0.0350862085369867
  0
VERTEX
  5
1CA
  8
0
 10
175.5041655651423
 20
217.3215467539093
 30
0.0
 42
0.0471043614743445
  0
VERTEX
  5
1CB
  8
0
 10
173.7897320546918
 20
216.91211031687689
 30
0.0
 42
0.0902638253050833
 70
     2
 50
198.82542004123641
  0
VERTEX
  5
1CC
  8
0
 10
172.38978232670749
 20
216.13159763588109
 30
0.0
 42
0.2241842008984638
  0
VERTEX
  5
1CD
  8
0
 10
172.10276594114109
 20
215.52363472991709
 30
0.0
 42
0.2241842008984586
  0
SEQEND
  5
1CE
  8
0
  0
POLYLINE
  5
1CF
  8
0
 66
     1
 10
0.0
 20
0.0
 30
0.0
  0
VERTEX
  5
1D0
  8
0
 10
182.4862500942512
 20
215.52363472991709
 30
0.0
 42
0.1001415041778247
  0
VERTEX
  5
1D1
  8
0
 10
182.33457547547101
 20
216.27334174834931
 30
0.0
 42
0.099159647449904
  0
VERTEX
  5
1D2
  8
0
 10
181.90046365662431
 20
216.912110316877
 30
0.0
 42
0.0978019613447172
 70
     2
 50
135.52615036243211
  0
VERTEX
  5
1D3
  8
0
 10
181.19644025924731
 20
217.37460419114399
 30
0.0
 42
0.1149847294203537
  0
VERTEX
  5
1D4
  8
0
 10
180.4862500942512
 20
217.4872357360195
 30
0.0
 42
0.096863114649287
  0
SEQEND
  5
1D5
  8
0
  0
POLYLINE
  5
1D6
  8
0
 66
     1
 10
0.0
 20
0.0
 30
0.0
  0
VERTEX
  5
1D7
  8
0
 10
182.4862500942512
 20
212.1494246422935
 30
0.0
 42
-0.1001415041778247
  0
VERTEX
  5
1D8
  8
0
 10
182.33457547547101
 20
211.39971762386131
 30
0.0
 42
-0.099159647449904
  0
VERTEX
  5
1D9
  8
0
 10
181.90046365662431
 20
210.7609490553337
 30
0.0
 42
-0.0978019613447172
 70
     2
 50
224.47384963756789
  0
VERTEX
  5
1DA
  8
0
 10
181.19644025924731
 20
210.29845518106671
 30
0.0
 42
-0.1149847294203537
  0
VERTEX
  5
1DB
  8
0
 10
180.4862500942512
 20
210.18582363619109
 30
0.0
 42
-0.096863114649287
  0
SEQEND
  5
1DC
  8
0
  0
POLYLINE
  5
1DD
  8
0
 66
     1
 10
0.0
 20
0.0
 30
0.0
  0
VERTEX
  5
1DE
  8
0
 10
177.86242852528969
 20
210.185823636191
 30
0.0
 42
-0.0350862085369867
  0
VERTEX
  5
1DF
  8
0
 10
175.5041655651423
 20
210.3515126183014
 30
0.0
 42
-0.0471043614743445
  0
VERTEX
  5
1E0
  8
0
 10
173.7897320546918
 20
210.7609490553337
 30
0.0
 42
-0.0902638253050833
 70
     2
 50
161.1745799587635
  0
VERTEX
  5
1E1
  8
0
 10
172.38978232670749
 20
211.5414617363295
 30
0.0
 42
-0.2241842008984638
  0
VERTEX
  5
1E2
  8
0
 10
172.10276594114109
 20
212.1494246422935
 30
0.0
 42
-0.2241842008984586
  0
SEQEND
  5
1E3
  8
0
  0
POLYLINE
  5
1E4
  8
0
 66
     1
 10
0.0
 20
0.0
 30
0.0
  0
VERTEX
  5
1E5
  8
0
 10
172.12179093306469
 20
191.2647193382671
 30
0.0
 42
-0.2095683222006994
  0
VERTEX
  5
1E6
  8
0
 10
172.10276594114339
 20
191.39169809492901
 30
0.0
 42
-0.3224244621817259
  0
SEQEND
  5
1E7
  8
0
  0
POLYLINE
  5
1E8
  8
0
 66
     1
 10
0.0
 20
0.0
 30
0.0
  0
VERTEX
  5
1E9
  8
0
 10
177.86242852528969
 20
190.59262724708091
 30
0.0
 42
-0.0143517545871211
  0
VERTEX
  5
1EA
  8
0
 10
175.48141737796749
 20
190.66098470217261
 30
0.0
 42
-0.0201158771316441
  0
VERTEX
  5
1EB
  8
0
 10
173.7897320546918
 20
190.82666967976709
 30
0.0
 42
-0.0463676821434233
 70
     2
 50
172.1014481787185
  0
VERTEX
  5
1EC
  8
0
 10
172.2063204506974
 20
191.19829151213321
 30
0.0
 42
-0.0651139239734937
  0
VERTEX
  5
1ED
  8
0
 10
172.1690379156895
 20
191.2164501526731
 30
0.0
 42
-0.3224244621817259
  0
SEQEND
  5
1EE
  8
0
  0
POLYLINE
  5
1EF
  8
0
 66
     1
 10
0.0
 20
0.0
 30
0.0
  0
VERTEX
  5
1F0
  8
0
 10
182.4862500942512
 20
191.39169809492901
 30
0.0
 42
-0.2036039372321349
  0
VERTEX
  5
1F1
  8
0
 10
182.37705960971951
 20
191.13466956663399
 30
0.0
 42
-0.0971177748327592
  0
VERTEX
  5
1F2
  8
0
 10
181.90046365662431
 20
190.82666967976709
 30
0.0
 42
-0.0540774494389552
 70
     2
 50
201.77845904507441
  0
VERTEX
  5
1F3
  8
0
 10
181.3017829854752
 20
190.6596539055123
 30
0.0
 42
-0.0410246183758421
  0
VERTEX
  5
1F4
  8
0
 10
180.4862500942512
 20
190.59262724708091
 30
0.0
 42
-0.0410246183758407
  0
SEQEND
  5
1F5
  8
0
  0
LINE
  5
1F6
  8
0
 10
177.86242852528969
 20
190.59262724708091
 30
0.0
 11
180.4862500942512
 21
190.59262724708091
 31
0.0
  0
POLYLINE
  5
1F7
  8
0
 66
     1
 10
0.0
 20
0.0
 30
0.0
  0
VERTEX
  5
1F8
  8
0
 10
180.4862500942512
 20
194.24333329699519
 30
0.0
 42
-0.0592347327749133
  0
VERTEX
  5
1F9
  8
0
 10
181.2889195302271
 20
194.14790664931149
 30
0.0
 42
-0.0727817673038582
  0
VERTEX
  5
1FA
  8
0
 10
181.90046365662431
 20
193.9022503105397
 30
0.0
 42
-0.1067007914655766
 70
     2
 50
329.7892510632953
  0
VERTEX
  5
1FB
  8
0
 10
182.3843898032128
 20
193.4604939915734
 30
0.0
 42
-0.1806972461237873
  0
VERTEX
  5
1FC
  8
0
 10
182.486250094252
 20
193.07880313874401
 30
0.0
 42
-0.1558243594865898
  0
SEQEND
  5
1FD
  8
0
  0
POLYLINE
  5
1FE
  8
0
 66
     1
 10
0.0
 20
0.0
 30
0.0
  0
VERTEX
  5
1FF
  8
0
 10
172.10276594114109
 20
193.07880313874401
 30
0.0
 42
-0.2866600438292025
  0
VERTEX
  5
200
  8
0
 10
172.302176983208
 20
193.3980395424197
 30
0.0
 42
-0.0637369177227748
  0
VERTEX
  5
201
  8
0
 10
173.7897320546918
 20
193.9022503105397
 30
0.0
 42
-0.0289941354995826
 70
     2
 50
11.430380093109889
  0
VERTEX
  5
202
  8
0
 10
175.48663730237931
 20
194.1440224313537
 30
0.0
 42
-0.0208914655727931
  0
VERTEX
  5
203
  8
0
 10
177.86242852528969
 20
194.24333329699519
 30
0.0
 42
-0.0208914655727958
  0
SEQEND
  5
204
  8
0
  0
LINE
  5
205
  8
0
 10
172.1027659411412
 20
193.07880313874401
 30
0.0
 11
172.10276594114109
 21
191.39169809493231
 31
0.0
  0
LINE
  5
206
  8
0
 10
172.10276594114109
 20
215.52363472991709
 30
0.0
 11
172.10276594114109
 21
212.1494246422935
 31
0.0
  0
LINE
  5
207
  8
0
 10
177.86242852528969
 20
194.24333329699519
 30
0.0
 11
180.4862500942512
 21
194.24333329699519
 31
0.0
  0
LINE
  5
208
  8
0
 10
177.86242852528969
 20
210.185823636191
 30
0.0
 11
180.4862500942512
 21
210.185823636191
 31
0.0
  0
ARC
  5
209
  8
0
 10
177.86242935119591
 20
196.83652968610531
 30
0.0
 40
8.0
 50
195.9139606861809
 51
224.62872545517499
  0
LINE
  5
20D
  8
0
 10
182.4862500942512
 20
191.39169809493231
 30
0.0
 11
182.4862500942512
 21
236.28136127727839
 31
0.0
  0
LINE
  5
20E
  8
0
 10
199.2862500942511
 20
205.33652968610531
 30
0.0
 11
199.2862500942511
 21
222.33652968610531
 31
0.0
  0
LINE
  5
20F
  8
0
 10
199.4862500942512
 20
222.13652968610529
 30
0.0
 11
199.28625009425119
 21
222.33652968610531
 31
0.0
  0
LINE
  5
210
  8
0
 10
199.28625009425119
 20
205.33652968610531
 30
0.0
 11
199.4862500942512
 21
205.5365296861053
 31
0.0
  0
LINE
  5
211
  8
0
 10
199.4862500942512
 20
205.5365296861053
 30
0.0
 11
199.4862500942512
 21
222.13652968610529
 31
0.0
  0
LINE
  5
212
  8
0
 10
184.48625009425149
 20
222.33652968610531
 30
0.0
 11
199.28625009425119
 21
222.33652968610531
 31
0.0
  0
LINE
  5
213
  8
0
 10
184.4862500942512
 20
205.33652968610531
 30
0.0
 11
199.28625009425119
 21
205.33652968610531
 31
0.0
  0
LINE
  5
214
  8
1
 10
162.48625009429941
 20
213.83652968610531
 30
0.0
 11
204.48625009425081
 21
213.83652968610531
 31
0.0
  0
LINE
  5
215
  8
0
 10
184.4862500942512
 20
202.83652968610531
 30
0.0
 11
184.48625009425149
 21
224.83652968610531
 31
0.0
  0
LINE
  5
216
  8
0
 10
182.4862500942512
 20
224.83652968610531
 30
0.0
 11
184.4862500942512
 21
224.83652968610531
 31
0.0
  0
LINE
  5
217
  8
0
 10
182.4862500942512
 20
202.83652968610531
 30
0.0
 11
184.4862500942512
 21
202.83652968610531
 31
0.0
  0
LINE
  5
218
  8
2
 10
198.48625009425129
 20
141.6376131680754
 30
0.0
 11
199.4862500942512
 21
142.63761316807529
 31
0.0
  0
LINE
  5
219
  8
2
 10
198.48625009425129
 20
131.6376131680754
 30
0.0
 11
199.4862500942512
 21
130.6376131680754
 31
0.0
  0
LINE
  5
21A
  8
2
 10
198.48625009425129
 20
141.6376131680754
 30
0.0
 11
198.48625009425129
 21
131.6376131680754
 31
0.0
  0
LINE
  5
21B
  8
2
 10
180.48625009425129
 20
131.6376131680754
 30
0.0
 11
198.48625009425129
 21
131.6376131680754
 31
0.0
  0
LINE
  5
21C
  8
2
 10
180.48625009425129
 20
131.6376131680754
 30
0.0
 11
177.5994987483032
 21
136.6376131680754
 31
0.0
  0
LINE
  5
21D
  8
2
 10
180.4862500942512
 20
141.63761316807529
 30
0.0
 11
180.4862500942512
 21
131.6376131680754
 31
0.0
  0
LINE
  5
21E
  8
2
 10
180.48625009425129
 20
141.63761316807529
 30
0.0
 11
198.48625009425129
 21
141.63761316807529
 31
0.0
  0
LINE
  5
21F
  8
2
 10
180.48625009425129
 20
141.6376131680754
 30
0.0
 11
177.5994987483032
 21
136.6376131680754
 31
0.0
  0
LINE
  5
220
  8
1
 10
191.4862500942512
 20
147.6376131680754
 30
0.0
 11
191.4862500942512
 21
141.6376131680754
 31
0.0
  0
LINE
  5
221
  8
2
 10
198.4862500942512
 20
218.83652968610531
 30
0.0
 11
199.4862500942512
 21
219.83652968610531
 31
0.0
  0
LINE
  5
222
  8
2
 10
198.4862500942512
 20
208.83652968610531
 30
0.0
 11
199.4862500942512
 21
207.83652968610531
 31
0.0
  0
LINE
  5
223
  8
2
 10
198.4862500942512
 20
218.83652968610531
 30
0.0
 11
198.4862500942512
 21
208.83652968610531
 31
0.0
  0
LINE
  5
224
  8
2
 10
180.48625009425129
 20
208.83652968610531
 30
0.0
 11
198.4862500942512
 21
208.83652968610531
 31
0.0
  0
LINE
  5
225
  8
2
 10
180.4862500942512
 20
208.83652968610531
 30
0.0
 11
177.59949874830309
 21
213.83652968610531
 31
0.0
  0
LINE
  5
226
  8
2
 10
180.4862500942512
 20
218.83652968610519
 30
0.0
 11
180.4862500942512
 21
208.83652968610531
 31
0.0
  0
LINE
  5
227
  8
2
 10
180.48625009425129
 20
218.83652968610531
 30
0.0
 11
198.4862500942512
 21
218.83652968610531
 31
0.0
  0
LINE
  5
228
  8
2
 10
180.4862500942512
 20
218.83652968610531
 30
0.0
 11
177.59949874830309
 21
213.83652968610531
 31
0.0
  0
LINE
  5
229
  8
1
 10
191.4862500942512
 20
217.7365296861052
 30
0.0
 11
191.4862500942512
 21
209.93652968610539
 31
0.0
  0
LINE
  5
22A
  8
2
 10
198.4862500942512
 20
64.438696650045472
 30
0.0
 11
199.4862500942512
 21
65.438696650045458
 31
0.0
  0
LINE
  5
22B
  8
2
 10
198.4862500942512
 20
54.4386966500455
 30
0.0
 11
199.4862500942512
 21
53.438696650045507
 31
0.0
  0
LINE
  5
22C
  8
2
 10
198.4862500942512
 20
64.438696650045486
 30
0.0
 11
198.4862500942512
 21
54.4386966500455
 31
0.0
  0
LINE
  5
22D
  8
2
 10
180.4862500942512
 20
54.438696650045522
 30
0.0
 11
198.4862500942512
 21
54.438696650045522
 31
0.0
  0
LINE
  5
22E
  8
2
 10
180.4862500942512
 20
54.4386966500455
 30
0.0
 11
177.59949874830309
 21
59.4386966500455
 31
0.0
  0
LINE
  5
22F
  8
2
 10
180.4862500942512
 20
64.438696650045401
 30
0.0
 11
180.4862500942512
 21
54.4386966500455
 31
0.0
  0
LINE
  5
230
  8
2
 10
180.4862500942512
 20
64.438696650045443
 30
0.0
 11
198.4862500942512
 21
64.438696650045443
 31
0.0
  0
LINE
  5
231
  8
2
 10
180.4862500942512
 20
64.438696650045472
 30
0.0
 11
177.59949874830309
 21
59.438696650045472
 31
0.0
  0
LINE
  5
232
  8
1
 10
191.48625009425109
 20
63.338696650045321
 30
0.0
 11
191.48625009425109
 21
55.538696650045182
 31
0.0
  0
CIRCLE
  5
233
  8
0
 10
191.4862500942512
 20
213.83652968610531
 30
0.0
 40
1.399999999999999
  0
CIRCLE
  5
234
  8
0
 10
293.97033818105149
 20
136.6376131680754
 30
0.0
 40
4.9999999999999849
  0
ARC
  5
2FC
  8
0
 10
177.862429351196
 20
153.6376131680754
 30
0.0
 40
8.0
 50
90.0
 51
164.0860393138189
  0
ARC
  5
2FD
  8
0
 10
237.48625009425129
 20
136.6376131680754
 30
0.0
 40
70.000000000000014
 50
164.0860393138189
 51
195.91396068618101
  0
ARC
  5
2FE
  8
0
 10
177.86242935119591
 20
119.6376131680754
 30
0.0
 40
8.0
 50
195.91396068617951
 51
270.0
  0
LINE
  5
2FF
  8
0
 10
182.4862500942512
 20
159.6376131680754
 30
0.0
 11
182.4862500942512
 21
113.6376131680754
 31
0.0
  0
ARC
  5
300
  8
0
 10
180.48625009425129
 20
159.6376131680754
 30
0.0
 40
2.0
 50
0.0
 51
90.0
  0
ARC
  5
301
  8
0
 10
180.4862500942512
 20
113.6376131680754
 30
0.0
 40
2.0
 50
270.0
 51
0.0
  0
LINE
  5
302
  8
0
 10
177.862429351196
 20
161.6376131680754
 30
0.0
 11
180.48625009425129
 21
161.6376131680754
 31
0.0
  0
LINE
  5
303
  8
0
 10
177.86242935119591
 20
111.6376131680754
 30
0.0
 11
180.4862500942512
 21
111.6376131680754
 31
0.0
  0
ARC
  5
304
  8
0
 10
237.48625009425129
 20
213.83652968610531
 30
0.0
 40
70.000000000000014
 50
164.0860393138189
 51
195.91396068618101
  0
ARC
  5
305
  8
0
 10
237.48625009425129
 20
59.4386966500455
 30
0.0
 40
70.000000000000014
 50
164.0860393138189
 51
195.91396068618101
  0
TEXT
  5
41C
  8
0
 62
     3
 10
0.0
 20
0.0
 30
0.0
 40
10.0
  1
EK50R
  7
STANDARD1
  0
ENDSEC
  0
EOF
