  0
SECTION
  2
HEADER
  9
$ACADVER
  1
AC1009
  9
$INSBASE
 10
0.0
 20
0.0
 30
0.0
  9
$EXTMIN
 10
0.0
 20
-2.960436562073669
 30
0.0
  9
$EXTMAX
 10
327.00390392377398
 20
238.36363636363629
 30
0.0
  9
$LIMMIN
 10
0.0
 20
0.0
  9
$LIMMAX
 10
375.0
 20
270.0
  9
$ORTHOMODE
 70
     1
  9
$REGENMODE
 70
     1
  9
$FILLMODE
 70
     1
  9
$QTEXTMODE
 70
     0
  9
$MIRRTEXT
 70
     0
  9
$DRAGMODE
 70
     2
  9
$LTSCALE
 40
10.0
  9
$OSMODE
 70
  3071
  9
$ATTMODE
 70
     1
  9
$TEXTSIZE
 40
0.2
  9
$TRACEWID
 40
0.05
  9
$TEXTSTYLE
  7
K90
  9
$CLAYER
  8
0
  9
$CELTYPE
  6
BYLAYER
  9
$CECOLOR
 62
   256
  9
$DIMSCALE
 40
1.0
  9
$DIMASZ
 40
3.0
  9
$DIMEXO
 40
2.0
  9
$DIMDLI
 40
0.38
  9
$DIMRND
 40
0.0
  9
$DIMDLE
 40
0.0
  9
$DIMEXE
 40
2.0
  9
$DIMTP
 40
0.0
  9
$DIMTM
 40
0.0
  9
$DIMTXT
 40
3.2000000000000002
  9
$DIMCEN
 40
0.0
  9
$DIMTSZ
 40
0.0
  9
$DIMTOL
 70
     0
  9
$DIMLIM
 70
     0
  9
$DIMTIH
 70
     0
  9
$DIMTOH
 70
     0
  9
$DIMSE1
 70
     0
  9
$DIMSE2
 70
     0
  9
$DIMTAD
 70
     1
  9
$DIMZIN
 70
     0
  9
$DIMBLK
  1

  9
$DIMASO
 70
     1
  9
$DIMSHO
 70
     0
  9
$DIMPOST
  1

  9
$DIMAPOST
  1

  9
$DIMALT
 70
     0
  9
$DIMALTD
 70
     2
  9
$DIMALTF
 40
25.399999999999999
  9
$DIMLFAC
 40
1.0
  9
$DIMTOFL
 70
     0
  9
$DIMTVP
 40
1.6000000000000001
  9
$DIMTIX
 70
     1
  9
$DIMSOXD
 70
     0
  9
$DIMSAH
 70
     0
  9
$DIMBLK1
  1

  9
$DIMBLK2
  1

  9
$DIMSTYLE
  2
STANDARD
  9
$DIMCLRD
 70
     0
  9
$DIMCLRE
 70
     0
  9
$DIMCLRT
 70
     0
  9
$DIMTFAC
 40
1.0
  9
$DIMGAP
 40
0.09
  9
$LUNITS
 70
     2
  9
$LUPREC
 70
     1
  9
$SKETCHINC
 40
0.1
  9
$FILLETRAD
 40
7.0
  9
$AUNITS
 70
     0
  9
$AUPREC
 70
     0
  9
$MENU
  1
E:\r13\win\SUPPORT\ACAD
  9
$ELEVATION
 40
0.0
  9
$PELEVATION
 40
0.0
  9
$THICKNESS
 40
0.0
  9
$LIMCHECK
 70
     0
  9
$BLIPMODE
 70
     0
  9
$CHAMFERA
 40
0.0
  9
$CHAMFERB
 40
0.0
  9
$SKPOLY
 70
     0
  9
$TDCREATE
 40
2449840.603344908
  9
$TDUPDATE
 40
2456598.6746828589
  9
$TDINDWG
 40
0.0204470255
  9
$TDUSRTIMER
 40
0.0204470255
  9
$USRTIMER
 70
     1
  9
$ANGBASE
 50
0.0
  9
$ANGDIR
 70
     0
  9
$PDMODE
 70
     0
  9
$PDSIZE
 40
0.0
  9
$PLINEWID
 40
0.0
  9
$COORDS
 70
     1
  9
$SPLFRAME
 70
     0
  9
$SPLINETYPE
 70
     6
  9
$SPLINESEGS
 70
     8
  9
$ATTDIA
 70
     0
  9
$ATTREQ
 70
     1
  9
$HANDLING
 70
     1
  9
$HANDSEED
  5
580
  9
$SURFTAB1
 70
     6
  9
$SURFTAB2
 70
     6
  9
$SURFTYPE
 70
     6
  9
$SURFU
 70
     6
  9
$SURFV
 70
     6
  9
$UCSNAME
  2

  9
$UCSORG
 10
0.0
 20
0.0
 30
0.0
  9
$UCSXDIR
 10
1.0
 20
0.0
 30
0.0
  9
$UCSYDIR
 10
0.0
 20
1.0
 30
0.0
  9
$PUCSNAME
  2

  9
$PUCSORG
 10
0.0
 20
0.0
 30
0.0
  9
$PUCSXDIR
 10
1.0
 20
0.0
 30
0.0
  9
$PUCSYDIR
 10
0.0
 20
1.0
 30
0.0
  9
$USERI1
 70
     0
  9
$USERI2
 70
     1
  9
$USERI3
 70
     1
  9
$USERI4
 70
     0
  9
$USERI5
 70
     0
  9
$USERR1
 40
0.0
  9
$USERR2
 40
0.0
  9
$USERR3
 40
0.0
  9
$USERR4
 40
0.0
  9
$USERR5
 40
0.0
  9
$WORLDVIEW
 70
     1
  9
$SHADEDGE
 70
     3
  9
$SHADEDIF
 70
    70
  9
$TILEMODE
 70
     1
  9
$MAXACTVP
 70
    16
  9
$PLIMCHECK
 70
     0
  9
$PEXTMIN
 10
1.0000000000000000E+020
 20
1.0000000000000000E+020
 30
1.0000000000000000E+020
  9
$PEXTMAX
 10
-1.0000000000000000E+020
 20
-1.0000000000000000E+020
 30
-1.0000000000000000E+020
  9
$PLIMMIN
 10
0.0
 20
0.0
  9
$PLIMMAX
 10
12.0
 20
9.0
  9
$UNITMODE
 70
     0
  9
$VISRETAIN
 70
     0
  9
$PLINEGEN
 70
     0
  9
$PSLTSCALE
 70
     0
  0
ENDSEC
  0
SECTION
  2
TABLES
  0
TABLE
  2
VPORT
 70
     1
  0
VPORT
  2
*ACTIVE
 70
     0
 10
0.0
 20
0.0
 11
1.0
 21
1.0
 12
187.49427839065231
 22
169.9063198933564
 13
0.0
 23
0.0
 14
10.0
 24
10.0
 15
10.0
 25
10.0
 16
0.0
 26
0.0
 36
1.0
 17
0.0
 27
0.0
 37
0.0
 40
348.89937369551939
 41
1.831871345029239
 42
50.0
 43
0.0
 44
0.0
 50
0.0
 51
0.0
 71
     0
 72
   500
 73
     1
 74
     0
 75
     0
 76
     0
 77
     0
 78
     1
  0
ENDTAB
  0
TABLE
  2
LTYPE
 70
     3
  0
LTYPE
  2
CONTINUOUS
 70
     0
  3
Solid Line
 72
    65
 73
     0
 40
0.0
  0
LTYPE
  2
CENTER
 70
     0
  3
____ _ ____ _ ____ _ ____ _ ____ _ ____ _ ____
 72
    65
 73
     4
 40
2.0
 49
1.25
 49
-0.25
 49
0.25
 49
-0.25
  0
LTYPE
  2
PHANTOM2
 70
     0
  3
___ _ _ ___ _ _ ___ _ _ ___ _ _
 72
    65
 73
     6
 40
1.25
 49
0.625
 49
-0.125
 49
0.125
 49
-0.125
 49
0.125
 49
-0.125
  0
ENDTAB
  0
TABLE
  2
LAYER
 70
     3
  0
LAYER
  2
0
 70
     0
 62
     7
  6
CONTINUOUS
  0
LAYER
  2
1
 70
     0
 62
     1
  6
CENTER
  0
LAYER
  2
3
 70
     0
 62
     3
  6
CONTINUOUS
  0
ENDTAB
  0
TABLE
  2
STYLE
 70
     3
  0
STYLE
  2
STANDARD
 70
     0
 40
0.0
 41
1.0
 50
0.0
 71
     0
 42
0.2
  3
romans.shx
  4

  0
STYLE
  2
K90
 70
     0
 40
0.0
 41
1.0
 50
0.0
 71
     0
 42
0.2
  3
romans.shx
  4

  0
STYLE
  2
STANDARD1
 70
     0
 40
0.0
 41
1.0
 50
0.0
 71
     0
 42
3.0
  3
txt
  4

  0
ENDTAB
  0
TABLE
  2
VIEW
 70
     1
  0
VIEW
  2
ALL
 70
     0
 40
270.0
 10
220.99159663865549
 20
135.0
 41
0.0
 11
0.0
 21
0.0
 31
1.0
 12
0.0
 22
0.0
 32
0.0
 42
0.0
 43
0.0
 44
0.0
 50
0.0
 71
     0
  0
ENDTAB
  0
TABLE
  2
UCS
 70
     0
  0
ENDTAB
  0
TABLE
  2
APPID
 70
     3
  0
APPID
  2
ACAD
 70
     0
  0
APPID
  2
ACAD_MLEADERVER
 70
     0
  0
APPID
  2
ACAD_NAV_VCDISPLAY
 70
     0
  0
ENDTAB
  0
TABLE
  2
DIMSTYLE
 70
     1
  0
DIMSTYLE
  2
STANDARD
 70
     0
  3

  4

  5

  6

  7

 40
1.0
 41
0.18
 42
0.0625
 43
0.38
 44
0.18
 45
0.0
 46
0.0
 47
0.0
 48
0.0
140
0.18
141
0.09
142
0.0
143
25.399999999999999
144
1.0
145
0.0
146
1.0
147
0.09
 71
     0
 72
     0
 73
     1
 74
     1
 75
     0
 76
     0
 77
     0
 78
     0
170
     0
171
     2
172
     0
173
     0
174
     0
175
     0
176
     0
177
     0
178
     0
  0
ENDTAB
  0
ENDSEC
  0
SECTION
  2
BLOCKS
  0
BLOCK
  8
0
  2
$MODEL_SPACE
 70
     0
 10
0.0
 20
0.0
 30
0.0
  3
$MODEL_SPACE
  1

  0
ENDBLK
  5
220
  8
0
  0
BLOCK
 67
     1
  8
0
  2
$PAPER_SPACE
 70
     0
 10
0.0
 20
0.0
 30
0.0
  3
$PAPER_SPACE
  1

  0
ENDBLK
  5
21E
 67
     1
  8
0
  0
ENDSEC
  0
SECTION
  2
ENTITIES
  0
ARC
  5
3D
  8
0
 10
79.797382201369643
 20
140.0
 30
0.0
 40
20.0
 50
265.73308655442389
 51
274.26691344558822
  0
ARC
  5
3E
  8
0
 10
96.297382201369643
 20
111.42116167511359
 30
0.0
 40
16.0
 50
98.445718423601079
 51
141.55428157639881
  0
ARC
  5
3F
  8
0
 10
78.569734837411843
 20
123.5457336246867
 30
0.0
 40
3.5
 50
218.44571842360071
 51
265.73308655442412
  0
ARC
  5
40
  8
0
 10
81.025029565327443
 20
123.5457336246867
 30
0.0
 40
3.5
 50
274.26691344561652
 51
321.5542815763996
  0
ARC
  5
41
  8
0
 10
79.797382201369714
 20
140.0
 30
0.0
 40
20.0
 50
205.73308655442389
 51
214.26691344558819
  0
ARC
  5
42
  8
0
 10
63.297382201369707
 20
111.42116167511359
 30
0.0
 40
16.0
 50
38.44571842360115
 51
81.554281576398864
  0
ARC
  5
43
  8
0
 10
64.933745837733369
 20
132.83604061641981
 30
0.0
 40
3.5
 50
158.44571842360079
 51
205.73308655442401
  0
ARC
  5
44
  8
0
 10
66.161393201691141
 20
130.7096930082669
 30
0.0
 40
3.5
 50
214.26691344561641
 51
261.55428157639972
  0
ARC
  5
45
  8
0
 10
79.797382201369743
 20
140.0
 30
0.0
 40
20.0
 50
145.73308655442401
 51
154.26691344558819
  0
ARC
  5
46
  8
0
 10
46.797382201369743
 20
140.0
 30
0.0
 40
16.0
 50
338.44571842360119
 51
21.554281576398889
  0
ARC
  5
47
  8
0
 10
66.161393201691169
 20
149.2903069917331
 30
0.0
 40
3.5
 50
98.445718423600781
 51
145.73308655442409
  0
ARC
  5
48
  8
0
 10
64.933745837733369
 20
147.16395938358019
 30
0.0
 40
3.5
 50
154.26691344561641
 51
201.55428157639969
  0
ARC
  5
49
  8
0
 10
79.797382201369714
 20
139.99999999999989
 30
0.0
 40
20.0
 50
85.733086554423963
 51
94.266913445588202
  0
ARC
  5
4A
  8
0
 10
63.297382201369743
 20
168.57883832488639
 30
0.0
 40
16.0
 50
278.44571842360108
 51
321.55428157639892
  0
ARC
  5
4B
  8
0
 10
81.025029565327515
 20
156.4542663753133
 30
0.0
 40
3.5
 50
38.445718423600788
 51
85.733086554424062
  0
ARC
  5
4C
  8
0
 10
78.569734837411914
 20
156.4542663753133
 30
0.0
 40
3.5
 50
94.266913445616439
 51
141.5542815763996
  0
ARC
  5
4D
  8
0
 10
79.797382201369643
 20
139.99999999999989
 30
0.0
 40
20.0
 50
25.733086554423931
 51
34.266913445588173
  0
ARC
  5
4E
  8
0
 10
96.297382201369643
 20
168.57883832488639
 30
0.0
 40
16.0
 50
218.44571842360111
 51
261.55428157639892
  0
ARC
  5
4F
  8
0
 10
94.661018565005975
 20
147.16395938358019
 30
0.0
 40
3.5
 50
338.44571842360079
 51
25.73308655442403
  0
ARC
  5
50
  8
0
 10
93.433371201048203
 20
149.29030699173299
 30
0.0
 40
3.5
 50
34.26691344561641
 51
81.554281576399674
  0
ARC
  5
51
  8
0
 10
94.661018565005975
 20
132.83604061641981
 30
0.0
 40
3.5
 50
334.26691344561641
 51
21.554281576399681
  0
ARC
  5
52
  8
0
 10
93.433371201048175
 20
130.7096930082669
 30
0.0
 40
3.5
 50
278.44571842360079
 51
325.73308655442412
  0
ARC
  5
53
  8
0
 10
112.7973822013696
 20
140.0
 30
0.0
 40
16.0
 50
158.44571842360111
 51
201.55428157639889
  0
ARC
  5
54
  8
0
 10
79.797382201369629
 20
140.0
 30
0.0
 40
20.0
 50
325.73308655442389
 51
334.26691344558822
  0
CIRCLE
  5
55
  8
0
 10
79.797382201369629
 20
140.0
 30
0.0
 40
10.0
  0
LINE
  5
56
  8
1
 10
79.797382201369629
 20
164.99999999999969
 30
0.0
 11
79.797382201369629
 21
115.0000000000002
 31
0.0
  0
LINE
  5
57
  8
1
 10
104.7973822013694
 20
140.0
 30
0.0
 11
54.797382201369828
 21
140.0
 31
0.0
  0
LINE
  5
58
  8
1
 10
155.78793399799019
 20
140.0
 30
0.0
 11
230.78793399799011
 21
140.0
 31
0.0
  0
LINE
  5
59
  8
1
 10
327.00390392377398
 20
140.0
 30
0.0
 11
277.00390392377437
 21
140.0
 31
0.0
  0
LINE
  5
5A
  8
1
 10
302.0039039237742
 20
164.99999999999969
 30
0.0
 11
302.0039039237742
 21
115.0000000000002
 31
0.0
  0
CIRCLE
  5
5B
  8
0
 10
302.0039039237742
 20
140.0
 30
0.0
 40
9.0
  0
ARC
  5
5C
  8
0
 10
302.0039039237742
 20
140.0
 30
0.0
 40
20.0
 50
325.73308655442389
 51
334.26691344558822
  0
ARC
  5
5D
  8
0
 10
335.0039039237742
 20
140.0
 30
0.0
 40
16.0
 50
158.44571842360111
 51
201.55428157639889
  0
ARC
  5
5E
  8
0
 10
315.63989292345269
 20
130.7096930082669
 30
0.0
 40
3.5
 50
278.44571842360079
 51
325.73308655442412
  0
ARC
  5
5F
  8
0
 10
316.86754028741058
 20
132.83604061641981
 30
0.0
 40
3.5
 50
334.26691344561641
 51
21.554281576399681
  0
ARC
  5
60
  8
0
 10
315.63989292345269
 20
149.29030699173299
 30
0.0
 40
3.5
 50
34.26691344561641
 51
81.554281576399674
  0
ARC
  5
61
  8
0
 10
316.86754028741058
 20
147.16395938358019
 30
0.0
 40
3.5
 50
338.44571842360079
 51
25.73308655442403
  0
ARC
  5
62
  8
0
 10
318.5039039237742
 20
168.57883832488639
 30
0.0
 40
16.0
 50
218.44571842360111
 51
261.55428157639892
  0
ARC
  5
63
  8
0
 10
302.0039039237742
 20
139.99999999999989
 30
0.0
 40
20.0
 50
25.733086554423931
 51
34.266913445588173
  0
ARC
  5
64
  8
0
 10
300.77625655981649
 20
156.4542663753133
 30
0.0
 40
3.5
 50
94.266913445616439
 51
141.5542815763996
  0
ARC
  5
65
  8
0
 10
303.23155128773209
 20
156.4542663753133
 30
0.0
 40
3.5
 50
38.445718423600788
 51
85.733086554424062
  0
ARC
  5
66
  8
0
 10
285.50390392377432
 20
168.57883832488639
 30
0.0
 40
16.0
 50
278.44571842360108
 51
321.55428157639892
  0
ARC
  5
67
  8
0
 10
302.0039039237742
 20
139.99999999999989
 30
0.0
 40
20.0
 50
85.733086554423963
 51
94.266913445588202
  0
ARC
  5
68
  8
0
 10
287.14026756013789
 20
147.16395938358019
 30
0.0
 40
3.5
 50
154.26691344561641
 51
201.55428157639969
  0
ARC
  5
69
  8
0
 10
288.36791492409583
 20
149.2903069917331
 30
0.0
 40
3.5
 50
98.445718423600781
 51
145.73308655442409
  0
ARC
  5
6A
  8
0
 10
269.00390392377432
 20
140.0
 30
0.0
 40
16.0
 50
338.44571842360119
 51
21.554281576398889
  0
ARC
  5
6B
  8
0
 10
302.00390392377432
 20
140.0
 30
0.0
 40
20.0
 50
145.73308655442401
 51
154.26691344558819
  0
ARC
  5
6C
  8
0
 10
288.36791492409571
 20
130.7096930082669
 30
0.0
 40
3.5
 50
214.26691344561641
 51
261.55428157639972
  0
ARC
  5
6D
  8
0
 10
287.14026756013789
 20
132.83604061641981
 30
0.0
 40
3.5
 50
158.44571842360079
 51
205.73308655442401
  0
ARC
  5
6E
  8
0
 10
285.50390392377432
 20
111.42116167511359
 30
0.0
 40
16.0
 50
38.44571842360115
 51
81.554281576398864
  0
ARC
  5
6F
  8
0
 10
302.0039039237742
 20
140.0
 30
0.0
 40
20.0
 50
205.73308655442389
 51
214.26691344558819
  0
ARC
  5
70
  8
0
 10
303.23155128773197
 20
123.5457336246867
 30
0.0
 40
3.5
 50
274.26691344561652
 51
321.5542815763996
  0
ARC
  5
71
  8
0
 10
300.77625655981637
 20
123.5457336246867
 30
0.0
 40
3.5
 50
218.44571842360071
 51
265.73308655442412
  0
ARC
  5
72
  8
0
 10
318.5039039237742
 20
111.42116167511359
 30
0.0
 40
16.0
 50
98.445718423601079
 51
141.55428157639881
  0
ARC
  5
73
  8
0
 10
302.0039039237742
 20
140.0
 30
0.0
 40
20.0
 50
265.73308655442389
 51
274.26691344558822
  0
ARC
  5
74
  8
0
 10
318.5039039237742
 20
111.42116167511359
 30
0.0
 40
19.0
 50
98.445718423601079
 51
141.55428157639881
  0
ARC
  5
75
  8
0
 10
335.0039039237742
 20
140.0
 30
0.0
 40
19.0
 50
158.44571842360111
 51
201.55428157639889
  0
ARC
  5
76
  8
0
 10
318.5039039237742
 20
168.57883832488639
 30
0.0
 40
19.0
 50
218.44571842360111
 51
261.55428157639892
  0
ARC
  5
77
  8
0
 10
285.50390392377432
 20
168.57883832488639
 30
0.0
 40
19.0
 50
278.44571842360108
 51
321.55428157639892
  0
ARC
  5
78
  8
0
 10
269.00390392377432
 20
140.0
 30
0.0
 40
19.0
 50
338.44571842360119
 51
21.554281576398889
  0
ARC
  5
79
  8
0
 10
285.50390392377432
 20
111.42116167511359
 30
0.0
 40
19.0
 50
38.44571842360115
 51
81.554281576398864
  0
ARC
  5
7A
  8
0
 10
302.0039039237742
 20
140.0
 30
0.0
 40
17.0
 50
265.73308655442389
 51
274.26691344558822
  0
ARC
  5
7B
  8
0
 10
302.0039039237742
 20
140.0
 30
0.0
 40
17.0
 50
325.73308655442389
 51
334.26691344558822
  0
ARC
  5
7C
  8
0
 10
302.0039039237742
 20
139.99999999999989
 30
0.0
 40
17.0
 50
25.733086554423931
 51
34.266913445588173
  0
ARC
  5
7D
  8
0
 10
302.0039039237742
 20
139.99999999999989
 30
0.0
 40
17.0
 50
85.733086554423963
 51
94.266913445588202
  0
ARC
  5
7E
  8
0
 10
302.00390392377432
 20
140.0
 30
0.0
 40
17.0
 50
145.73308655442401
 51
154.26691344558819
  0
ARC
  5
7F
  8
0
 10
302.0039039237742
 20
140.0
 30
0.0
 40
17.0
 50
205.73308655442389
 51
214.26691344558819
  0
ARC
  5
80
  8
0
 10
315.63989292345269
 20
130.7096930082669
 30
0.0
 40
0.5
 50
278.44571842360079
 51
325.73308655442412
  0
ARC
  5
81
  8
0
 10
316.86754028741058
 20
132.83604061641981
 30
0.0
 40
0.5
 50
334.26691344561641
 51
21.554281576399681
  0
ARC
  5
82
  8
0
 10
316.86754028741058
 20
147.16395938358019
 30
0.0
 40
0.5
 50
338.44571842360079
 51
25.73308655442403
  0
ARC
  5
83
  8
0
 10
315.63989292345269
 20
149.29030699173299
 30
0.0
 40
0.5
 50
34.26691344561641
 51
81.554281576399674
  0
ARC
  5
84
  8
0
 10
303.23155128773209
 20
156.4542663753133
 30
0.0
 40
0.5
 50
38.445718423600788
 51
85.733086554424062
  0
ARC
  5
85
  8
0
 10
300.77625655981649
 20
156.4542663753133
 30
0.0
 40
0.5
 50
94.266913445616439
 51
141.5542815763996
  0
ARC
  5
86
  8
0
 10
288.36791492409583
 20
149.2903069917331
 30
0.0
 40
0.5
 50
98.445718423600781
 51
145.73308655442409
  0
ARC
  5
87
  8
0
 10
287.14026756013789
 20
147.16395938358019
 30
0.0
 40
0.5
 50
154.26691344561641
 51
201.55428157639969
  0
ARC
  5
88
  8
0
 10
287.14026756013789
 20
132.83604061641981
 30
0.0
 40
0.5
 50
158.44571842360079
 51
205.73308655442401
  0
ARC
  5
89
  8
0
 10
288.36791492409571
 20
130.7096930082669
 30
0.0
 40
0.5
 50
214.26691344561641
 51
261.55428157639972
  0
ARC
  5
8A
  8
0
 10
300.77625655981637
 20
123.5457336246867
 30
0.0
 40
0.5
 50
218.44571842360071
 51
265.73308655442412
  0
ARC
  5
8B
  8
0
 10
303.23155128773197
 20
123.5457336246867
 30
0.0
 40
0.5
 50
274.26691344561652
 51
321.5542815763996
  0
TEXT
  5
8C
  8
0
 10
292.4586181789436
 20
146.0151893626915
 30
0.0
 40
3.0
  1
EK40
 50
30.00000000000027
 41
0.9
  7
K90
 72
     1
 11
296.96813617436402
 21
148.61876079126301
 31
0.0
  0
CIRCLE
  5
9F
  8
3
 10
302.0039039237742
 20
140.0
 30
0.0
 40
3.323499999999981
  0
CIRCLE
  5
A0
  8
0
 10
302.0039039237742
 20
140.0
 30
0.0
 40
3.9999999999999711
  0
CIRCLE
  5
A1
  8
0
 10
302.0039039237742
 20
140.0
 30
0.0
 40
6.5000000000000142
  0
LINE
  5
A3
  8
0
 10
172.78793399799019
 20
229.0
 30
0.0
 11
185.78793399799019
 21
229.0
 31
0.0
  0
LINE
  5
A4
  8
0
 10
172.78793399799019
 20
211.0
 30
0.0
 11
185.78793399799019
 21
211.0
 31
0.0
  0
LINE
  5
A5
  8
0
 10
185.78793399799019
 20
229.0
 30
0.0
 11
185.78793399799019
 21
211.0
 31
0.0
  0
LINE
  5
B5
  8
1
 10
155.78793399799019
 20
220.0
 30
0.0
 11
230.78793399799011
 21
220.0
 31
0.0
  0
LINE
  5
B7
  8
0
 10
169.02049472777861
 20
238.36363636363629
 30
0.0
 11
170.78793399799019
 21
238.36363636363629
 31
0.0
  0
LINE
  5
B8
  8
0
 10
172.78793399799019
 20
236.36363636363629
 30
0.0
 11
172.78793399799019
 21
203.63636363636371
 31
0.0
  0
ARC
  5
B9
  8
0
 10
170.78793399799019
 20
236.36363636363629
 30
0.0
 40
2.0
 50
0.0
 51
90.0
  0
ARC
  5
BC
  8
0
 10
220.78793399799031
 20
220.0
 30
0.0
 40
60.0
 50
167.619188022717
 51
192.380811977283
  0
POLYLINE
  5
BE
  8
0
 66
     1
 10
0.0
 20
0.0
 30
0.0
  0
VERTEX
  5
BF
  8
0
 10
164.21939150306639
 20
152.75235107717091
 30
0.0
 42
-0.247873808078743
  0
VERTEX
  5
C0
  8
0
 10
164.05455864795729
 20
152.839415962771
 30
0.0
 42
-0.0810204484482689
  0
VERTEX
  5
C1
  8
0
 10
163.8255680515785
 20
153.32937438024601
 30
0.0
 42
-0.0397573276191218
 70
     2
 50
105.78582998411611
  0
VERTEX
  5
C2
  8
0
 10
163.69280156743179
 20
153.99791135405579
 30
0.0
 42
-0.0373620212112805
  0
VERTEX
  5
C3
  8
0
 10
163.66244103679171
 20
154.72243186433539
 30
0.0
 42
-0.0291505297543052
  0
SEQEND
  5
C4
  8
0
  0
POLYLINE
  5
C5
  8
0
 66
     1
 10
0.0
 20
0.0
 30
0.0
  0
VERTEX
  5
C6
  8
0
 10
163.66244103679171
 20
154.72243186433539
 30
0.0
 42
-0.0147417717267633
  0
VERTEX
  5
C7
  8
0
 10
163.71007868111769
 20
156.33781747075389
 30
0.0
 42
-0.0149397770522952
  0
VERTEX
  5
C8
  8
0
 10
163.7841471759308
 20
157.1693506325567
 30
0.0
 42
-0.0474886182179751
 70
     2
 50
81.889164676281595
  0
SEQEND
  5
C9
  8
0
  0
LINE
  5
CA
  8
0
 10
164.21939150306639
 20
151.26097817179769
 30
0.0
 11
164.21939150306639
 21
148.6835871316124
 31
0.0
  0
LINE
  5
CB
  8
0
 10
164.21939150306639
 20
128.73902182820231
 30
0.0
 11
164.21939150306639
 21
131.3164128683876
 31
0.0
  0
POLYLINE
  5
CC
  8
0
 66
     1
 10
0.0
 20
0.0
 30
0.0
  0
VERTEX
  5
CD
  8
0
 10
163.66244103679171
 20
125.27756813566459
 30
0.0
 42
0.0147417717267633
  0
VERTEX
  5
CE
  8
0
 10
163.71007868111769
 20
123.6621825292461
 30
0.0
 42
0.0149397770522952
  0
VERTEX
  5
CF
  8
0
 10
163.7841471759308
 20
122.8306493674433
 30
0.0
 42
0.0474886182179751
 70
     2
 50
278.11083532371839
  0
SEQEND
  5
D0
  8
0
  0
POLYLINE
  5
D1
  8
0
 66
     1
 10
0.0
 20
0.0
 30
0.0
  0
VERTEX
  5
D2
  8
0
 10
164.21939150306639
 20
127.2476489228291
 30
0.0
 42
0.247873808078743
  0
VERTEX
  5
D3
  8
0
 10
164.05455864795729
 20
127.160584037229
 30
0.0
 42
0.0810204484482689
  0
VERTEX
  5
D4
  8
0
 10
163.8255680515785
 20
126.67062561975401
 30
0.0
 42
0.0397573276191218
 70
     2
 50
254.21417001588389
  0
VERTEX
  5
D5
  8
0
 10
163.69280156743179
 20
126.0020886459442
 30
0.0
 42
0.0373620212112805
 50
254.21417001588389
  0
VERTEX
  5
D6
  8
0
 10
163.66244103679171
 20
125.27756813566459
 30
0.0
 42
0.0291505297543052
  0
SEQEND
  5
D7
  8
0
  0
ARC
  5
D8
  8
0
 10
194.96010283881549
 20
139.99999999999989
 30
0.0
 40
31.297661802023811
 50
169.1747953988928
 51
190.82520460110709
  0
POLYLINE
  5
D9
  8
0
 66
     1
 10
0.0
 20
0.0
 30
0.0
  0
VERTEX
  5
DA
  8
0
 10
164.21939150306639
 20
151.26097817179769
 30
0.0
 42
-0.258181361927964
  0
VERTEX
  5
DB
  8
0
 10
164.4356659407984
 20
151.65190123820361
 30
0.0
 42
-0.0766461092244234
  0
VERTEX
  5
DC
  8
0
 10
165.73880793249961
 20
152.21387414523559
 30
0.0
 42
-0.0367580444095059
 70
     2
 50
14.56200013062003
  0
VERTEX
  5
DD
  8
0
 10
167.49925131772079
 20
152.53544325381111
 30
0.0
 42
-0.0344500128526154
  0
VERTEX
  5
DE
  8
0
 10
169.40700368332969
 20
152.60857658096421
 30
0.0
 42
-0.0268036255446726
  0
SEQEND
  5
DF
  8
0
  0
LINE
  5
E0
  8
0
 10
169.40700368332969
 20
152.60857658096421
 30
0.0
 11
170.78793399799019
 21
152.60857658096421
 31
0.0
  0
POLYLINE
  5
E1
  8
0
 66
     1
 10
0.0
 20
0.0
 30
0.0
  0
VERTEX
  5
E2
  8
0
 10
170.78793399799019
 20
152.60857658096421
 30
0.0
 42
-0.0681479384410324
  0
VERTEX
  5
E3
  8
0
 10
171.58310107487779
 20
152.4996929158026
 30
0.0
 42
-0.0803606510300774
  0
VERTEX
  5
E4
  8
0
 10
172.2021475603633
 20
152.21387414523559
 30
0.0
 42
-0.1070770247405605
 70
     2
 50
326.0279416034038
  0
VERTEX
  5
E5
  8
0
 10
172.68111931948641
 20
151.71448366027971
 30
0.0
 42
-0.1613150431834144
  0
VERTEX
  5
E6
  8
0
 10
172.78793399799019
 20
151.26097817179769
 30
0.0
 42
-0.1386762741031753
  0
SEQEND
  5
E7
  8
0
  0
POLYLINE
  5
E8
  8
0
 66
     1
 10
0.0
 20
0.0
 30
0.0
  0
VERTEX
  5
E9
  8
0
 10
169.40700368332969
 20
147.1407051067446
 30
0.0
 42
-0.0306536905819871
  0
VERTEX
  5
EA
  8
0
 10
167.27724766111621
 20
147.27139767609361
 30
0.0
 42
-0.0416512233807995
  0
VERTEX
  5
EB
  8
0
 10
165.73880793249961
 20
147.59260478925751
 30
0.0
 42
-0.0836033579932023
 70
     2
 50
163.43664790067871
  0
VERTEX
  5
EC
  8
0
 10
164.40032684477529
 20
148.2489388801871
 30
0.0
 42
-0.2840994918148875
  0
VERTEX
  5
ED
  8
0
 10
164.21939150306639
 20
148.6835871316124
 30
0.0
 42
-0.2415588787634348
  0
SEQEND
  5
EE
  8
0
  0
LINE
  5
EF
  8
0
 10
169.40700368332969
 20
147.1407051067446
 30
0.0
 11
170.78793399799019
 21
147.1407051067446
 31
0.0
  0
POLYLINE
  5
F0
  8
0
 66
     1
 10
0.0
 20
0.0
 30
0.0
  0
VERTEX
  5
F1
  8
0
 10
172.78793399799019
 20
148.6835871316124
 30
0.0
 42
-0.1238162327336904
  0
VERTEX
  5
F2
  8
0
 10
172.64489447565421
 20
148.11481412978591
 30
0.0
 42
-0.1056293744550649
  0
VERTEX
  5
F3
  8
0
 10
172.2021475603633
 20
147.59260478925751
 30
0.0
 42
-0.0871687574442717
 70
     2
 50
217.64806751610101
  0
VERTEX
  5
F4
  8
0
 10
171.5107986247462
 20
147.2298778202566
 30
0.0
 42
-0.09354480595656
  0
VERTEX
  5
F5
  8
0
 10
170.78793399799019
 20
147.14070510674631
 30
0.0
 42
-0.0774761684787331
  0
SEQEND
  5
F6
  8
0
  0
POLYLINE
  5
F7
  8
0
 66
     1
 10
0.0
 20
0.0
 30
0.0
  0
VERTEX
  5
F8
  8
0
 10
169.40700368332969
 20
132.8592948932554
 30
0.0
 42
0.0306536905819871
  0
VERTEX
  5
F9
  8
0
 10
167.27724766111621
 20
132.72860232390639
 30
0.0
 42
0.0416512233807995
  0
VERTEX
  5
FA
  8
0
 10
165.73880793249961
 20
132.40739521074249
 30
0.0
 42
0.0836033579932023
 70
     2
 50
196.56335209932129
  0
VERTEX
  5
FB
  8
0
 10
164.40032684477529
 20
131.7510611198129
 30
0.0
 42
0.2840994918148875
 50
196.56335209932129
  0
VERTEX
  5
FC
  8
0
 10
164.21939150306639
 20
131.3164128683876
 30
0.0
 42
0.2415588787634348
  0
SEQEND
  5
FD
  8
0
  0
LINE
  5
FE
  8
0
 10
169.40700368332969
 20
132.8592948932554
 30
0.0
 11
170.78793399799019
 21
132.8592948932554
 31
0.0
  0
POLYLINE
  5
FF
  8
0
 66
     1
 10
0.0
 20
0.0
 30
0.0
  0
VERTEX
  5
100
  8
0
 10
172.78793399799019
 20
131.3164128683876
 30
0.0
 42
0.1238162327336904
  0
VERTEX
  5
101
  8
0
 10
172.64489447565421
 20
131.88518587021409
 30
0.0
 42
0.1056293744550649
  0
VERTEX
  5
102
  8
0
 10
172.2021475603633
 20
132.40739521074249
 30
0.0
 42
0.0871687574442717
 70
     2
 50
142.35193248389899
  0
VERTEX
  5
103
  8
0
 10
171.5107986247462
 20
132.77012217974351
 30
0.0
 42
0.09354480595656
 50
142.35193248389899
  0
VERTEX
  5
104
  8
0
 10
170.78793399799019
 20
132.8592948932538
 30
0.0
 42
0.0774761684787331
  0
SEQEND
  5
105
  8
0
  0
POLYLINE
  5
106
  8
0
 66
     1
 10
0.0
 20
0.0
 30
0.0
  0
VERTEX
  5
107
  8
0
 10
170.78793399799019
 20
127.3914234190357
 30
0.0
 42
0.0681479384410324
  0
VERTEX
  5
108
  8
0
 10
171.58310107487779
 20
127.5003070841975
 30
0.0
 42
0.0803606510300774
  0
VERTEX
  5
109
  8
0
 10
172.2021475603633
 20
127.78612585476441
 30
0.0
 42
0.1070770247405605
 70
     2
 50
33.972058396596253
  0
VERTEX
  5
10A
  8
0
 10
172.68111931948641
 20
128.28551633972029
 30
0.0
 42
0.1613150431834144
 50
33.972058396596253
  0
VERTEX
  5
10B
  8
0
 10
172.78793399799019
 20
128.73902182820231
 30
0.0
 42
0.1386762741031753
  0
SEQEND
  5
10C
  8
0
  0
POLYLINE
  5
10D
  8
0
 66
     1
 10
0.0
 20
0.0
 30
0.0
  0
VERTEX
  5
10E
  8
0
 10
164.21939150306639
 20
128.73902182820231
 30
0.0
 42
0.258181361927964
  0
VERTEX
  5
10F
  8
0
 10
164.4356659407984
 20
128.34809876179639
 30
0.0
 42
0.0766461092244234
  0
VERTEX
  5
110
  8
0
 10
165.73880793249961
 20
127.78612585476441
 30
0.0
 42
0.0367580444095059
 70
     2
 50
345.43799986938001
  0
VERTEX
  5
111
  8
0
 10
167.49925131772079
 20
127.4645567461889
 30
0.0
 42
0.0344500128526154
 50
345.43799986938001
  0
VERTEX
  5
112
  8
0
 10
169.40700368332969
 20
127.3914234190357
 30
0.0
 42
0.0268036255446726
  0
SEQEND
  5
113
  8
0
  0
LINE
  5
114
  8
0
 10
169.40700368332969
 20
127.3914234190357
 30
0.0
 11
170.78793399799019
 21
127.3914234190357
 31
0.0
  0
LINE
  5
116
  8
0
 10
169.40700368332969
 20
216.84312293246489
 30
0.0
 11
170.78793399799019
 21
216.84312293246489
 31
0.0
  0
LINE
  5
11F
  8
0
 10
164.21939150306639
 20
221.48805741086039
 30
0.0
 11
164.21939150306639
 21
218.51194258913961
 31
0.0
  0
POLYLINE
  5
127
  8
0
 66
     1
 10
0.0
 20
0.0
 30
0.0
  0
VERTEX
  5
128
  8
0
 10
172.78793399799019
 20
218.51194258913961
 30
0.0
 42
-0.1157061221278919
  0
VERTEX
  5
129
  8
0
 10
172.64183691414021
 20
217.88906651710559
 30
0.0
 42
-0.1040348057808744
  0
VERTEX
  5
12A
  8
0
 10
172.2021475603633
 20
217.33190889332761
 30
0.0
 42
-0.090899700527906
 70
     2
 50
219.84195232356601
  0
VERTEX
  5
12B
  8
0
 10
171.5688337767692
 20
216.97426574525511
 30
0.0
 42
-0.0833851976864013
  0
VERTEX
  5
12C
  8
0
 10
170.78793399799019
 20
216.84312293246489
 30
0.0
 42
-0.0833851976864072
  0
SEQEND
  5
12D
  8
0
  0
POLYLINE
  5
12E
  8
0
 66
     1
 10
0.0
 20
0.0
 30
0.0
  0
VERTEX
  5
12F
  8
0
 10
169.40700368332969
 20
216.84312293246489
 30
0.0
 42
-0.0331294507717754
  0
VERTEX
  5
130
  8
0
 10
167.28035558147931
 20
216.9841871261514
 30
0.0
 42
-0.0447219732328795
  0
VERTEX
  5
131
  8
0
 10
165.73880793249961
 20
217.33190889332761
 30
0.0
 42
-0.0874955819920872
 70
     2
 50
162.1673689071296
  0
VERTEX
  5
132
  8
0
 10
164.410886094083
 20
218.0330327722836
 30
0.0
 42
-0.2714272851995254
  0
VERTEX
  5
133
  8
0
 10
164.21939150306639
 20
218.51194258913961
 30
0.0
 42
-0.2316302955616549
  0
SEQEND
  5
134
  8
0
  0
POLYLINE
  5
135
  8
0
 66
     1
 10
0.0
 20
0.0
 30
0.0
  0
VERTEX
  5
136
  8
0
 10
169.40700368332969
 20
223.15687706753499
 30
0.0
 42
0.0331294507717754
  0
VERTEX
  5
137
  8
0
 10
167.28035558147931
 20
223.0158128738486
 30
0.0
 42
0.0447219732328795
  0
VERTEX
  5
138
  8
0
 10
165.73880793249961
 20
222.66809110667239
 30
0.0
 42
0.0874955819920872
 70
     2
 50
197.8326310928704
  0
VERTEX
  5
139
  8
0
 10
164.410886094083
 20
221.9669672277164
 30
0.0
 42
0.2714272851995254
  0
VERTEX
  5
13A
  8
0
 10
164.21939150306639
 20
221.48805741086039
 30
0.0
 42
0.2316302955616549
  0
SEQEND
  5
13B
  8
0
  0
LINE
  5
13C
  8
0
 10
169.40700368332969
 20
223.15687706753499
 30
0.0
 11
170.78793399799019
 21
223.15687706753499
 31
0.0
  0
POLYLINE
  5
13D
  8
0
 66
     1
 10
0.0
 20
0.0
 30
0.0
  0
VERTEX
  5
13E
  8
0
 10
172.78793399799019
 20
221.48805741086039
 30
0.0
 42
0.1157061221278919
  0
VERTEX
  5
13F
  8
0
 10
172.64183691414021
 20
222.11093348289441
 30
0.0
 42
0.1040348057808744
  0
VERTEX
  5
140
  8
0
 10
172.2021475603633
 20
222.66809110667239
 30
0.0
 42
0.090899700527906
 70
     2
 50
140.15804767643391
  0
VERTEX
  5
141
  8
0
 10
171.5688337767692
 20
223.02573425474489
 30
0.0
 42
0.0833851976864013
  0
VERTEX
  5
142
  8
0
 10
170.78793399799019
 20
223.15687706753499
 30
0.0
 42
0.0833851976864072
  0
SEQEND
  5
143
  8
0
  0
POLYLINE
  5
144
  8
0
 66
     1
 10
0.0
 20
0.0
 30
0.0
  0
VERTEX
  5
145
  8
0
 10
163.66244103679171
 20
211.5
 30
0.0
 42
-0.012718033617553
  0
VERTEX
  5
146
  8
0
 10
163.71011465248509
 20
213.3739494640711
 30
0.0
 42
-0.0178600894518953
  0
VERTEX
  5
147
  8
0
 10
163.82556805157861
 20
214.70401476680931
 30
0.0
 42
-0.0415652416655366
 70
     2
 50
82.992602688141488
  0
VERTEX
  5
148
  8
0
 10
164.080437293053
 20
215.92745192403271
 30
0.0
 42
-0.332035681531368
  0
VERTEX
  5
149
  8
0
 10
164.21939150306639
 20
216.03116113726529
 30
0.0
 42
-0.3320356815313141
  0
SEQEND
  5
14A
  8
0
  0
POLYLINE
  5
14B
  8
0
 66
     1
 10
0.0
 20
0.0
 30
0.0
  0
VERTEX
  5
14C
  8
0
 10
164.21939150306639
 20
205.84995774385351
 30
0.0
 42
-0.3473258706611451
  0
VERTEX
  5
14D
  8
0
 10
164.0849457481703
 20
205.95616279569319
 30
0.0
 42
-0.0338571882308007
  0
VERTEX
  5
14E
  8
0
 10
163.82556805157861
 20
207.5048168066883
 30
0.0
 42
-0.0143632074799382
 70
     2
 50
95.629719082413075
  0
VERTEX
  5
14F
  8
0
 10
163.6918991362418
 20
209.424107103339
 30
0.0
 42
-0.0133101052982131
  0
VERTEX
  5
150
  8
0
 10
163.66244103679171
 20
211.5
 30
0.0
 42
-0.0102024175690987
  0
SEQEND
  5
151
  8
0
  0
POLYLINE
  5
152
  8
0
 66
     1
 10
0.0
 20
0.0
 30
0.0
  0
VERTEX
  5
153
  8
0
 10
164.21939150306639
 20
234.15004225614641
 30
0.0
 42
0.3473258706611451
  0
VERTEX
  5
154
  8
0
 10
164.0849457481703
 20
234.04383720430681
 30
0.0
 42
0.0338571882308007
  0
VERTEX
  5
155
  8
0
 10
163.82556805157861
 20
232.4951831933117
 30
0.0
 42
0.0143632074799382
 70
     2
 50
264.37028091758702
  0
VERTEX
  5
156
  8
0
 10
163.6918991362418
 20
230.57589289666109
 30
0.0
 42
0.0133101052982131
  0
VERTEX
  5
157
  8
0
 10
163.66244103679171
 20
228.5
 30
0.0
 42
0.0102024175690987
  0
SEQEND
  5
158
  8
0
  0
POLYLINE
  5
159
  8
0
 66
     1
 10
0.0
 20
0.0
 30
0.0
  0
VERTEX
  5
15A
  8
0
 10
163.66244103679171
 20
228.5
 30
0.0
 42
0.012718033617553
  0
VERTEX
  5
15B
  8
0
 10
163.71011465248509
 20
226.6260505359289
 30
0.0
 42
0.0178600894518953
  0
VERTEX
  5
15C
  8
0
 10
163.8255680515785
 20
225.29598523319069
 30
0.0
 42
0.0415652416655366
 70
     2
 50
277.00739731185848
  0
VERTEX
  5
15D
  8
0
 10
164.080437293053
 20
224.07254807596729
 30
0.0
 42
0.332035681531368
  0
VERTEX
  5
15E
  8
0
 10
164.21939150306639
 20
223.9688388627346
 30
0.0
 42
0.3320356815313141
  0
SEQEND
  5
15F
  8
0
  0
LINE
  5
16F
  8
0
 10
169.40700368332969
 20
235.52494111428319
 30
0.0
 11
170.78793399799019
 21
235.52494111428319
 31
0.0
  0
LINE
  5
1D3
  8
1
 10
155.78793399799019
 20
60.0
 30
0.0
 11
230.78793399799011
 21
60.0
 31
0.0
  0
LINE
  5
1E3
  8
0
 10
185.78793399799019
 20
69.000000000000028
 30
0.0
 11
185.78793399799019
 21
51.000000000000028
 31
0.0
  0
LINE
  5
1E4
  8
0
 10
172.78793399799019
 20
51.0
 30
0.0
 11
185.78793399799019
 21
51.000000000000028
 31
0.0
  0
LINE
  5
1E5
  8
0
 10
172.78793399799019
 20
69.0
 30
0.0
 11
185.78793399799019
 21
69.000000000000028
 31
0.0
  0
ARC
  5
2C8
  8
0
 10
169.40700368332969
 20
127.0000004768372
 30
0.0
 40
7.0
 50
194.19855987504249
 51
270.0
  0
ARC
  5
2C9
  8
0
 10
170.78793399799011
 20
122.0000004768372
 30
0.0
 40
2.0
 50
270.0
 51
0.0
  0
ARC
  5
2CA
  8
0
 10
170.78793399799019
 20
158.0000004768371
 30
0.0
 40
2.0
 50
0.0
 51
90.0
  0
LINE
  5
2CB
  8
0
 10
172.78793399799019
 20
149.00000047683719
 30
0.0
 11
185.78793399799019
 21
149.00000047683719
 31
0.0
  0
LINE
  5
2CC
  8
0
 10
172.78793399799019
 20
131.00000047683719
 30
0.0
 11
185.78793399799019
 21
131.00000047683719
 31
0.0
  0
LINE
  5
2CD
  8
0
 10
172.78793399799019
 20
158.0000004768371
 30
0.0
 11
172.78793399799019
 21
122.0000004768372
 31
0.0
  0
LINE
  5
2CE
  8
0
 10
169.4070036833298
 20
160.0000004768371
 30
0.0
 11
170.78793399799019
 21
160.0000004768371
 31
0.0
  0
LINE
  5
2CF
  8
0
 10
169.40700368332969
 20
120.0000004768372
 30
0.0
 11
170.78793399799011
 21
120.0000004768372
 31
0.0
  0
LINE
  5
2D0
  8
0
 10
185.78793399799019
 20
149.00000047683719
 30
0.0
 11
185.78793399799019
 21
131.00000047683719
 31
0.0
  0
ARC
  5
2D1
  8
0
 10
187.6879339979902
 20
143.6000004768369
 30
0.0
 40
0.6
 50
270.0
 51
299.99999999999841
  0
ARC
  5
2D2
  8
0
 10
186.38793399799019
 20
143.60000047683681
 30
0.0
 40
0.6
 50
180.0
 51
270.0
  0
ARC
  5
2D3
  8
0
 10
187.6879339979902
 20
136.4000004768375
 30
0.0
 40
0.6
 50
60.000000000003908
 51
90.0
  0
ARC
  5
2D4
  8
0
 10
186.3879339979903
 20
136.4000004768375
 30
0.0
 40
0.6
 50
90.0
 51
180.0
  0
LINE
  5
2D5
  8
0
 10
186.38793399799019
 20
143.0000004768369
 30
0.0
 11
187.6879339979902
 21
143.0000004768369
 31
0.0
  0
LINE
  5
2D6
  8
0
 10
186.3879339979903
 20
137.0000004768375
 30
0.0
 11
187.6879339979902
 21
137.0000004768375
 31
0.0
  0
LINE
  5
2D7
  8
0
 10
224.58793399799021
 20
144.00000047683719
 30
0.0
 11
225.78793399799019
 21
142.80000047683711
 31
0.0
  0
LINE
  5
2D8
  8
0
 10
225.78793399799031
 20
137.2000004768372
 30
0.0
 11
224.58793399799021
 21
136.00000047683719
 31
0.0
  0
LINE
  5
2D9
  8
3
 10
188.409021949698
 20
143.3235004768371
 30
0.0
 11
225.26443399799021
 21
143.3235004768371
 31
0.0
  0
LINE
  5
2DA
  8
3
 10
188.409021949698
 20
136.67650047683711
 30
0.0
 11
225.26443399799021
 21
136.67650047683719
 31
0.0
  0
LINE
  5
2DB
  8
0
 10
189.58075432101839
 20
144.0000004768371
 30
0.0
 11
224.58793399799021
 21
144.00000047683719
 31
0.0
  0
LINE
  5
2DC
  8
0
 10
189.5807543210185
 20
136.00000047683719
 30
0.0
 11
224.58793399799021
 21
136.00000047683719
 31
0.0
  0
LINE
  5
2DD
  8
0
 10
224.58793399799021
 20
144.00000047683719
 30
0.0
 11
224.58793399799021
 21
136.00000047683719
 31
0.0
  0
LINE
  5
2DE
  8
0
 10
225.78793399799019
 20
142.80000047683711
 30
0.0
 11
225.78793399799031
 21
137.2000004768372
 31
0.0
  0
ARC
  5
2DF
  8
0
 10
220.78793399799031
 20
140.00000047683719
 30
0.0
 40
60.0
 50
165.8014401249574
 51
194.19855987504249
  0
ARC
  5
2E0
  8
0
 10
169.4070036833298
 20
153.0000004768371
 30
0.0
 40
7.0
 50
90.0
 51
165.8014401249574
  0
LINE
  5
2E1
  8
0
 10
187.8487035134489
 20
143.0000004768369
 30
0.0
 11
187.8487035134489
 21
137.00000047683741
 31
0.0
  0
LINE
  5
2E2
  8
0
 10
187.98793399799021
 20
143.08038523456619
 30
0.0
 11
189.58075432101839
 21
144.0000004768371
 31
0.0
  0
LINE
  5
2E3
  8
0
 10
187.98793399799021
 20
136.91961571910809
 30
0.0
 11
189.58075432101839
 21
136.00000047683719
 31
0.0
  0
LINE
  5
2E4
  8
0
 10
189.58075432101839
 20
144.0000004768371
 30
0.0
 11
189.5807543210185
 21
136.00000047683719
 31
0.0
  0
LINE
  5
2F2
  8
0
 10
189.5807543210183
 20
224.00000047683719
 30
0.0
 11
189.58075432101839
 21
216.00000047683719
 31
0.0
  0
LINE
  5
2F3
  8
0
 10
187.9879339979901
 20
216.91961571910821
 30
0.0
 11
189.5807543210183
 21
216.00000047683719
 31
0.0
  0
LINE
  5
2F4
  8
0
 10
187.9879339979901
 20
223.08038523456619
 30
0.0
 11
189.5807543210183
 21
224.00000047683719
 31
0.0
  0
LINE
  5
2F5
  8
0
 10
187.84870351344881
 20
223.0000004768369
 30
0.0
 11
187.84870351344881
 21
217.00000047683741
 31
0.0
  0
LINE
  5
2F6
  8
0
 10
225.78793399799011
 20
222.8000004768372
 30
0.0
 11
225.78793399799019
 21
217.2000004768372
 31
0.0
  0
LINE
  5
2F7
  8
0
 10
224.58793399799009
 20
224.00000047683719
 30
0.0
 11
224.58793399799009
 21
216.00000047683719
 31
0.0
  0
LINE
  5
2F8
  8
0
 10
189.58075432101839
 20
216.00000047683719
 30
0.0
 11
224.58793399799009
 21
216.00000047683719
 31
0.0
  0
LINE
  5
2F9
  8
0
 10
189.5807543210183
 20
224.00000047683719
 30
0.0
 11
224.58793399799009
 21
224.00000047683719
 31
0.0
  0
LINE
  5
2FA
  8
3
 10
188.40902194969789
 20
216.67650047683719
 30
0.0
 11
225.26443399799021
 21
216.67650047683719
 31
0.0
  0
LINE
  5
2FB
  8
3
 10
188.40902194969789
 20
223.32350047683721
 30
0.0
 11
225.26443399799021
 21
223.32350047683721
 31
0.0
  0
LINE
  5
2FC
  8
0
 10
225.78793399799019
 20
217.2000004768372
 30
0.0
 11
224.58793399799009
 21
216.00000047683719
 31
0.0
  0
LINE
  5
2FD
  8
0
 10
224.58793399799009
 20
224.00000047683719
 30
0.0
 11
225.78793399799011
 21
222.8000004768372
 31
0.0
  0
LINE
  5
2FE
  8
0
 10
186.38793399799019
 20
217.0000004768375
 30
0.0
 11
187.68793399799009
 21
217.0000004768375
 31
0.0
  0
LINE
  5
2FF
  8
0
 10
186.3879339979901
 20
223.0000004768369
 30
0.0
 11
187.68793399799009
 21
223.0000004768369
 31
0.0
  0
ARC
  5
300
  8
0
 10
186.38793399799019
 20
216.40000047683759
 30
0.0
 40
0.6
 50
90.0
 51
180.0
  0
ARC
  5
301
  8
0
 10
187.68793399799009
 20
216.4000004768375
 30
0.0
 40
0.6
 50
60.000000000003908
 51
90.0
  0
ARC
  5
302
  8
0
 10
186.3879339979901
 20
223.6000004768369
 30
0.0
 40
0.6
 50
180.0
 51
270.0
  0
ARC
  5
303
  8
0
 10
187.68793399799009
 20
223.6000004768369
 30
0.0
 40
0.6
 50
270.0
 51
299.99999999999841
  0
LINE
  5
304
  8
0
 10
189.5807543210183
 20
63.999999999999972
 30
0.0
 11
189.58075432101839
 21
56.000000000000028
 31
0.0
  0
LINE
  5
305
  8
0
 10
187.9879339979901
 20
56.919615242270993
 30
0.0
 11
189.5807543210183
 21
56.000000000000028
 31
0.0
  0
LINE
  5
306
  8
0
 10
187.9879339979901
 20
63.080384757729028
 30
0.0
 11
189.5807543210183
 21
63.999999999999972
 31
0.0
  0
LINE
  5
307
  8
0
 10
187.84870351344881
 20
62.999999999999737
 30
0.0
 11
187.84870351344881
 21
57.000000000000249
 31
0.0
  0
LINE
  5
308
  8
0
 10
225.78793399799011
 20
62.800000000000011
 30
0.0
 11
225.78793399799019
 21
57.200000000000017
 31
0.0
  0
LINE
  5
309
  8
0
 10
224.58793399799009
 20
64.000000000000028
 30
0.0
 11
224.58793399799009
 21
56.000000000000028
 31
0.0
  0
LINE
  5
30A
  8
0
 10
189.58075432101839
 20
56.000000000000028
 30
0.0
 11
224.58793399799009
 21
56.000000000000028
 31
0.0
  0
LINE
  5
30B
  8
0
 10
189.5807543210183
 20
63.999999999999972
 30
0.0
 11
224.58793399799009
 21
64.000000000000028
 31
0.0
  0
LINE
  5
30C
  8
3
 10
188.40902194969789
 20
56.676499999999997
 30
0.0
 11
225.26443399799021
 21
56.676500000000033
 31
0.0
  0
LINE
  5
30D
  8
3
 10
188.40902194969789
 20
63.323499999999989
 30
0.0
 11
225.26443399799021
 21
63.323499999999989
 31
0.0
  0
LINE
  5
30E
  8
0
 10
225.78793399799019
 20
57.200000000000017
 30
0.0
 11
224.58793399799009
 21
56.000000000000028
 31
0.0
  0
LINE
  5
30F
  8
0
 10
224.58793399799009
 20
64.000000000000028
 30
0.0
 11
225.78793399799011
 21
62.800000000000011
 31
0.0
  0
LINE
  5
310
  8
0
 10
186.38793399799019
 20
57.000000000000369
 30
0.0
 11
187.68793399799009
 21
57.000000000000369
 31
0.0
  0
LINE
  5
311
  8
0
 10
186.3879339979901
 20
62.999999999999737
 30
0.0
 11
187.68793399799009
 21
62.999999999999737
 31
0.0
  0
ARC
  5
312
  8
0
 10
186.38793399799019
 20
56.400000000000368
 30
0.0
 40
0.6
 50
90.0
 51
180.0
  0
ARC
  5
313
  8
0
 10
187.68793399799009
 20
56.400000000000347
 30
0.0
 40
0.6
 50
60.000000000003908
 51
90.0
  0
ARC
  5
314
  8
0
 10
186.3879339979901
 20
63.59999999999971
 30
0.0
 40
0.6
 50
180.0
 51
270.0
  0
ARC
  5
315
  8
0
 10
187.68793399799009
 20
63.599999999999739
 30
0.0
 40
0.6
 50
270.0
 51
299.99999999999841
  0
POLYLINE
  5
34E
  8
0
 66
     1
 10
0.0
 20
0.0
 30
0.0
  0
VERTEX
  5
34F
  8
0
 10
170.78793399799019
 20
235.52494111428319
 30
0.0
 42
0.051275007048526
  0
VERTEX
  5
350
  8
0
 10
171.59666907544789
 20
235.60809553134609
 30
0.0
 42
0.0651263944278398
  0
VERTEX
  5
351
  8
0
 10
172.2021475603633
 20
235.8188683634566
 30
0.0
 42
0.1042837093569608
 70
     2
 50
26.645904853166972
  0
VERTEX
  5
352
  8
0
 10
172.69214999929719
 20
236.20937308738769
 30
0.0
 42
0.1415724308491318
  0
VERTEX
  5
353
  8
0
 10
172.78689597772691
 20
236.42806464599161
 30
0.0
 42
0.1742586583764285
  0
SEQEND
  5
354
  8
0
  0
ARC
  5
355
  8
0
 10
169.0204947277787
 20
231.36363636363629
 30
0.0
 40
7.0
 50
90.000000000000213
 51
167.619188022717
  0
POLYLINE
  5
356
  8
0
 66
     1
 10
0.0
 20
0.0
 30
0.0
  0
VERTEX
  5
357
  8
0
 10
164.22633302652901
 20
236.46422589645221
 30
0.0
 42
0.2337789421792805
  0
VERTEX
  5
358
  8
0
 10
164.3928937308842
 20
236.25595085213931
 30
0.0
 42
0.061535732818493
  0
VERTEX
  5
359
  8
0
 10
165.73880793249961
 20
235.8188683634566
 30
0.0
 42
0.0277895119035349
 70
     2
 50
349.05151134683251
  0
VERTEX
  5
35A
  8
0
 10
167.26643010550231
 20
235.61056443709359
 30
0.0
 42
0.0199920949778763
  0
VERTEX
  5
35B
  8
0
 10
169.40700368332969
 20
235.52494111428319
 30
0.0
 42
0.0199920949778785
  0
SEQEND
  5
35C
  8
0
  0
POLYLINE
  5
35D
  8
0
 66
     1
 10
0.0
 20
0.0
 30
0.0
  0
VERTEX
  5
35E
  8
0
 10
164.22633302652901
 20
203.53577410354779
 30
0.0
 42
-0.2337789421792805
  0
VERTEX
  5
35F
  8
0
 10
164.3928937308842
 20
203.74404914786069
 30
0.0
 42
-0.061535732818493
  0
VERTEX
  5
360
  8
0
 10
165.73880793249961
 20
204.18113163654351
 30
0.0
 42
-0.0277895119035349
 70
     2
 50
10.94848865316753
  0
VERTEX
  5
361
  8
0
 10
167.26643010550231
 20
204.38943556290641
 30
0.0
 42
-0.0199920949778763
  0
VERTEX
  5
362
  8
0
 10
169.40700368332969
 20
204.47505888571681
 30
0.0
 42
-0.0199920949778785
  0
SEQEND
  5
363
  8
0
  0
POLYLINE
  5
364
  8
0
 66
     1
 10
0.0
 20
0.0
 30
0.0
  0
VERTEX
  5
365
  8
0
 10
170.78793399799019
 20
204.47505888571681
 30
0.0
 42
-0.051275007048526
  0
VERTEX
  5
366
  8
0
 10
171.59666907544789
 20
204.39190446865391
 30
0.0
 42
-0.0651263944278398
  0
VERTEX
  5
367
  8
0
 10
172.2021475603633
 20
204.18113163654351
 30
0.0
 42
-0.1042837093569608
 70
     2
 50
333.354095146833
  0
VERTEX
  5
368
  8
0
 10
172.69214999929719
 20
203.79062691261231
 30
0.0
 42
-0.1415724308491318
  0
VERTEX
  5
369
  8
0
 10
172.78689597772691
 20
203.57193535400839
 30
0.0
 42
-0.1742586583764285
  0
SEQEND
  5
36A
  8
0
  0
LINE
  5
36B
  8
0
 10
169.40700368332969
 20
204.47505888571681
 30
0.0
 11
170.78793399799019
 21
204.47505888571681
 31
0.0
  0
ARC
  5
36C
  8
0
 10
170.78793399799019
 20
203.63636363636371
 30
0.0
 40
2.0
 50
270.0
 51
0.0
  0
LINE
  5
36D
  8
0
 10
169.02049472777861
 20
201.63636363636371
 30
0.0
 11
170.78793399799019
 21
201.63636363636371
 31
0.0
  0
ARC
  5
36E
  8
0
 10
169.0204947277787
 20
208.6363636363636
 30
0.0
 40
7.0
 50
192.380811977283
 51
269.99999999999977
  0
ARC
  5
36F
  8
0
 10
169.0204947277787
 20
48.636363636363647
 30
0.0
 40
7.0
 50
192.380811977283
 51
269.99999999999977
  0
LINE
  5
370
  8
0
 10
169.02049472777861
 20
41.636363636363647
 30
0.0
 11
170.78793399799019
 21
41.636363636363647
 31
0.0
  0
ARC
  5
371
  8
0
 10
170.78793399799019
 20
43.636363636363647
 30
0.0
 40
2.0
 50
270.0
 51
0.0
  0
LINE
  5
372
  8
0
 10
169.40700368332969
 20
44.475058885716827
 30
0.0
 11
170.78793399799019
 21
44.475058885716827
 31
0.0
  0
POLYLINE
  5
373
  8
0
 66
     1
 10
0.0
 20
0.0
 30
0.0
  0
VERTEX
  5
374
  8
0
 10
170.78793399799019
 20
44.475058885716827
 30
0.0
 42
-0.051275007048526
  0
VERTEX
  5
375
  8
0
 10
171.59666907544789
 20
44.391904468653898
 30
0.0
 42
-0.0651263944278398
  0
VERTEX
  5
376
  8
0
 10
172.2021475603633
 20
44.181131636543462
 30
0.0
 42
-0.1042837093569608
 70
     2
 50
333.354095146833
  0
VERTEX
  5
377
  8
0
 10
172.69214999929719
 20
43.790626912612311
 30
0.0
 42
-0.1415724308491318
  0
VERTEX
  5
378
  8
0
 10
172.78689597772691
 20
43.571935354008382
 30
0.0
 42
-0.1742586583764285
  0
SEQEND
  5
379
  8
0
  0
POLYLINE
  5
37A
  8
0
 66
     1
 10
0.0
 20
0.0
 30
0.0
  0
VERTEX
  5
37B
  8
0
 10
164.22633302652901
 20
43.535774103547759
 30
0.0
 42
-0.2337789421792805
  0
VERTEX
  5
37C
  8
0
 10
164.3928937308842
 20
43.744049147860693
 30
0.0
 42
-0.061535732818493
  0
VERTEX
  5
37D
  8
0
 10
165.73880793249961
 20
44.181131636543462
 30
0.0
 42
-0.0277895119035349
 70
     2
 50
10.94848865316753
  0
VERTEX
  5
37E
  8
0
 10
167.26643010550231
 20
44.389435562906407
 30
0.0
 42
-0.0199920949778763
  0
VERTEX
  5
37F
  8
0
 10
169.40700368332969
 20
44.475058885716827
 30
0.0
 42
-0.0199920949778785
  0
SEQEND
  5
380
  8
0
  0
POLYLINE
  5
381
  8
0
 66
     1
 10
0.0
 20
0.0
 30
0.0
  0
VERTEX
  5
382
  8
0
 10
164.22633302652901
 20
76.464225896452234
 30
0.0
 42
0.2337789421792805
  0
VERTEX
  5
383
  8
0
 10
164.3928937308842
 20
76.255950852139307
 30
0.0
 42
0.061535732818493
  0
VERTEX
  5
384
  8
0
 10
165.73880793249961
 20
75.818868363456545
 30
0.0
 42
0.0277895119035349
 70
     2
 50
349.05151134683251
  0
VERTEX
  5
385
  8
0
 10
167.26643010550231
 20
75.610564437093586
 30
0.0
 42
0.0199920949778763
  0
VERTEX
  5
386
  8
0
 10
169.40700368332969
 20
75.524941114283166
 30
0.0
 42
0.0199920949778785
  0
SEQEND
  5
387
  8
0
  0
ARC
  5
388
  8
0
 10
169.0204947277787
 20
71.363636363636346
 30
0.0
 40
7.0
 50
90.000000000000213
 51
167.619188022717
  0
POLYLINE
  5
389
  8
0
 66
     1
 10
0.0
 20
0.0
 30
0.0
  0
VERTEX
  5
38A
  8
0
 10
170.78793399799019
 20
75.524941114283166
 30
0.0
 42
0.051275007048526
  0
VERTEX
  5
38B
  8
0
 10
171.59666907544789
 20
75.608095531346095
 30
0.0
 42
0.0651263944278398
  0
VERTEX
  5
38C
  8
0
 10
172.2021475603633
 20
75.818868363456545
 30
0.0
 42
0.1042837093569608
 70
     2
 50
26.645904853166972
  0
VERTEX
  5
38D
  8
0
 10
172.69214999929719
 20
76.209373087387689
 30
0.0
 42
0.1415724308491318
  0
VERTEX
  5
38E
  8
0
 10
172.78689597772691
 20
76.428064645991611
 30
0.0
 42
0.1742586583764285
  0
SEQEND
  5
38F
  8
0
  0
LINE
  5
390
  8
0
 10
169.40700368332969
 20
75.524941114283166
 30
0.0
 11
170.78793399799019
 21
75.524941114283166
 31
0.0
  0
POLYLINE
  5
391
  8
0
 66
     1
 10
0.0
 20
0.0
 30
0.0
  0
VERTEX
  5
392
  8
0
 10
163.66244103679171
 20
68.499999999999972
 30
0.0
 42
0.012718033617553
  0
VERTEX
  5
393
  8
0
 10
163.71011465248509
 20
66.626050535928869
 30
0.0
 42
0.0178600894518953
  0
VERTEX
  5
394
  8
0
 10
163.8255680515785
 20
65.29598523319072
 30
0.0
 42
0.0415652416655366
 70
     2
 50
277.00739731185848
  0
VERTEX
  5
395
  8
0
 10
164.080437293053
 20
64.072548075967262
 30
0.0
 42
0.332035681531368
  0
VERTEX
  5
396
  8
0
 10
164.21939150306639
 20
63.968838862734628
 30
0.0
 42
0.3320356815313141
  0
SEQEND
  5
397
  8
0
  0
POLYLINE
  5
398
  8
0
 66
     1
 10
0.0
 20
0.0
 30
0.0
  0
VERTEX
  5
399
  8
0
 10
164.21939150306639
 20
74.150042256146435
 30
0.0
 42
0.3473258706611451
  0
VERTEX
  5
39A
  8
0
 10
164.0849457481703
 20
74.043837204306755
 30
0.0
 42
0.0338571882308007
  0
VERTEX
  5
39B
  8
0
 10
163.82556805157861
 20
72.495183193311675
 30
0.0
 42
0.0143632074799382
 70
     2
 50
264.37028091758702
  0
VERTEX
  5
39C
  8
0
 10
163.6918991362418
 20
70.57589289666106
 30
0.0
 42
0.0133101052982131
  0
VERTEX
  5
39D
  8
0
 10
163.66244103679171
 20
68.499999999999972
 30
0.0
 42
0.0102024175690987
  0
SEQEND
  5
39E
  8
0
  0
POLYLINE
  5
39F
  8
0
 66
     1
 10
0.0
 20
0.0
 30
0.0
  0
VERTEX
  5
3A0
  8
0
 10
164.21939150306639
 20
45.849957743853558
 30
0.0
 42
-0.3473258706611451
  0
VERTEX
  5
3A1
  8
0
 10
164.0849457481703
 20
45.956162795693217
 30
0.0
 42
-0.0338571882308007
  0
VERTEX
  5
3A2
  8
0
 10
163.82556805157861
 20
47.504816806688332
 30
0.0
 42
-0.0143632074799382
 70
     2
 50
95.629719082413075
  0
VERTEX
  5
3A3
  8
0
 10
163.6918991362418
 20
49.42410710333894
 30
0.0
 42
-0.0133101052982131
  0
VERTEX
  5
3A4
  8
0
 10
163.66244103679171
 20
51.5
 30
0.0
 42
-0.0102024175690987
  0
SEQEND
  5
3A5
  8
0
  0
POLYLINE
  5
3A6
  8
0
 66
     1
 10
0.0
 20
0.0
 30
0.0
  0
VERTEX
  5
3A7
  8
0
 10
163.66244103679171
 20
51.5
 30
0.0
 42
-0.012718033617553
  0
VERTEX
  5
3A8
  8
0
 10
163.71011465248509
 20
53.373949464071131
 30
0.0
 42
-0.0178600894518953
  0
VERTEX
  5
3A9
  8
0
 10
163.82556805157861
 20
54.70401476680928
 30
0.0
 42
-0.0415652416655366
 70
     2
 50
82.992602688141488
  0
VERTEX
  5
3AA
  8
0
 10
164.080437293053
 20
55.927451924032738
 30
0.0
 42
-0.332035681531368
  0
VERTEX
  5
3AB
  8
0
 10
164.21939150306639
 20
56.031161137265343
 30
0.0
 42
-0.3320356815313141
  0
SEQEND
  5
3AC
  8
0
  0
POLYLINE
  5
3AD
  8
0
 66
     1
 10
0.0
 20
0.0
 30
0.0
  0
VERTEX
  5
3AE
  8
0
 10
172.78793399799019
 20
61.488057410860392
 30
0.0
 42
0.1157061221278919
  0
VERTEX
  5
3AF
  8
0
 10
172.64183691414021
 20
62.11093348289441
 30
0.0
 42
0.1040348057808744
  0
VERTEX
  5
3B0
  8
0
 10
172.2021475603633
 20
62.668091106672421
 30
0.0
 42
0.090899700527906
 70
     2
 50
140.15804767643391
  0
VERTEX
  5
3B1
  8
0
 10
171.5688337767692
 20
63.025734254744833
 30
0.0
 42
0.0833851976864013
  0
VERTEX
  5
3B2
  8
0
 10
170.78793399799019
 20
63.156877067535021
 30
0.0
 42
0.0833851976864072
  0
SEQEND
  5
3B3
  8
0
  0
LINE
  5
3B4
  8
0
 10
169.40700368332969
 20
63.156877067535021
 30
0.0
 11
170.78793399799019
 21
63.156877067535021
 31
0.0
  0
POLYLINE
  5
3B5
  8
0
 66
     1
 10
0.0
 20
0.0
 30
0.0
  0
VERTEX
  5
3B6
  8
0
 10
169.40700368332969
 20
63.156877067535021
 30
0.0
 42
0.0331294507717754
  0
VERTEX
  5
3B7
  8
0
 10
167.28035558147931
 20
63.015812873848603
 30
0.0
 42
0.0447219732328795
  0
VERTEX
  5
3B8
  8
0
 10
165.73880793249961
 20
62.668091106672421
 30
0.0
 42
0.0874955819920872
 70
     2
 50
197.8326310928704
  0
VERTEX
  5
3B9
  8
0
 10
164.410886094083
 20
61.966967227716367
 30
0.0
 42
0.2714272851995254
  0
VERTEX
  5
3BA
  8
0
 10
164.21939150306639
 20
61.488057410860392
 30
0.0
 42
0.2316302955616549
  0
SEQEND
  5
3BB
  8
0
  0
POLYLINE
  5
3BC
  8
0
 66
     1
 10
0.0
 20
0.0
 30
0.0
  0
VERTEX
  5
3BD
  8
0
 10
169.40700368332969
 20
56.843122932464951
 30
0.0
 42
-0.0331294507717754
  0
VERTEX
  5
3BE
  8
0
 10
167.28035558147931
 20
56.984187126151397
 30
0.0
 42
-0.0447219732328795
  0
VERTEX
  5
3BF
  8
0
 10
165.73880793249961
 20
57.331908893327551
 30
0.0
 42
-0.0874955819920872
 70
     2
 50
162.1673689071296
  0
VERTEX
  5
3C0
  8
0
 10
164.410886094083
 20
58.033032772283597
 30
0.0
 42
-0.2714272851995254
  0
VERTEX
  5
3C1
  8
0
 10
164.21939150306639
 20
58.511942589139579
 30
0.0
 42
-0.2316302955616549
  0
SEQEND
  5
3C2
  8
0
  0
POLYLINE
  5
3C3
  8
0
 66
     1
 10
0.0
 20
0.0
 30
0.0
  0
VERTEX
  5
3C4
  8
0
 10
172.78793399799019
 20
58.511942589139579
 30
0.0
 42
-0.1157061221278919
  0
VERTEX
  5
3C5
  8
0
 10
172.64183691414021
 20
57.88906651710559
 30
0.0
 42
-0.1040348057808744
  0
VERTEX
  5
3C6
  8
0
 10
172.2021475603633
 20
57.331908893327551
 30
0.0
 42
-0.090899700527906
 70
     2
 50
219.84195232356601
  0
VERTEX
  5
3C7
  8
0
 10
171.5688337767692
 20
56.974265745255138
 30
0.0
 42
-0.0833851976864013
  0
VERTEX
  5
3C8
  8
0
 10
170.78793399799019
 20
56.843122932464951
 30
0.0
 42
-0.0833851976864072
  0
SEQEND
  5
3C9
  8
0
  0
LINE
  5
3CA
  8
0
 10
164.21939150306639
 20
61.488057410860392
 30
0.0
 11
164.21939150306639
 21
58.511942589139579
 31
0.0
  0
LINE
  5
3CB
  8
0
 10
169.40700368332969
 20
56.843122932464951
 30
0.0
 11
170.78793399799019
 21
56.843122932464951
 31
0.0
  0
ARC
  5
3CC
  8
0
 10
220.78793399799031
 20
60.0
 30
0.0
 40
60.0
 50
167.619188022717
 51
192.380811977283
  0
ARC
  5
3CD
  8
0
 10
170.78793399799019
 20
76.363636363636346
 30
0.0
 40
2.0
 50
0.0
 51
90.0
  0
LINE
  5
3CE
  8
0
 10
172.78793399799019
 20
76.363636363636346
 30
0.0
 11
172.78793399799019
 21
43.636363636363647
 31
0.0
  0
LINE
  5
3CF
  8
0
 10
169.02049472777861
 20
78.363636363636346
 30
0.0
 11
170.78793399799019
 21
78.363636363636346
 31
0.0
  0
TEXT
  5
4EC
  8
0
 62
     3
 10
0.0
 20
0.0
 30
0.0
 40
10.0
  1
EK40X40
  7
STANDARD1
  0
ENDSEC
  0
EOF
