  0
SECTION
  2
HEADER
  9
$ACADVER
  1
AC1009
  9
$INSBASE
 10
0.0
 20
0.0
 30
0.0
  9
$EXTMIN
 10
0.0
 20
-2.960436562073669
 30
0.0
  9
$EXTMAX
 10
299.72444022472553
 20
230.97481429108689
 30
0.0
  9
$LIMMIN
 10
0.0
 20
0.0
  9
$LIMMAX
 10
375.0
 20
270.0
  9
$ORTHOMODE
 70
     1
  9
$REGENMODE
 70
     1
  9
$FILLMODE
 70
     1
  9
$QTEXTMODE
 70
     0
  9
$MIRRTEXT
 70
     0
  9
$DRAGMODE
 70
     2
  9
$LTSCALE
 40
10.0
  9
$OSMODE
 70
  3071
  9
$ATTMODE
 70
     1
  9
$TEXTSIZE
 40
0.2
  9
$TRACEWID
 40
0.05
  9
$TEXTSTYLE
  7
K70
  9
$CLAYER
  8
0
  9
$CELTYPE
  6
BYLAYER
  9
$CECOLOR
 62
   256
  9
$DIMSCALE
 40
1.0
  9
$DIMASZ
 40
3.0
  9
$DIMEXO
 40
2.0
  9
$DIMDLI
 40
0.38
  9
$DIMRND
 40
0.0
  9
$DIMDLE
 40
0.0
  9
$DIMEXE
 40
2.0
  9
$DIMTP
 40
0.0
  9
$DIMTM
 40
0.0
  9
$DIMTXT
 40
3.2000000000000002
  9
$DIMCEN
 40
0.0
  9
$DIMTSZ
 40
0.0
  9
$DIMTOL
 70
     0
  9
$DIMLIM
 70
     0
  9
$DIMTIH
 70
     0
  9
$DIMTOH
 70
     0
  9
$DIMSE1
 70
     0
  9
$DIMSE2
 70
     0
  9
$DIMTAD
 70
     1
  9
$DIMZIN
 70
     0
  9
$DIMBLK
  1

  9
$DIMASO
 70
     1
  9
$DIMSHO
 70
     0
  9
$DIMPOST
  1

  9
$DIMAPOST
  1

  9
$DIMALT
 70
     0
  9
$DIMALTD
 70
     2
  9
$DIMALTF
 40
25.399999999999999
  9
$DIMLFAC
 40
1.0
  9
$DIMTOFL
 70
     0
  9
$DIMTVP
 40
1.6000000000000001
  9
$DIMTIX
 70
     1
  9
$DIMSOXD
 70
     0
  9
$DIMSAH
 70
     0
  9
$DIMBLK1
  1

  9
$DIMBLK2
  1

  9
$DIMSTYLE
  2
STANDARD
  9
$DIMCLRD
 70
     0
  9
$DIMCLRE
 70
     0
  9
$DIMCLRT
 70
     0
  9
$DIMTFAC
 40
1.0
  9
$DIMGAP
 40
0.09
  9
$LUNITS
 70
     2
  9
$LUPREC
 70
     1
  9
$SKETCHINC
 40
0.1
  9
$FILLETRAD
 40
0.0
  9
$AUNITS
 70
     0
  9
$AUPREC
 70
     0
  9
$MENU
  1
E:\r13\win\SUPPORT\ACAD
  9
$ELEVATION
 40
0.0
  9
$PELEVATION
 40
0.0
  9
$THICKNESS
 40
0.0
  9
$LIMCHECK
 70
     0
  9
$BLIPMODE
 70
     0
  9
$CHAMFERA
 40
0.0
  9
$CHAMFERB
 40
0.0
  9
$SKPOLY
 70
     0
  9
$TDCREATE
 40
2449840.6030208338
  9
$TDUPDATE
 40
2456598.674495799
  9
$TDINDWG
 40
0.0037324306
  9
$TDUSRTIMER
 40
0.0037324306
  9
$USRTIMER
 70
     1
  9
$ANGBASE
 50
0.0
  9
$ANGDIR
 70
     0
  9
$PDMODE
 70
     0
  9
$PDSIZE
 40
0.0
  9
$PLINEWID
 40
0.0
  9
$COORDS
 70
     1
  9
$SPLFRAME
 70
     0
  9
$SPLINETYPE
 70
     6
  9
$SPLINESEGS
 70
     8
  9
$ATTDIA
 70
     0
  9
$ATTREQ
 70
     1
  9
$HANDLING
 70
     1
  9
$HANDSEED
  5
487
  9
$SURFTAB1
 70
     6
  9
$SURFTAB2
 70
     6
  9
$SURFTYPE
 70
     6
  9
$SURFU
 70
     6
  9
$SURFV
 70
     6
  9
$UCSNAME
  2

  9
$UCSORG
 10
0.0
 20
0.0
 30
0.0
  9
$UCSXDIR
 10
1.0
 20
0.0
 30
0.0
  9
$UCSYDIR
 10
0.0
 20
1.0
 30
0.0
  9
$PUCSNAME
  2

  9
$PUCSORG
 10
0.0
 20
0.0
 30
0.0
  9
$PUCSXDIR
 10
1.0
 20
0.0
 30
0.0
  9
$PUCSYDIR
 10
0.0
 20
1.0
 30
0.0
  9
$USERI1
 70
     0
  9
$USERI2
 70
     1
  9
$USERI3
 70
     1
  9
$USERI4
 70
     0
  9
$USERI5
 70
     0
  9
$USERR1
 40
0.0
  9
$USERR2
 40
0.0
  9
$USERR3
 40
0.0
  9
$USERR4
 40
0.0
  9
$USERR5
 40
0.0
  9
$WORLDVIEW
 70
     1
  9
$SHADEDGE
 70
     3
  9
$SHADEDIF
 70
    70
  9
$TILEMODE
 70
     1
  9
$MAXACTVP
 70
    16
  9
$PLIMCHECK
 70
     0
  9
$PEXTMIN
 10
1.0000000000000000E+020
 20
1.0000000000000000E+020
 30
1.0000000000000000E+020
  9
$PEXTMAX
 10
-1.0000000000000000E+020
 20
-1.0000000000000000E+020
 30
-1.0000000000000000E+020
  9
$PLIMMIN
 10
0.0
 20
0.0
  9
$PLIMMAX
 10
12.0
 20
9.0
  9
$UNITMODE
 70
     0
  9
$VISRETAIN
 70
     0
  9
$PLINEGEN
 70
     0
  9
$PSLTSCALE
 70
     0
  0
ENDSEC
  0
SECTION
  2
TABLES
  0
TABLE
  2
VPORT
 70
     1
  0
VPORT
  2
*ACTIVE
 70
     0
 10
0.0
 20
0.0
 11
1.0
 21
1.0
 12
187.49427839065231
 22
169.9063198933564
 13
0.0
 23
0.0
 14
10.0
 24
10.0
 15
10.0
 25
10.0
 16
0.0
 26
0.0
 36
1.0
 17
0.0
 27
0.0
 37
0.0
 40
348.89937369551939
 41
1.831871345029239
 42
50.0
 43
0.0
 44
0.0
 50
0.0
 51
0.0
 71
     0
 72
   500
 73
     1
 74
     0
 75
     0
 76
     0
 77
     0
 78
     0
  0
ENDTAB
  0
TABLE
  2
LTYPE
 70
     3
  0
LTYPE
  2
CONTINUOUS
 70
     0
  3
Solid Line
 72
    65
 73
     0
 40
0.0
  0
LTYPE
  2
CENTER
 70
     0
  3
____ _ ____ _ ____ _ ____ _ ____ _ ____ _ ____
 72
    65
 73
     4
 40
2.0
 49
1.25
 49
-0.25
 49
0.25
 49
-0.25
  0
LTYPE
  2
PHANTOM2
 70
     0
  3
___ _ _ ___ _ _ ___ _ _ ___ _ _
 72
    65
 73
     6
 40
1.25
 49
0.625
 49
-0.125
 49
0.125
 49
-0.125
 49
0.125
 49
-0.125
  0
ENDTAB
  0
TABLE
  2
LAYER
 70
     2
  0
LAYER
  2
0
 70
     0
 62
     7
  6
CONTINUOUS
  0
LAYER
  2
1
 70
     0
 62
     1
  6
CENTER
  0
ENDTAB
  0
TABLE
  2
STYLE
 70
     3
  0
STYLE
  2
STANDARD
 70
     0
 40
0.0
 41
1.0
 50
0.0
 71
     0
 42
0.2
  3
romans.shx
  4

  0
STYLE
  2
K70
 70
     0
 40
0.0
 41
1.0
 50
0.0
 71
     0
 42
0.2
  3
romans.shx
  4

  0
STYLE
  2
STANDARD1
 70
     0
 40
0.0
 41
1.0
 50
0.0
 71
     0
 42
3.0
  3
txt
  4

  0
ENDTAB
  0
TABLE
  2
VIEW
 70
     1
  0
VIEW
  2
ALL
 70
     0
 40
270.0
 10
220.99159663865549
 20
135.0
 41
0.0
 11
0.0
 21
0.0
 31
1.0
 12
0.0
 22
0.0
 32
0.0
 42
0.0
 43
0.0
 44
0.0
 50
0.0
 71
     0
  0
ENDTAB
  0
TABLE
  2
UCS
 70
     0
  0
ENDTAB
  0
TABLE
  2
APPID
 70
     3
  0
APPID
  2
ACAD
 70
     0
  0
APPID
  2
ACAD_MLEADERVER
 70
     0
  0
APPID
  2
ACAD_NAV_VCDISPLAY
 70
     0
  0
ENDTAB
  0
TABLE
  2
DIMSTYLE
 70
     1
  0
DIMSTYLE
  2
STANDARD
 70
     0
  3

  4

  5

  6

  7

 40
1.0
 41
0.18
 42
0.0625
 43
0.38
 44
0.18
 45
0.0
 46
0.0
 47
0.0
 48
0.0
140
0.18
141
0.09
142
0.0
143
25.399999999999999
144
1.0
145
0.0
146
1.0
147
0.09
 71
     0
 72
     0
 73
     1
 74
     1
 75
     0
 76
     0
 77
     0
 78
     0
170
     0
171
     2
172
     0
173
     0
174
     0
175
     0
176
     0
177
     0
178
     0
  0
ENDTAB
  0
ENDSEC
  0
SECTION
  2
BLOCKS
  0
BLOCK
  8
0
  2
$MODEL_SPACE
 70
     0
 10
0.0
 20
0.0
 30
0.0
  3
$MODEL_SPACE
  1

  0
ENDBLK
  5
23B
  8
0
  0
BLOCK
 67
     1
  8
0
  2
$PAPER_SPACE
 70
     0
 10
0.0
 20
0.0
 30
0.0
  3
$PAPER_SPACE
  1

  0
ENDBLK
  5
239
 67
     1
  8
0
  0
ENDSEC
  0
SECTION
  2
ENTITIES
  0
ARC
  5
3F
  8
0
 10
92.999999999999815
 20
135.0
 30
0.0
 40
20.0
 50
265.73308655442389
 51
274.26691344558822
  0
ARC
  5
40
  8
0
 10
109.4999999999998
 20
106.4211616751135
 30
0.0
 40
16.0
 50
98.445718423601079
 51
141.55428157639881
  0
ARC
  5
41
  8
0
 10
91.772352636042015
 20
118.5457336246867
 30
0.0
 40
3.5
 50
218.44571842360071
 51
265.73308655442412
  0
ARC
  5
42
  8
0
 10
94.227647363957615
 20
118.5457336246867
 30
0.0
 40
3.5
 50
274.26691344561652
 51
321.5542815763996
  0
ARC
  5
43
  8
0
 10
92.999999999999886
 20
135.0
 30
0.0
 40
20.0
 50
205.73308655442389
 51
214.26691344558819
  0
ARC
  5
44
  8
0
 10
76.499999999999886
 20
106.42116167511359
 30
0.0
 40
16.0
 50
38.44571842360115
 51
81.554281576398864
  0
ARC
  5
45
  8
0
 10
78.136363636363541
 20
127.83604061641979
 30
0.0
 40
3.5
 50
158.44571842360079
 51
205.73308655442401
  0
ARC
  5
46
  8
0
 10
79.364011000321312
 20
125.7096930082669
 30
0.0
 40
3.5
 50
214.26691344561641
 51
261.55428157639972
  0
ARC
  5
47
  8
0
 10
92.999999999999915
 20
135.0
 30
0.0
 40
20.0
 50
145.73308655442401
 51
154.26691344558819
  0
ARC
  5
48
  8
0
 10
59.999999999999922
 20
135.0
 30
0.0
 40
16.0
 50
338.44571842360119
 51
21.554281576398889
  0
ARC
  5
49
  8
0
 10
79.364011000321341
 20
144.2903069917331
 30
0.0
 40
3.5
 50
98.445718423600781
 51
145.73308655442409
  0
ARC
  5
4A
  8
0
 10
78.136363636363541
 20
142.16395938358019
 30
0.0
 40
3.5
 50
154.26691344561641
 51
201.55428157639969
  0
ARC
  5
4B
  8
0
 10
92.999999999999886
 20
134.99999999999989
 30
0.0
 40
20.0
 50
85.733086554423963
 51
94.266913445588202
  0
ARC
  5
4C
  8
0
 10
76.499999999999915
 20
163.57883832488639
 30
0.0
 40
16.0
 50
278.44571842360108
 51
321.55428157639892
  0
ARC
  5
4D
  8
0
 10
94.227647363957686
 20
151.4542663753133
 30
0.0
 40
3.5
 50
38.445718423600788
 51
85.733086554424062
  0
ARC
  5
4E
  8
0
 10
91.772352636042086
 20
151.4542663753133
 30
0.0
 40
3.5
 50
94.266913445616439
 51
141.5542815763996
  0
ARC
  5
4F
  8
0
 10
92.999999999999815
 20
134.99999999999989
 30
0.0
 40
20.0
 50
25.733086554423931
 51
34.266913445588173
  0
ARC
  5
50
  8
0
 10
109.4999999999998
 20
163.57883832488639
 30
0.0
 40
16.0
 50
218.44571842360111
 51
261.55428157639892
  0
ARC
  5
51
  8
0
 10
107.8636363636361
 20
142.16395938358019
 30
0.0
 40
3.5
 50
338.44571842360079
 51
25.73308655442403
  0
ARC
  5
52
  8
0
 10
106.6359889996783
 20
144.2903069917331
 30
0.0
 40
3.5
 50
34.26691344561641
 51
81.554281576399674
  0
ARC
  5
53
  8
0
 10
107.8636363636361
 20
127.83604061641979
 30
0.0
 40
3.5
 50
334.26691344561641
 51
21.554281576399681
  0
ARC
  5
54
  8
0
 10
106.6359889996783
 20
125.7096930082669
 30
0.0
 40
3.5
 50
278.44571842360079
 51
325.73308655442412
  0
ARC
  5
55
  8
0
 10
125.9999999999998
 20
135.0
 30
0.0
 40
16.0
 50
158.44571842360111
 51
201.55428157639889
  0
ARC
  5
56
  8
0
 10
92.999999999999815
 20
135.0
 30
0.0
 40
20.0
 50
325.73308655442389
 51
334.26691344558822
  0
CIRCLE
  5
57
  8
0
 10
92.999999999999815
 20
135.0
 30
0.0
 40
10.0
  0
LINE
  5
58
  8
1
 10
92.999999999999815
 20
159.9999999999998
 30
0.0
 11
92.999999999999815
 21
110.0000000000002
 31
0.0
  0
LINE
  5
59
  8
1
 10
166.56431010419169
 20
135.0
 30
0.0
 11
201.56431010419169
 21
135.0
 31
0.0
  0
LINE
  5
5F
  8
1
 10
299.72444022472553
 20
135.0
 30
0.0
 11
249.72444022472581
 21
135.0
 31
0.0
  0
LINE
  5
60
  8
1
 10
274.7244402247257
 20
159.9999999999998
 30
0.0
 11
274.7244402247257
 21
110.0000000000002
 31
0.0
  0
CIRCLE
  5
61
  8
0
 10
274.7244402247257
 20
135.0
 30
0.0
 40
9.0
  0
ARC
  5
62
  8
0
 10
274.7244402247257
 20
135.0
 30
0.0
 40
20.0
 50
325.73308655442389
 51
334.26691344558822
  0
ARC
  5
63
  8
0
 10
307.72444022472558
 20
135.0
 30
0.0
 40
16.0
 50
158.44571842360111
 51
201.55428157639889
  0
ARC
  5
64
  8
0
 10
288.36042922440419
 20
125.7096930082669
 30
0.0
 40
3.5
 50
278.44571842360079
 51
325.73308655442412
  0
ARC
  5
65
  8
0
 10
289.58807658836201
 20
127.83604061641979
 30
0.0
 40
3.5
 50
334.26691344561641
 51
21.554281576399681
  0
ARC
  5
66
  8
0
 10
288.36042922440419
 20
144.2903069917331
 30
0.0
 40
3.5
 50
34.26691344561641
 51
81.554281576399674
  0
ARC
  5
67
  8
0
 10
289.58807658836201
 20
142.16395938358019
 30
0.0
 40
3.5
 50
338.44571842360079
 51
25.73308655442403
  0
ARC
  5
68
  8
0
 10
291.2244402247257
 20
163.57883832488639
 30
0.0
 40
16.0
 50
218.44571842360111
 51
261.55428157639892
  0
ARC
  5
69
  8
0
 10
274.7244402247257
 20
134.99999999999989
 30
0.0
 40
20.0
 50
25.733086554423931
 51
34.266913445588173
  0
ARC
  5
6A
  8
0
 10
273.49679286076793
 20
151.4542663753133
 30
0.0
 40
3.5
 50
94.266913445616439
 51
141.5542815763996
  0
ARC
  5
6B
  8
0
 10
275.95208758868353
 20
151.4542663753133
 30
0.0
 40
3.5
 50
38.445718423600788
 51
85.733086554424062
  0
ARC
  5
6C
  8
0
 10
258.2244402247257
 20
163.57883832488639
 30
0.0
 40
16.0
 50
278.44571842360108
 51
321.55428157639892
  0
ARC
  5
6D
  8
0
 10
274.7244402247257
 20
134.99999999999989
 30
0.0
 40
20.0
 50
85.733086554423963
 51
94.266913445588202
  0
ARC
  5
6E
  8
0
 10
259.86080386108938
 20
142.16395938358019
 30
0.0
 40
3.5
 50
154.26691344561641
 51
201.55428157639969
  0
ARC
  5
6F
  8
0
 10
261.08845122504709
 20
144.2903069917331
 30
0.0
 40
3.5
 50
98.445718423600781
 51
145.73308655442409
  0
ARC
  5
70
  8
0
 10
241.7244402247257
 20
135.0
 30
0.0
 40
16.0
 50
338.44571842360119
 51
21.554281576398889
  0
ARC
  5
71
  8
0
 10
274.7244402247257
 20
135.0
 30
0.0
 40
20.0
 50
145.73308655442401
 51
154.26691344558819
  0
ARC
  5
72
  8
0
 10
261.08845122504709
 20
125.7096930082669
 30
0.0
 40
3.5
 50
214.26691344561641
 51
261.55428157639972
  0
ARC
  5
73
  8
0
 10
259.86080386108938
 20
127.83604061641979
 30
0.0
 40
3.5
 50
158.44571842360079
 51
205.73308655442401
  0
ARC
  5
74
  8
0
 10
258.2244402247257
 20
106.42116167511359
 30
0.0
 40
16.0
 50
38.44571842360115
 51
81.554281576398864
  0
ARC
  5
75
  8
0
 10
274.7244402247257
 20
135.0
 30
0.0
 40
20.0
 50
205.73308655442389
 51
214.26691344558819
  0
ARC
  5
76
  8
0
 10
275.95208758868353
 20
118.5457336246867
 30
0.0
 40
3.5
 50
274.26691344561652
 51
321.5542815763996
  0
ARC
  5
77
  8
0
 10
273.49679286076793
 20
118.5457336246867
 30
0.0
 40
3.5
 50
218.44571842360071
 51
265.73308655442412
  0
ARC
  5
78
  8
0
 10
291.2244402247257
 20
106.4211616751135
 30
0.0
 40
16.0
 50
98.445718423601079
 51
141.55428157639881
  0
ARC
  5
79
  8
0
 10
274.7244402247257
 20
135.0
 30
0.0
 40
20.0
 50
265.73308655442389
 51
274.26691344558822
  0
CIRCLE
  5
7A
  8
0
 10
274.7244402247257
 20
135.0
 30
0.0
 40
7.0
  0
ARC
  5
7B
  8
0
 10
291.2244402247257
 20
106.4211616751135
 30
0.0
 40
19.0
 50
98.445718423601079
 51
141.55428157639881
  0
ARC
  5
7C
  8
0
 10
307.72444022472558
 20
135.0
 30
0.0
 40
19.0
 50
158.44571842360111
 51
201.55428157639889
  0
ARC
  5
7D
  8
0
 10
291.2244402247257
 20
163.57883832488639
 30
0.0
 40
19.0
 50
218.44571842360111
 51
261.55428157639892
  0
ARC
  5
7E
  8
0
 10
258.2244402247257
 20
163.57883832488639
 30
0.0
 40
19.0
 50
278.44571842360108
 51
321.55428157639892
  0
ARC
  5
7F
  8
0
 10
241.7244402247257
 20
135.0
 30
0.0
 40
19.0
 50
338.44571842360119
 51
21.554281576398889
  0
ARC
  5
80
  8
0
 10
258.2244402247257
 20
106.42116167511359
 30
0.0
 40
19.0
 50
38.44571842360115
 51
81.554281576398864
  0
ARC
  5
81
  8
0
 10
274.7244402247257
 20
135.0
 30
0.0
 40
17.0
 50
265.73308655442389
 51
274.26691344558822
  0
ARC
  5
82
  8
0
 10
274.7244402247257
 20
135.0
 30
0.0
 40
17.0
 50
325.73308655442389
 51
334.26691344558822
  0
ARC
  5
83
  8
0
 10
274.7244402247257
 20
134.99999999999989
 30
0.0
 40
17.0
 50
25.733086554423931
 51
34.266913445588173
  0
ARC
  5
84
  8
0
 10
274.7244402247257
 20
134.99999999999989
 30
0.0
 40
17.0
 50
85.733086554423963
 51
94.266913445588202
  0
ARC
  5
85
  8
0
 10
274.7244402247257
 20
135.0
 30
0.0
 40
17.0
 50
145.73308655442401
 51
154.26691344558819
  0
ARC
  5
86
  8
0
 10
274.7244402247257
 20
135.0
 30
0.0
 40
17.0
 50
205.73308655442389
 51
214.26691344558819
  0
ARC
  5
87
  8
0
 10
288.36042922440419
 20
125.7096930082669
 30
0.0
 40
0.5
 50
278.44571842360079
 51
325.73308655442412
  0
ARC
  5
88
  8
0
 10
289.58807658836201
 20
127.83604061641979
 30
0.0
 40
0.5
 50
334.26691344561641
 51
21.554281576399681
  0
ARC
  5
89
  8
0
 10
289.58807658836201
 20
142.16395938358019
 30
0.0
 40
0.5
 50
338.44571842360079
 51
25.73308655442403
  0
ARC
  5
8A
  8
0
 10
288.36042922440419
 20
144.2903069917331
 30
0.0
 40
0.5
 50
34.26691344561641
 51
81.554281576399674
  0
ARC
  5
8B
  8
0
 10
275.95208758868353
 20
151.4542663753133
 30
0.0
 40
0.5
 50
38.445718423600788
 51
85.733086554424062
  0
ARC
  5
8C
  8
0
 10
273.49679286076793
 20
151.4542663753133
 30
0.0
 40
0.5
 50
94.266913445616439
 51
141.5542815763996
  0
ARC
  5
8D
  8
0
 10
261.08845122504709
 20
144.2903069917331
 30
0.0
 40
0.5
 50
98.445718423600781
 51
145.73308655442409
  0
ARC
  5
8E
  8
0
 10
259.86080386108938
 20
142.16395938358019
 30
0.0
 40
0.5
 50
154.26691344561641
 51
201.55428157639969
  0
ARC
  5
8F
  8
0
 10
259.86080386108938
 20
127.83604061641979
 30
0.0
 40
0.5
 50
158.44571842360079
 51
205.73308655442401
  0
ARC
  5
90
  8
0
 10
261.08845122504709
 20
125.7096930082669
 30
0.0
 40
0.5
 50
214.26691344561641
 51
261.55428157639972
  0
ARC
  5
91
  8
0
 10
273.49679286076793
 20
118.5457336246867
 30
0.0
 40
0.5
 50
218.44571842360071
 51
265.73308655442412
  0
ARC
  5
92
  8
0
 10
275.95208758868353
 20
118.5457336246867
 30
0.0
 40
0.5
 50
274.26691344561652
 51
321.5542815763996
  0
TEXT
  5
93
  8
0
 10
265.59973756434118
 20
126.3978479254769
 30
0.0
 40
2.0
  1
EK-40
 50
330.0
 41
0.7
  7
K70
 72
     1
 11
268.68856150450569
 21
124.61451459214361
 31
0.0
  0
CIRCLE
  5
96
  8
0
 10
274.7244402247257
 20
135.0
 30
0.0
 40
6.8000000000000114
  0
LINE
  5
9B
  8
0
 10
180.18337978953119
 20
127.8592948932554
 30
0.0
 11
181.56431010419169
 21
127.8592948932554
 31
0.0
  0
LINE
  5
9C
  8
0
 10
180.18337978953119
 20
122.3914234190357
 30
0.0
 11
181.56431010419169
 21
122.3914234190357
 31
0.0
  0
POLYLINE
  5
9D
  8
0
 66
     1
 10
0.0
 20
0.0
 30
0.0
  0
VERTEX
  5
9E
  8
0
 10
181.56431010419169
 20
122.3914234190357
 30
0.0
 42
0.0681479384410324
  0
VERTEX
  5
9F
  8
0
 10
182.35947718107931
 20
122.5003070841975
 30
0.0
 42
0.0803606510300774
  0
VERTEX
  5
A0
  8
0
 10
182.9785236665648
 20
122.78612585476441
 30
0.0
 42
0.1070770247405605
 70
     2
 50
33.972058396596253
  0
VERTEX
  5
A1
  8
0
 10
183.45749542568791
 20
123.2855163397202
 30
0.0
 42
0.1613150431834144
 50
33.972058396596253
  0
VERTEX
  5
A2
  8
0
 10
183.56431010419169
 20
123.7390218282023
 30
0.0
 42
0.1386762741031753
  0
SEQEND
  5
A3
  8
0
  0
POLYLINE
  5
A4
  8
0
 66
     1
 10
0.0
 20
0.0
 30
0.0
  0
VERTEX
  5
A5
  8
0
 10
183.56431010419169
 20
126.3164128683876
 30
0.0
 42
0.1238162327336904
  0
VERTEX
  5
A6
  8
0
 10
183.42127058185571
 20
126.8851858702141
 30
0.0
 42
0.1056293744550649
  0
VERTEX
  5
A7
  8
0
 10
182.9785236665648
 20
127.40739521074249
 30
0.0
 42
0.0871687574442717
 70
     2
 50
142.35193248389899
  0
VERTEX
  5
A8
  8
0
 10
182.2871747309477
 20
127.7701221797435
 30
0.0
 42
0.09354480595656
 50
142.35193248389899
  0
VERTEX
  5
A9
  8
0
 10
181.56431010419169
 20
127.8592948932537
 30
0.0
 42
0.0774761684787331
  0
SEQEND
  5
AA
  8
0
  0
ARC
  5
AB
  8
0
 10
205.73647894501701
 20
134.99999999999989
 30
0.0
 40
31.297661802023811
 50
169.1747953988928
 51
190.82520460110709
  0
POLYLINE
  5
AC
  8
0
 66
     1
 10
0.0
 20
0.0
 30
0.0
  0
VERTEX
  5
AD
  8
0
 10
174.99576760926789
 20
122.2476489228291
 30
0.0
 42
0.247873808078743
  0
VERTEX
  5
AE
  8
0
 10
174.83093475415879
 20
122.160584037229
 30
0.0
 42
0.0810204484482689
  0
VERTEX
  5
AF
  8
0
 10
174.60194415778
 20
121.67062561975401
 30
0.0
 42
0.0397573276191218
 70
     2
 50
254.21417001588389
  0
VERTEX
  5
B0
  8
0
 10
174.46917767363331
 20
121.0020886459442
 30
0.0
 42
0.0373620212112805
 50
254.21417001588389
  0
VERTEX
  5
B1
  8
0
 10
174.4388171429932
 20
120.27756813566459
 30
0.0
 42
0.0291505297543052
  0
SEQEND
  5
B2
  8
0
  0
POLYLINE
  5
B3
  8
0
 66
     1
 10
0.0
 20
0.0
 30
0.0
  0
VERTEX
  5
B4
  8
0
 10
174.4388171429932
 20
120.27756813566459
 30
0.0
 42
0.0147417717267633
  0
VERTEX
  5
B5
  8
0
 10
174.48645478731919
 20
118.6621825292461
 30
0.0
 42
0.0149397770522952
  0
VERTEX
  5
B6
  8
0
 10
174.56052328213229
 20
117.8306493674433
 30
0.0
 42
0.0474886182179751
 70
     2
 50
278.11083532371839
  0
SEQEND
  5
B7
  8
0
  0
LINE
  5
B8
  8
0
 10
174.99576760926789
 20
123.7390218282023
 30
0.0
 11
174.99576760926789
 21
126.3164128683876
 31
0.0
  0
POLYLINE
  5
B9
  8
0
 66
     1
 10
0.0
 20
0.0
 30
0.0
  0
VERTEX
  5
BA
  8
0
 10
180.18337978953119
 20
127.8592948932554
 30
0.0
 42
0.0306536905819871
  0
VERTEX
  5
BB
  8
0
 10
178.0536237673177
 20
127.7286023239063
 30
0.0
 42
0.0416512233807995
  0
VERTEX
  5
BC
  8
0
 10
176.51518403870111
 20
127.40739521074249
 30
0.0
 42
0.0836033579932023
 70
     2
 50
196.56335209932129
  0
VERTEX
  5
BD
  8
0
 10
175.17670295097679
 20
126.7510611198129
 30
0.0
 42
0.2840994918148875
 50
196.56335209932129
  0
VERTEX
  5
BE
  8
0
 10
174.99576760926789
 20
126.3164128683876
 30
0.0
 42
0.2415588787634348
  0
SEQEND
  5
BF
  8
0
  0
POLYLINE
  5
C0
  8
0
 66
     1
 10
0.0
 20
0.0
 30
0.0
  0
VERTEX
  5
C1
  8
0
 10
174.99576760926789
 20
123.7390218282023
 30
0.0
 42
0.258181361927964
  0
VERTEX
  5
C2
  8
0
 10
175.2120420469999
 20
123.34809876179639
 30
0.0
 42
0.0766461092244234
  0
VERTEX
  5
C3
  8
0
 10
176.51518403870111
 20
122.78612585476441
 30
0.0
 42
0.0367580444095059
 70
     2
 50
345.43799986938001
  0
VERTEX
  5
C4
  8
0
 10
178.27562742392229
 20
122.4645567461889
 30
0.0
 42
0.0344500128526154
 50
345.43799986938001
  0
VERTEX
  5
C5
  8
0
 10
180.18337978953119
 20
122.3914234190357
 30
0.0
 42
0.0268036255446726
  0
SEQEND
  5
C6
  8
0
  0
POLYLINE
  5
C7
  8
0
 66
     1
 10
0.0
 20
0.0
 30
0.0
  0
VERTEX
  5
C8
  8
0
 10
174.99576760926789
 20
146.26097817179769
 30
0.0
 42
-0.258181361927964
  0
VERTEX
  5
C9
  8
0
 10
175.2120420469999
 20
146.65190123820361
 30
0.0
 42
-0.0766461092244234
  0
VERTEX
  5
CA
  8
0
 10
176.51518403870111
 20
147.21387414523559
 30
0.0
 42
-0.0367580444095059
 70
     2
 50
14.56200013062003
  0
VERTEX
  5
CB
  8
0
 10
178.27562742392229
 20
147.53544325381111
 30
0.0
 42
-0.0344500128526154
  0
VERTEX
  5
CC
  8
0
 10
180.18337978953119
 20
147.60857658096421
 30
0.0
 42
-0.0268036255446726
  0
SEQEND
  5
CD
  8
0
  0
POLYLINE
  5
CE
  8
0
 66
     1
 10
0.0
 20
0.0
 30
0.0
  0
VERTEX
  5
CF
  8
0
 10
180.18337978953119
 20
142.1407051067446
 30
0.0
 42
-0.0306536905819871
  0
VERTEX
  5
D0
  8
0
 10
178.0536237673177
 20
142.27139767609361
 30
0.0
 42
-0.0416512233807995
  0
VERTEX
  5
D1
  8
0
 10
176.51518403870111
 20
142.59260478925751
 30
0.0
 42
-0.0836033579932023
 70
     2
 50
163.43664790067871
  0
VERTEX
  5
D2
  8
0
 10
175.17670295097679
 20
143.2489388801871
 30
0.0
 42
-0.2840994918148875
  0
VERTEX
  5
D3
  8
0
 10
174.99576760926789
 20
143.6835871316124
 30
0.0
 42
-0.2415588787634348
  0
SEQEND
  5
D4
  8
0
  0
LINE
  5
D5
  8
0
 10
174.99576760926789
 20
146.26097817179769
 30
0.0
 11
174.99576760926789
 21
143.6835871316124
 31
0.0
  0
POLYLINE
  5
D6
  8
0
 66
     1
 10
0.0
 20
0.0
 30
0.0
  0
VERTEX
  5
D7
  8
0
 10
174.4388171429932
 20
149.72243186433539
 30
0.0
 42
-0.0147417717267633
  0
VERTEX
  5
D8
  8
0
 10
174.48645478731919
 20
151.33781747075389
 30
0.0
 42
-0.0149397770522952
  0
VERTEX
  5
D9
  8
0
 10
174.56052328213229
 20
152.1693506325567
 30
0.0
 42
-0.0474886182179751
 70
     2
 50
81.889164676281595
  0
SEQEND
  5
DA
  8
0
  0
POLYLINE
  5
DB
  8
0
 66
     1
 10
0.0
 20
0.0
 30
0.0
  0
VERTEX
  5
DC
  8
0
 10
174.99576760926789
 20
147.75235107717091
 30
0.0
 42
-0.247873808078743
  0
VERTEX
  5
DD
  8
0
 10
174.83093475415879
 20
147.839415962771
 30
0.0
 42
-0.0810204484482689
  0
VERTEX
  5
DE
  8
0
 10
174.60194415778
 20
148.32937438024601
 30
0.0
 42
-0.0397573276191218
 70
     2
 50
105.78582998411611
  0
VERTEX
  5
DF
  8
0
 10
174.46917767363331
 20
148.99791135405579
 30
0.0
 42
-0.0373620212112805
  0
VERTEX
  5
E0
  8
0
 10
174.4388171429932
 20
149.72243186433539
 30
0.0
 42
-0.0291505297543052
  0
SEQEND
  5
E1
  8
0
  0
POLYLINE
  5
E2
  8
0
 66
     1
 10
0.0
 20
0.0
 30
0.0
  0
VERTEX
  5
E3
  8
0
 10
183.56431010419169
 20
143.6835871316124
 30
0.0
 42
-0.1238162327336904
  0
VERTEX
  5
E4
  8
0
 10
183.42127058185571
 20
143.11481412978591
 30
0.0
 42
-0.1056293744550649
  0
VERTEX
  5
E5
  8
0
 10
182.9785236665648
 20
142.59260478925751
 30
0.0
 42
-0.0871687574442717
 70
     2
 50
217.64806751610101
  0
VERTEX
  5
E6
  8
0
 10
182.2871747309477
 20
142.2298778202566
 30
0.0
 42
-0.09354480595656
  0
VERTEX
  5
E7
  8
0
 10
181.56431010419169
 20
142.14070510674631
 30
0.0
 42
-0.0774761684787331
  0
SEQEND
  5
E8
  8
0
  0
POLYLINE
  5
E9
  8
0
 66
     1
 10
0.0
 20
0.0
 30
0.0
  0
VERTEX
  5
EA
  8
0
 10
181.56431010419169
 20
147.60857658096421
 30
0.0
 42
-0.0681479384410324
  0
VERTEX
  5
EB
  8
0
 10
182.35947718107931
 20
147.4996929158026
 30
0.0
 42
-0.0803606510300774
  0
VERTEX
  5
EC
  8
0
 10
182.9785236665648
 20
147.21387414523559
 30
0.0
 42
-0.1070770247405605
 70
     2
 50
326.0279416034038
  0
VERTEX
  5
ED
  8
0
 10
183.45749542568791
 20
146.71448366027971
 30
0.0
 42
-0.1613150431834144
  0
VERTEX
  5
EE
  8
0
 10
183.56431010419169
 20
146.26097817179769
 30
0.0
 42
-0.1386762741031753
  0
SEQEND
  5
EF
  8
0
  0
LINE
  5
F0
  8
0
 10
180.18337978953119
 20
147.60857658096421
 30
0.0
 11
181.56431010419169
 21
147.60857658096421
 31
0.0
  0
LINE
  5
F1
  8
0
 10
180.18337978953119
 20
142.1407051067446
 30
0.0
 11
181.56431010419169
 21
142.1407051067446
 31
0.0
  0
LINE
  5
F4
  8
1
 10
68.000000000000057
 20
135.0
 30
0.0
 11
117.9999999999996
 21
135.0
 31
0.0
  0
LINE
  5
F5
  8
0
 10
183.56431010419169
 20
48.707003890731272
 30
0.0
 11
185.56431010419169
 21
48.707003890731272
 31
0.0
  0
LINE
  5
F6
  8
0
 10
185.56431010419169
 20
66.707003890731286
 30
0.0
 11
185.56431010419169
 21
48.707003890731272
 31
0.0
  0
LINE
  5
F7
  8
1
 10
166.56431010419169
 20
57.707003890731272
 30
0.0
 11
201.56431010419169
 21
57.707003890731258
 31
0.0
  0
LINE
  5
F8
  8
0
 10
185.56431010419169
 20
64.707003890731315
 30
0.0
 11
196.3643101041917
 21
64.707003890731286
 31
0.0
  0
LINE
  5
F9
  8
0
 10
185.56431010419169
 20
50.707003890731308
 30
0.0
 11
196.3643101041917
 21
50.707003890731279
 31
0.0
  0
LINE
  5
FA
  8
0
 10
196.56431010419169
 20
64.507003890731298
 30
0.0
 11
196.56431010419169
 21
50.907003890731289
 31
0.0
  0
LINE
  5
FB
  8
0
 10
196.3643101041917
 20
64.707003890731286
 30
0.0
 11
196.56431010419169
 21
64.507003890731298
 31
0.0
  0
LINE
  5
FC
  8
0
 10
196.56431010419169
 20
50.907003890731289
 30
0.0
 11
196.3643101041917
 21
50.707003890731279
 31
0.0
  0
LINE
  5
FD
  8
0
 10
185.56431010419169
 20
66.707003890731286
 30
0.0
 11
183.56431010419169
 21
66.707003890731286
 31
0.0
  0
LINE
  5
FE
  8
0
 10
196.3643101041917
 20
64.707003890731286
 30
0.0
 11
196.3643101041917
 21
50.707003890731279
 31
0.0
  0
LINE
  5
FF
  8
0
 10
183.56431010419169
 20
75.723532816352147
 30
0.0
 11
183.56431010419169
 21
39.690474965110397
 31
0.0
  0
LINE
  5
101
  8
0
 10
180.18337978953119
 20
73.231945005014424
 30
0.0
 11
181.56431010419169
 21
73.231945005014424
 31
0.0
  0
LINE
  5
102
  8
0
 10
180.18337978953119
 20
60.863880958266321
 30
0.0
 11
181.56431010419169
 21
60.863880958266321
 31
0.0
  0
LINE
  5
103
  8
0
 10
174.99576760926789
 20
74.235475405493133
 30
0.0
 11
174.99576760926789
 21
75.406863448971521
 31
0.0
  0
POLYLINE
  5
104
  8
0
 66
     1
 10
0.0
 20
0.0
 30
0.0
  0
VERTEX
  5
105
  8
0
 10
174.99576760926789
 20
74.235475405493133
 30
0.0
 42
0.2913139887789912
 50
89.999999999999986
  0
VERTEX
  5
106
  8
0
 10
175.16926983708581
 20
73.962954742870565
 30
0.0
 42
0.061535732818493
 50
89.999999999999986
  0
VERTEX
  5
107
  8
0
 10
176.51518403870111
 20
73.525872254187803
 30
0.0
 42
0.0277895119035349
 70
     2
 50
349.05151134683251
  0
VERTEX
  5
108
  8
0
 10
178.04280621170381
 20
73.317568327824844
 30
0.0
 42
0.0199920949778763
 50
349.05151134683251
  0
VERTEX
  5
109
  8
0
 10
180.18337978953119
 20
73.231945005014424
 30
0.0
 42
0.0199920949778785
 50
89.999999999999986
  0
SEQEND
  5
10A
  8
0
  0
LINE
  5
10B
  8
0
 10
174.99576760926789
 20
56.21894647987088
 30
0.0
 11
174.99576760926789
 21
59.195061301591693
 31
0.0
  0
POLYLINE
  5
10C
  8
0
 66
     1
 10
0.0
 20
0.0
 30
0.0
  0
VERTEX
  5
10D
  8
0
 10
181.56431010419169
 20
73.231945005014424
 30
0.0
 42
0.051275007048526
 50
89.999999999999986
  0
VERTEX
  5
10E
  8
0
 10
182.37304518164939
 20
73.315099422077353
 30
0.0
 42
0.0651263944278398
 50
89.999999999999986
  0
VERTEX
  5
10F
  8
0
 10
182.9785236665648
 20
73.525872254187803
 30
0.0
 42
0.1042837093569608
 70
     2
 50
26.64590485316695
  0
VERTEX
  5
110
  8
0
 10
183.46852610549871
 20
73.916376978118933
 30
0.0
 42
0.2019249953317046
 50
26.64590485316695
  0
VERTEX
  5
111
  8
0
 10
183.56431010419089
 20
74.235475405493133
 30
0.0
 42
0.1742586583764285
 50
89.999999999999986
  0
SEQEND
  5
112
  8
0
  0
ARC
  5
114
  8
0
 10
180.18337978953119
 20
70.707003890731229
 30
0.0
 40
7.0
 50
130.42485669281979
 51
165.8014401249572
  0
POLYLINE
  5
115
  8
0
 66
     1
 10
0.0
 20
0.0
 30
0.0
  0
VERTEX
  5
116
  8
0
 10
183.56431010419169
 20
59.195061301591693
 30
0.0
 42
0.1157061221278919
 50
89.999999999999986
  0
VERTEX
  5
117
  8
0
 10
183.41821302034171
 20
59.817937373625682
 30
0.0
 42
0.1040348057808744
 50
89.999999999999986
  0
VERTEX
  5
118
  8
0
 10
182.9785236665648
 20
60.375094997403721
 30
0.0
 42
0.090899700527906
 70
     2
 50
140.15804767643391
  0
VERTEX
  5
119
  8
0
 10
182.34520988297069
 20
60.732738145476127
 30
0.0
 42
0.0833851976864013
 50
140.15804767643391
  0
VERTEX
  5
11A
  8
0
 10
181.56431010419169
 20
60.863880958266321
 30
0.0
 42
0.0833851976864072
 50
89.999999999999986
  0
SEQEND
  5
11B
  8
0
  0
POLYLINE
  5
11C
  8
0
 66
     1
 10
0.0
 20
0.0
 30
0.0
  0
VERTEX
  5
11D
  8
0
 10
180.18337978953119
 20
60.863880958266321
 30
0.0
 42
0.0331294507717754
 50
89.999999999999986
  0
VERTEX
  5
11E
  8
0
 10
178.05673168768081
 20
60.722816764579868
 30
0.0
 42
0.0447219732328795
 50
89.999999999999986
  0
VERTEX
  5
11F
  8
0
 10
176.51518403870111
 20
60.375094997403721
 30
0.0
 42
0.0874955819920872
 70
     2
 50
197.83263109287029
  0
VERTEX
  5
120
  8
0
 10
175.18726220028461
 20
59.673971118447668
 30
0.0
 42
0.2714272851995254
 50
197.83263109287029
  0
VERTEX
  5
121
  8
0
 10
174.99576760926789
 20
59.195061301591693
 30
0.0
 42
0.2316302955616549
 50
89.999999999999986
  0
SEQEND
  5
122
  8
0
  0
POLYLINE
  5
123
  8
0
 66
     1
 10
0.0
 20
0.0
 30
0.0
  0
VERTEX
  5
124
  8
0
 10
180.18337978953119
 20
54.550126823196251
 30
0.0
 42
-0.0331294507717754
 50
89.999999999999986
  0
VERTEX
  5
125
  8
0
 10
178.05673168768081
 20
54.691191016882669
 30
0.0
 42
-0.0447219732328795
 50
89.999999999999986
  0
VERTEX
  5
126
  8
0
 10
176.51518403870111
 20
55.038912784058851
 30
0.0
 42
-0.0874955819920872
 70
     2
 50
162.1673689071296
  0
VERTEX
  5
127
  8
0
 10
175.18726220028461
 20
55.740036663014898
 30
0.0
 42
-0.2714272851995254
 50
89.999999999999986
  0
VERTEX
  5
128
  8
0
 10
174.99576760926789
 20
56.21894647987088
 30
0.0
 42
-0.2316302955616549
 50
89.999999999999986
  0
SEQEND
  5
129
  8
0
  0
LINE
  5
12A
  8
0
 10
180.18337978953119
 20
54.550126823196251
 30
0.0
 11
181.56431010419169
 21
54.550126823196251
 31
0.0
  0
POLYLINE
  5
12B
  8
0
 66
     1
 10
0.0
 20
0.0
 30
0.0
  0
VERTEX
  5
12C
  8
0
 10
183.56431010419169
 20
56.21894647987088
 30
0.0
 42
-0.1157061221278919
 50
89.999999999999986
  0
VERTEX
  5
12D
  8
0
 10
183.41821302034171
 20
55.596070407836862
 30
0.0
 42
-0.1040348057808744
 50
89.999999999999986
  0
VERTEX
  5
12E
  8
0
 10
182.9785236665648
 20
55.038912784058851
 30
0.0
 42
-0.090899700527906
 70
     2
 50
219.84195232356601
  0
VERTEX
  5
12F
  8
0
 10
182.34520988297069
 20
54.681269635986439
 30
0.0
 42
-0.0833851976864013
 50
89.999999999999986
  0
VERTEX
  5
130
  8
0
 10
181.56431010419169
 20
54.550126823196251
 30
0.0
 42
-0.0833851976864072
 50
89.999999999999986
  0
SEQEND
  5
131
  8
0
  0
POLYLINE
  5
132
  8
0
 66
     1
 10
0.0
 20
0.0
 30
0.0
  0
VERTEX
  5
133
  8
0
 10
174.4388171429932
 20
66.207003890731244
 30
0.0
 42
0.012718033617553
 50
89.999999999999986
  0
VERTEX
  5
134
  8
0
 10
174.48649075868661
 20
64.333054426660155
 30
0.0
 42
0.0178600894518953
 50
89.999999999999986
  0
VERTEX
  5
135
  8
0
 10
174.60194415778
 20
63.002989123921971
 30
0.0
 42
0.0415652416655366
 70
     2
 50
277.00739731185848
  0
VERTEX
  5
136
  8
0
 10
174.85681339925449
 20
61.779551966698527
 30
0.0
 42
0.332035681531368
 50
277.00739731185848
  0
VERTEX
  5
137
  8
0
 10
174.99576760926789
 20
61.675842753465929
 30
0.0
 42
0.3320356815313141
 50
89.999999999999986
  0
SEQEND
  5
138
  8
0
  0
POLYLINE
  5
139
  8
0
 66
     1
 10
0.0
 20
0.0
 30
0.0
  0
VERTEX
  5
13A
  8
0
 10
174.99576760926789
 20
71.857046146877693
 30
0.0
 42
0.3473258706611451
 50
89.999999999999986
  0
VERTEX
  5
13B
  8
0
 10
174.86132185437179
 20
71.750841095038041
 30
0.0
 42
0.0338571882308007
 50
89.999999999999986
  0
VERTEX
  5
13C
  8
0
 10
174.60194415778
 20
70.202187084042933
 30
0.0
 42
0.0143632074799382
 70
     2
 50
264.37028091758702
  0
VERTEX
  5
13D
  8
0
 10
174.4682752424433
 20
68.282896787392346
 30
0.0
 42
0.0133101052982131
 50
264.37028091758702
  0
VERTEX
  5
13E
  8
0
 10
174.4388171429932
 20
66.207003890731244
 30
0.0
 42
0.0102024175690987
 50
89.999999999999986
  0
SEQEND
  5
13F
  8
0
  0
POLYLINE
  5
141
  8
0
 66
     1
 10
0.0
 20
0.0
 30
0.0
  0
VERTEX
  5
142
  8
0
 10
174.99576760926789
 20
43.556961634584837
 30
0.0
 42
-0.3473258706611451
 50
89.999999999999986
  0
VERTEX
  5
143
  8
0
 10
174.86132185437179
 20
43.66316668642451
 30
0.0
 42
-0.0338571882308007
 50
89.999999999999986
  0
VERTEX
  5
144
  8
0
 10
174.60194415778
 20
45.211820697419597
 30
0.0
 42
-0.0143632074799382
 70
     2
 50
95.629719082413033
  0
VERTEX
  5
145
  8
0
 10
174.4682752424433
 20
47.131110994070212
 30
0.0
 42
-0.0133101052982131
 50
89.999999999999986
  0
VERTEX
  5
146
  8
0
 10
174.4388171429932
 20
49.207003890731301
 30
0.0
 42
-0.0102024175690987
 50
89.999999999999986
  0
SEQEND
  5
147
  8
0
  0
POLYLINE
  5
148
  8
0
 66
     1
 10
0.0
 20
0.0
 30
0.0
  0
VERTEX
  5
149
  8
0
 10
174.4388171429932
 20
49.207003890731301
 30
0.0
 42
-0.012718033617553
 50
89.999999999999986
  0
VERTEX
  5
14A
  8
0
 10
174.48649075868661
 20
51.080953354802404
 30
0.0
 42
-0.0178600894518953
 50
89.999999999999986
  0
VERTEX
  5
14B
  8
0
 10
174.60194415778
 20
52.411018657540552
 30
0.0
 42
-0.0415652416655366
 70
     2
 50
82.992602688141531
  0
VERTEX
  5
14C
  8
0
 10
174.85681339925449
 20
53.63445581476401
 30
0.0
 42
-0.332035681531368
 50
89.999999999999986
  0
VERTEX
  5
14D
  8
0
 10
174.99576760926789
 20
53.738165027996637
 30
0.0
 42
-0.3320356815313141
 50
89.999999999999986
  0
SEQEND
  5
14E
  8
0
  0
LINE
  5
14F
  8
0
 10
180.18337978953119
 20
76.388822072549431
 30
0.0
 11
181.56431010419169
 21
76.388822072549431
 31
0.0
  0
POLYLINE
  5
150
  8
0
 66
     1
 10
0.0
 20
0.0
 30
0.0
  0
VERTEX
  5
151
  8
0
 10
180.18337978953119
 20
76.388822072549445
 30
0.0
 42
0.0132685910868809
 50
90.0
  0
VERTEX
  5
152
  8
0
 10
178.03823648427451
 20
76.331885989957996
 30
0.0
 42
0.0186217222227305
 50
90.0
  0
VERTEX
  5
153
  8
0
 10
176.51518403870111
 20
76.193963360859811
 30
0.0
 42
0.0260491972400551
 70
     2
 50
187.3080497923992
  0
VERTEX
  5
154
  8
0
 10
175.64422825592379
 20
76.03580331977237
 30
0.0
 42
0.4068834521654976
 50
187.3080497923992
  0
SEQEND
  5
155
  8
0
  0
POLYLINE
  5
156
  8
0
 66
     1
 10
0.0
 20
0.0
 30
0.0
  0
VERTEX
  5
157
  8
0
 10
183.56431010419169
 20
75.723532816352147
 30
0.0
 42
0.2273454727065944
 50
90.0
  0
VERTEX
  5
158
  8
0
 10
183.46613190651581
 20
75.928295554269667
 30
0.0
 42
0.0891053694319105
 50
90.0
  0
VERTEX
  5
159
  8
0
 10
182.9785236665648
 20
76.193963360859811
 30
0.0
 42
0.0460842897367649
 70
     2
 50
161.60057242457739
  0
VERTEX
  5
15A
  8
0
 10
182.29973917966231
 20
76.352199862592542
 30
0.0
 42
0.0436115163530578
 50
161.60057242457739
  0
VERTEX
  5
15B
  8
0
 10
181.56431010419169
 20
76.388822072549431
 30
0.0
 42
0.0342443170783864
 50
90.0
  0
SEQEND
  5
15C
  8
0
  0
POLYLINE
  5
15D
  8
0
 66
     1
 10
0.0
 20
0.0
 30
0.0
  0
VERTEX
  5
15E
  8
0
 10
183.56431010419169
 20
39.690474965110383
 30
0.0
 42
-0.2273454727065944
 50
90.0
  0
VERTEX
  5
15F
  8
0
 10
183.46613190651581
 20
39.485712227192863
 30
0.0
 42
-0.0891053694319105
 50
90.0
  0
VERTEX
  5
160
  8
0
 10
182.9785236665648
 20
39.220044420602711
 30
0.0
 42
-0.0460842897367649
 70
     2
 50
198.39942757542261
  0
VERTEX
  5
161
  8
0
 10
182.29973917966231
 20
39.061807918869981
 30
0.0
 42
-0.0436115163530578
 50
90.0
  0
VERTEX
  5
162
  8
0
 10
181.56431010419169
 20
39.025185708913092
 30
0.0
 42
-0.0342443170783864
 50
90.0
  0
SEQEND
  5
163
  8
0
  0
POLYLINE
  5
164
  8
0
 66
     1
 10
0.0
 20
0.0
 30
0.0
  0
VERTEX
  5
165
  8
0
 10
180.18337978953119
 20
39.025185708913078
 30
0.0
 42
-0.0132685910868809
 50
90.0
  0
VERTEX
  5
166
  8
0
 10
178.03823648427451
 20
39.082121791504527
 30
0.0
 42
-0.0186217222227305
 50
90.0
  0
VERTEX
  5
167
  8
0
 10
176.51518403870111
 20
39.220044420602711
 30
0.0
 42
-0.0260491972400551
 70
     2
 50
172.69195020760071
  0
VERTEX
  5
168
  8
0
 10
175.64422825592379
 20
39.378204461690153
 30
0.0
 42
-0.4068834521654976
 50
90.0
  0
SEQEND
  5
169
  8
0
  0
LINE
  5
16A
  8
0
 10
180.18337978953119
 20
39.025185708913092
 30
0.0
 11
181.56431010419169
 21
39.025185708913092
 31
0.0
  0
POLYLINE
  5
16B
  8
0
 66
     1
 10
0.0
 20
0.0
 30
0.0
  0
VERTEX
  5
16C
  8
0
 10
181.56431010419169
 20
42.182062776448092
 30
0.0
 42
-0.051275007048526
 50
90.0
  0
VERTEX
  5
16D
  8
0
 10
182.37304518164939
 20
42.09890835938517
 30
0.0
 42
-0.0651263944278398
 50
90.0
  0
VERTEX
  5
16E
  8
0
 10
182.9785236665648
 20
41.88813552727472
 30
0.0
 42
-0.1042837093569608
 70
     2
 50
333.354095146833
  0
VERTEX
  5
16F
  8
0
 10
183.46852610549871
 20
41.497630803343569
 30
0.0
 42
-0.2019249953317046
 50
90.0
  0
VERTEX
  5
170
  8
0
 10
183.56431010419089
 20
41.178532375969368
 30
0.0
 42
-0.1742586583764285
 50
90.0
  0
SEQEND
  5
171
  8
0
  0
POLYLINE
  5
172
  8
0
 66
     1
 10
0.0
 20
0.0
 30
0.0
  0
VERTEX
  5
173
  8
0
 10
174.99576760926789
 20
41.178532375969368
 30
0.0
 42
-0.2913139887789912
 50
90.0
  0
VERTEX
  5
174
  8
0
 10
175.16926983708581
 20
41.451053038591951
 30
0.0
 42
-0.061535732818493
 50
90.0
  0
VERTEX
  5
175
  8
0
 10
176.51518403870111
 20
41.88813552727472
 30
0.0
 42
-0.0277895119035349
 70
     2
 50
10.94848865316755
  0
VERTEX
  5
176
  8
0
 10
178.04280621170381
 20
42.096439453637679
 30
0.0
 42
-0.0199920949778763
 50
90.0
  0
VERTEX
  5
177
  8
0
 10
180.18337978953119
 20
42.182062776448092
 30
0.0
 42
-0.0199920949778785
 50
90.0
  0
SEQEND
  5
178
  8
0
  0
LINE
  5
179
  8
0
 10
174.99576760926789
 20
41.178532375969368
 30
0.0
 11
174.99576760926789
 21
40.007144332491002
 31
0.0
  0
LINE
  5
17A
  8
0
 10
180.18337978953119
 20
42.182062776448092
 30
0.0
 11
181.56431010419169
 21
42.182062776448092
 31
0.0
  0
ARC
  5
17B
  8
0
 10
180.18337978953119
 20
44.707003890731293
 30
0.0
 40
7.0
 50
194.19855987504269
 51
229.5751433071801
  0
ARC
  5
17C
  8
0
 10
180.18337978953119
 20
225.2929961092687
 30
0.0
 40
7.0
 50
130.4248566928199
 51
165.8014401249572
  0
LINE
  5
17D
  8
0
 10
180.18337978953119
 20
227.81793722355189
 30
0.0
 11
181.56431010419169
 21
227.81793722355189
 31
0.0
  0
LINE
  5
17E
  8
0
 10
174.99576760926789
 20
228.82146762403059
 30
0.0
 11
174.99576760926789
 21
229.99285566750899
 31
0.0
  0
POLYLINE
  5
17F
  8
0
 66
     1
 10
0.0
 20
0.0
 30
0.0
  0
VERTEX
  5
180
  8
0
 10
174.99576760926789
 20
228.82146762403059
 30
0.0
 42
0.2913139887789912
  0
VERTEX
  5
181
  8
0
 10
175.16926983708581
 20
228.54894696140809
 30
0.0
 42
0.061535732818493
  0
VERTEX
  5
182
  8
0
 10
176.51518403870111
 20
228.1118644727253
 30
0.0
 42
0.0277895119035349
 70
     2
 50
349.05151134683251
  0
VERTEX
  5
183
  8
0
 10
178.04280621170381
 20
227.9035605463624
 30
0.0
 42
0.0199920949778763
  0
VERTEX
  5
184
  8
0
 10
180.18337978953119
 20
227.81793722355189
 30
0.0
 42
0.0199920949778785
  0
SEQEND
  5
185
  8
0
  0
POLYLINE
  5
186
  8
0
 66
     1
 10
0.0
 20
0.0
 30
0.0
  0
VERTEX
  5
187
  8
0
 10
181.56431010419169
 20
227.81793722355189
 30
0.0
 42
0.051275007048526
  0
VERTEX
  5
188
  8
0
 10
182.37304518164939
 20
227.90109164061491
 30
0.0
 42
0.0651263944278398
  0
VERTEX
  5
189
  8
0
 10
182.9785236665648
 20
228.1118644727253
 30
0.0
 42
0.1042837093569608
 70
     2
 50
26.645904853166972
  0
VERTEX
  5
18A
  8
0
 10
183.46852610549871
 20
228.50236919665639
 30
0.0
 42
0.2019249953317046
  0
VERTEX
  5
18B
  8
0
 10
183.56431010419089
 20
228.82146762403059
 30
0.0
 42
0.1742586583764285
  0
SEQEND
  5
18C
  8
0
  0
LINE
  5
18D
  8
0
 10
180.18337978953119
 20
230.97481429108689
 30
0.0
 11
181.56431010419169
 21
230.97481429108689
 31
0.0
  0
POLYLINE
  5
18E
  8
0
 66
     1
 10
0.0
 20
0.0
 30
0.0
  0
VERTEX
  5
18F
  8
0
 10
180.18337978953119
 20
230.97481429108689
 30
0.0
 42
0.0132685910868809
  0
VERTEX
  5
190
  8
0
 10
178.03823648427451
 20
230.91787820849549
 30
0.0
 42
0.0186217222227305
  0
VERTEX
  5
191
  8
0
 10
176.51518403870111
 20
230.7799555793973
 30
0.0
 42
0.0260491972400551
 70
     2
 50
187.30804979239929
  0
VERTEX
  5
192
  8
0
 10
175.64422825592379
 20
230.6217955383099
 30
0.0
 42
0.4068834521654976
  0
SEQEND
  5
193
  8
0
  0
POLYLINE
  5
194
  8
0
 66
     1
 10
0.0
 20
0.0
 30
0.0
  0
VERTEX
  5
195
  8
0
 10
183.56431010419169
 20
230.3095250348897
 30
0.0
 42
0.2273454727065944
  0
VERTEX
  5
196
  8
0
 10
183.46613190651581
 20
230.51428777280719
 30
0.0
 42
0.0891053694319105
  0
VERTEX
  5
197
  8
0
 10
182.9785236665648
 20
230.7799555793973
 30
0.0
 42
0.0460842897367649
 70
     2
 50
161.60057242457739
  0
VERTEX
  5
198
  8
0
 10
182.29973917966231
 20
230.9381920811301
 30
0.0
 42
0.0436115163530578
  0
VERTEX
  5
199
  8
0
 10
181.56431010419169
 20
230.97481429108689
 30
0.0
 42
0.0342443170783864
  0
SEQEND
  5
19A
  8
0
  0
POLYLINE
  5
19B
  8
0
 66
     1
 10
0.0
 20
0.0
 30
0.0
  0
VERTEX
  5
19C
  8
0
 10
183.56431010419169
 20
194.27646718364781
 30
0.0
 42
-0.2273454727065944
  0
VERTEX
  5
19D
  8
0
 10
183.46613190651581
 20
194.07170444573029
 30
0.0
 42
-0.0891053694319105
  0
VERTEX
  5
19E
  8
0
 10
182.9785236665648
 20
193.80603663914019
 30
0.0
 42
-0.0460842897367649
 70
     2
 50
198.39942757542261
  0
VERTEX
  5
19F
  8
0
 10
182.29973917966231
 20
193.6478001374075
 30
0.0
 42
-0.0436115163530578
  0
VERTEX
  5
1A0
  8
0
 10
181.56431010419169
 20
193.6111779274506
 30
0.0
 42
-0.0342443170783864
  0
SEQEND
  5
1A1
  8
0
  0
POLYLINE
  5
1A2
  8
0
 66
     1
 10
0.0
 20
0.0
 30
0.0
  0
VERTEX
  5
1A3
  8
0
 10
180.18337978953119
 20
193.61117792745051
 30
0.0
 42
-0.0132685910868809
  0
VERTEX
  5
1A4
  8
0
 10
178.03823648427451
 20
193.66811401004199
 30
0.0
 42
-0.0186217222227305
  0
VERTEX
  5
1A5
  8
0
 10
176.51518403870111
 20
193.80603663914019
 30
0.0
 42
-0.0260491972400551
 70
     2
 50
172.69195020760071
  0
VERTEX
  5
1A6
  8
0
 10
175.64422825592379
 20
193.96419668022759
 30
0.0
 42
-0.4068834521654976
  0
SEQEND
  5
1A7
  8
0
  0
LINE
  5
1A8
  8
0
 10
180.18337978953119
 20
193.6111779274506
 30
0.0
 11
181.56431010419169
 21
193.6111779274506
 31
0.0
  0
POLYLINE
  5
1A9
  8
0
 66
     1
 10
0.0
 20
0.0
 30
0.0
  0
VERTEX
  5
1AA
  8
0
 10
174.4388171429932
 20
220.7929961092687
 30
0.0
 42
0.012718033617553
  0
VERTEX
  5
1AB
  8
0
 10
174.48649075868661
 20
218.9190466451976
 30
0.0
 42
0.0178600894518953
  0
VERTEX
  5
1AC
  8
0
 10
174.60194415778
 20
217.5889813424595
 30
0.0
 42
0.0415652416655366
 70
     2
 50
277.00739731185848
  0
VERTEX
  5
1AD
  8
0
 10
174.85681339925449
 20
216.36554418523599
 30
0.0
 42
0.332035681531368
  0
VERTEX
  5
1AE
  8
0
 10
174.99576760926789
 20
216.26183497200341
 30
0.0
 42
0.3320356815313141
  0
SEQEND
  5
1AF
  8
0
  0
POLYLINE
  5
1B0
  8
0
 66
     1
 10
0.0
 20
0.0
 30
0.0
  0
VERTEX
  5
1B1
  8
0
 10
174.99576760926789
 20
226.44303836541519
 30
0.0
 42
0.3473258706611451
  0
VERTEX
  5
1B2
  8
0
 10
174.86132185437179
 20
226.33683331357551
 30
0.0
 42
0.0338571882308007
  0
VERTEX
  5
1B3
  8
0
 10
174.60194415778
 20
224.7881793025804
 30
0.0
 42
0.0143632074799382
 70
     2
 50
264.37028091758702
  0
VERTEX
  5
1B4
  8
0
 10
174.4682752424433
 20
222.86888900592979
 30
0.0
 42
0.0133101052982131
  0
VERTEX
  5
1B5
  8
0
 10
174.4388171429932
 20
220.7929961092687
 30
0.0
 42
0.0102024175690987
  0
SEQEND
  5
1B6
  8
0
  0
POLYLINE
  5
1B8
  8
0
 66
     1
 10
0.0
 20
0.0
 30
0.0
  0
VERTEX
  5
1B9
  8
0
 10
174.99576760926789
 20
198.14295385312229
 30
0.0
 42
-0.3473258706611451
  0
VERTEX
  5
1BA
  8
0
 10
174.86132185437179
 20
198.249158904962
 30
0.0
 42
-0.0338571882308007
  0
VERTEX
  5
1BB
  8
0
 10
174.60194415778
 20
199.79781291595711
 30
0.0
 42
-0.0143632074799382
 70
     2
 50
95.629719082413075
  0
VERTEX
  5
1BC
  8
0
 10
174.4682752424433
 20
201.7171032126077
 30
0.0
 42
-0.0133101052982131
  0
VERTEX
  5
1BD
  8
0
 10
174.4388171429932
 20
203.79299610926881
 30
0.0
 42
-0.0102024175690987
  0
SEQEND
  5
1BE
  8
0
  0
POLYLINE
  5
1BF
  8
0
 66
     1
 10
0.0
 20
0.0
 30
0.0
  0
VERTEX
  5
1C0
  8
0
 10
174.4388171429932
 20
203.79299610926881
 30
0.0
 42
-0.012718033617553
  0
VERTEX
  5
1C1
  8
0
 10
174.48649075868661
 20
205.66694557333989
 30
0.0
 42
-0.0178600894518953
  0
VERTEX
  5
1C2
  8
0
 10
174.60194415778
 20
206.99701087607801
 30
0.0
 42
-0.0415652416655366
 70
     2
 50
82.992602688141488
  0
VERTEX
  5
1C3
  8
0
 10
174.85681339925449
 20
208.22044803330149
 30
0.0
 42
-0.332035681531368
  0
VERTEX
  5
1C4
  8
0
 10
174.99576760926789
 20
208.3241572465341
 30
0.0
 42
-0.3320356815313141
  0
SEQEND
  5
1C5
  8
0
  0
POLYLINE
  5
1C6
  8
0
 66
     1
 10
0.0
 20
0.0
 30
0.0
  0
VERTEX
  5
1C7
  8
0
 10
183.56431010419169
 20
213.78105352012921
 30
0.0
 42
0.1157061221278919
  0
VERTEX
  5
1C8
  8
0
 10
183.41821302034171
 20
214.40392959216319
 30
0.0
 42
0.1040348057808744
  0
VERTEX
  5
1C9
  8
0
 10
182.9785236665648
 20
214.96108721594121
 30
0.0
 42
0.090899700527906
 70
     2
 50
140.15804767643391
  0
VERTEX
  5
1CA
  8
0
 10
182.34520988297069
 20
215.31873036401359
 30
0.0
 42
0.0833851976864013
  0
VERTEX
  5
1CB
  8
0
 10
181.56431010419169
 20
215.44987317680381
 30
0.0
 42
0.0833851976864072
  0
SEQEND
  5
1CC
  8
0
  0
LINE
  5
1CD
  8
0
 10
180.18337978953119
 20
215.44987317680381
 30
0.0
 11
181.56431010419169
 21
215.44987317680381
 31
0.0
  0
POLYLINE
  5
1CE
  8
0
 66
     1
 10
0.0
 20
0.0
 30
0.0
  0
VERTEX
  5
1CF
  8
0
 10
180.18337978953119
 20
215.44987317680381
 30
0.0
 42
0.0331294507717754
  0
VERTEX
  5
1D0
  8
0
 10
178.05673168768081
 20
215.3088089831173
 30
0.0
 42
0.0447219732328795
  0
VERTEX
  5
1D1
  8
0
 10
176.51518403870111
 20
214.96108721594121
 30
0.0
 42
0.0874955819920872
 70
     2
 50
197.8326310928704
  0
VERTEX
  5
1D2
  8
0
 10
175.18726220028461
 20
214.25996333698509
 30
0.0
 42
0.2714272851995254
  0
VERTEX
  5
1D3
  8
0
 10
174.99576760926789
 20
213.78105352012921
 30
0.0
 42
0.2316302955616549
  0
SEQEND
  5
1D4
  8
0
  0
POLYLINE
  5
1D5
  8
0
 66
     1
 10
0.0
 20
0.0
 30
0.0
  0
VERTEX
  5
1D6
  8
0
 10
180.18337978953119
 20
209.13611904173371
 30
0.0
 42
-0.0331294507717754
  0
VERTEX
  5
1D7
  8
0
 10
178.05673168768081
 20
209.2771832354201
 30
0.0
 42
-0.0447219732328795
  0
VERTEX
  5
1D8
  8
0
 10
176.51518403870111
 20
209.62490500259631
 30
0.0
 42
-0.0874955819920872
 70
     2
 50
162.1673689071296
  0
VERTEX
  5
1D9
  8
0
 10
175.18726220028461
 20
210.32602888155239
 30
0.0
 42
-0.2714272851995254
  0
VERTEX
  5
1DA
  8
0
 10
174.99576760926789
 20
210.80493869840831
 30
0.0
 42
-0.2316302955616549
  0
SEQEND
  5
1DB
  8
0
  0
POLYLINE
  5
1DC
  8
0
 66
     1
 10
0.0
 20
0.0
 30
0.0
  0
VERTEX
  5
1DD
  8
0
 10
183.56431010419169
 20
210.80493869840831
 30
0.0
 42
-0.1157061221278919
  0
VERTEX
  5
1DE
  8
0
 10
183.41821302034171
 20
210.18206262637429
 30
0.0
 42
-0.1040348057808744
  0
VERTEX
  5
1DF
  8
0
 10
182.9785236665648
 20
209.62490500259631
 30
0.0
 42
-0.090899700527906
 70
     2
 50
219.84195232356601
  0
VERTEX
  5
1E0
  8
0
 10
182.34520988297069
 20
209.26726185452389
 30
0.0
 42
-0.0833851976864013
  0
VERTEX
  5
1E1
  8
0
 10
181.56431010419169
 20
209.13611904173371
 30
0.0
 42
-0.0833851976864072
  0
SEQEND
  5
1E2
  8
0
  0
ARC
  5
1E3
  8
0
 10
180.18337978953119
 20
199.29299610926881
 30
0.0
 40
7.0
 50
194.19855987504269
 51
229.5751433071801
  0
POLYLINE
  5
1E5
  8
0
 66
     1
 10
0.0
 20
0.0
 30
0.0
  0
VERTEX
  5
1E6
  8
0
 10
181.56431010419169
 20
196.76805499498559
 30
0.0
 42
-0.051275007048526
  0
VERTEX
  5
1E7
  8
0
 10
182.37304518164939
 20
196.68490057792269
 30
0.0
 42
-0.0651263944278398
  0
VERTEX
  5
1E8
  8
0
 10
182.9785236665648
 20
196.47412774581221
 30
0.0
 42
-0.1042837093569608
 70
     2
 50
333.35409514683312
  0
VERTEX
  5
1E9
  8
0
 10
183.46852610549871
 20
196.08362302188101
 30
0.0
 42
-0.2019249953317046
  0
VERTEX
  5
1EA
  8
0
 10
183.56431010419089
 20
195.7645245945069
 30
0.0
 42
-0.1742586583764285
  0
SEQEND
  5
1EB
  8
0
  0
LINE
  5
1EC
  8
0
 10
174.99576760926789
 20
213.78105352012921
 30
0.0
 11
174.99576760926789
 21
210.80493869840831
 31
0.0
  0
POLYLINE
  5
1ED
  8
0
 66
     1
 10
0.0
 20
0.0
 30
0.0
  0
VERTEX
  5
1EE
  8
0
 10
174.99576760926789
 20
195.7645245945069
 30
0.0
 42
-0.2913139887789912
  0
VERTEX
  5
1EF
  8
0
 10
175.16926983708581
 20
196.03704525712951
 30
0.0
 42
-0.061535732818493
  0
VERTEX
  5
1F0
  8
0
 10
176.51518403870111
 20
196.47412774581221
 30
0.0
 42
-0.0277895119035349
 70
     2
 50
10.94848865316758
  0
VERTEX
  5
1F1
  8
0
 10
178.04280621170381
 20
196.6824316721752
 30
0.0
 42
-0.0199920949778763
  0
VERTEX
  5
1F2
  8
0
 10
180.18337978953119
 20
196.76805499498559
 30
0.0
 42
-0.0199920949778785
  0
SEQEND
  5
1F3
  8
0
  0
LINE
  5
1F4
  8
0
 10
174.99576760926789
 20
195.7645245945069
 30
0.0
 11
174.99576760926789
 21
194.59313655102849
 31
0.0
  0
LINE
  5
1F5
  8
0
 10
180.18337978953119
 20
209.13611904173371
 30
0.0
 11
181.56431010419169
 21
209.13611904173371
 31
0.0
  0
LINE
  5
1F6
  8
0
 10
180.18337978953119
 20
196.76805499498559
 30
0.0
 11
181.56431010419169
 21
196.76805499498559
 31
0.0
  0
LINE
  5
1F8
  8
0
 10
183.56431010419169
 20
194.27646718364781
 30
0.0
 11
183.56431010419169
 21
230.30952503488959
 31
0.0
  0
LINE
  5
1F9
  8
0
 10
196.3643101041917
 20
205.2929961092687
 30
0.0
 11
196.3643101041917
 21
219.2929961092687
 31
0.0
  0
LINE
  5
1FA
  8
0
 10
185.56431010419169
 20
203.2929961092687
 30
0.0
 11
183.56431010419169
 21
203.2929961092687
 31
0.0
  0
LINE
  5
1FB
  8
0
 10
196.56431010419169
 20
219.09299610926871
 30
0.0
 11
196.3643101041917
 21
219.2929961092687
 31
0.0
  0
LINE
  5
1FC
  8
0
 10
196.3643101041917
 20
205.2929961092687
 30
0.0
 11
196.56431010419169
 21
205.4929961092688
 31
0.0
  0
LINE
  5
1FD
  8
0
 10
196.56431010419169
 20
205.4929961092688
 30
0.0
 11
196.56431010419169
 21
219.09299610926871
 31
0.0
  0
LINE
  5
1FE
  8
0
 10
185.56431010419169
 20
219.2929961092687
 30
0.0
 11
196.3643101041917
 21
219.2929961092687
 31
0.0
  0
LINE
  5
1FF
  8
0
 10
185.56431010419169
 20
205.2929961092687
 30
0.0
 11
196.3643101041917
 21
205.2929961092687
 31
0.0
  0
LINE
  5
200
  8
1
 10
166.56431010419169
 20
212.29299610926881
 30
0.0
 11
201.56431010419169
 21
212.29299610926881
 31
0.0
  0
LINE
  5
201
  8
0
 10
185.56431010419169
 20
203.2929961092687
 30
0.0
 11
185.56431010419169
 21
221.29299610926881
 31
0.0
  0
LINE
  5
202
  8
0
 10
183.56431010419169
 20
221.29299610926881
 30
0.0
 11
185.56431010419169
 21
221.29299610926881
 31
0.0
  0
CIRCLE
  5
208
  8
0
 10
274.7244402247257
 20
135.0
 30
0.0
 40
2.5
  0
ARC
  5
2C7
  8
0
 10
180.18337978953119
 20
147.99999999999989
 30
0.0
 40
7.0
 50
90.0
 51
165.8014401249574
  0
ARC
  5
2C8
  8
0
 10
231.5643101041918
 20
135.0
 30
0.0
 40
60.0
 50
165.8014401249574
 51
194.19855987504249
  0
ARC
  5
2C9
  8
0
 10
180.18337978953119
 20
122.0
 30
0.0
 40
7.0
 50
194.19855987504249
 51
270.0
  0
ARC
  5
2CA
  8
0
 10
181.56431010419169
 20
117.0
 30
0.0
 40
2.0
 50
270.0
 51
0.0
  0
ARC
  5
2CB
  8
0
 10
181.56431010419169
 20
152.99999999999989
 30
0.0
 40
2.0
 50
0.0
 51
90.0
  0
LINE
  5
2CC
  8
0
 10
183.5643101041918
 20
144.0
 30
0.0
 11
185.5643101041918
 21
144.0
 31
0.0
  0
LINE
  5
2CD
  8
0
 10
183.5643101041918
 20
126.0
 30
0.0
 11
185.5643101041918
 21
126.0
 31
0.0
  0
LINE
  5
2CE
  8
0
 10
183.56431010419169
 20
152.99999999999989
 30
0.0
 11
183.56431010419169
 21
117.0
 31
0.0
  0
LINE
  5
2CF
  8
0
 10
185.5643101041918
 20
144.0
 30
0.0
 11
185.5643101041918
 21
126.0
 31
0.0
  0
LINE
  5
2D0
  8
0
 10
180.18337978953119
 20
154.99999999999989
 30
0.0
 11
181.56431010419169
 21
154.99999999999989
 31
0.0
  0
LINE
  5
2D1
  8
0
 10
180.18337978953119
 20
115.0
 30
0.0
 11
181.56431010419169
 21
115.0
 31
0.0
  0
LINE
  5
2D2
  8
0
 10
185.5643101041918
 20
142.0
 30
0.0
 11
196.36431010419179
 21
142.0
 31
0.0
  0
LINE
  5
2D3
  8
0
 10
185.5643101041918
 20
128.0
 30
0.0
 11
196.36431010419179
 21
128.0
 31
0.0
  0
LINE
  5
2D4
  8
0
 10
196.56431010419169
 20
141.80000000000001
 30
0.0
 11
196.56431010419169
 21
128.19999999999999
 31
0.0
  0
LINE
  5
2D5
  8
0
 10
196.36431010419179
 20
142.0
 30
0.0
 11
196.56431010419169
 21
141.80000000000001
 31
0.0
  0
LINE
  5
2D6
  8
0
 10
196.56431010419169
 20
128.19999999999999
 30
0.0
 11
196.36431010419179
 21
128.0
 31
0.0
  0
LINE
  5
2D7
  8
0
 10
196.36431010419179
 20
142.0
 30
0.0
 11
196.36431010419179
 21
128.0
 31
0.0
  0
ARC
  5
2DB
  8
0
 10
231.5643101041918
 20
212.29299610926881
 30
0.0
 40
60.0
 50
165.8014401249574
 51
194.19855987504249
  0
ARC
  5
2DD
  8
0
 10
231.5643101041918
 20
57.707003890731272
 30
0.0
 40
60.0
 50
165.8014401249574
 51
194.19855987504249
  0
TEXT
  5
3F5
  8
0
 62
     3
 10
0.0
 20
0.0
 30
0.0
 40
10.0
  1
EK40N-SUS
  7
STANDARD1
  0
ENDSEC
  0
EOF
