  0
SECTION
  2
HEADER
  9
$ACADVER
  1
AC1009
  9
$INSBASE
 10
0.0
 20
0.0
 30
0.0
  9
$EXTMIN
 10
0.0
 20
-1.4802182810368341
 30
0.0
  9
$EXTMAX
 10
176.3073796280373
 20
87.880203947668363
 30
0.0
  9
$LIMMIN
 10
0.0
 20
0.0
  9
$LIMMAX
 10
279.39999999999998
 20
215.90000000000001
  9
$ORTHOMODE
 70
     1
  9
$REGENMODE
 70
     1
  9
$FILLMODE
 70
     1
  9
$QTEXTMODE
 70
     0
  9
$MIRRTEXT
 70
     1
  9
$DRAGMODE
 70
     2
  9
$LTSCALE
 40
1.0
  9
$OSMODE
 70
  3071
  9
$ATTMODE
 70
     1
  9
$TEXTSIZE
 40
2.5
  9
$TRACEWID
 40
1.0
  9
$TEXTSTYLE
  7
STANDARD
  9
$CLAYER
  8
0
  9
$CELTYPE
  6
BYLAYER
  9
$CECOLOR
 62
   256
  9
$DIMSCALE
 40
1.0
  9
$DIMASZ
 40
6.0
  9
$DIMEXO
 40
1.0
  9
$DIMDLI
 40
3.75
  9
$DIMRND
 40
0.0
  9
$DIMDLE
 40
0.0
  9
$DIMEXE
 40
1.0
  9
$DIMTP
 40
0.0
  9
$DIMTM
 40
0.0
  9
$DIMTXT
 40
3.5
  9
$DIMCEN
 40
2.5
  9
$DIMTSZ
 40
0.0
  9
$DIMTOL
 70
     0
  9
$DIMLIM
 70
     0
  9
$DIMTIH
 70
     1
  9
$DIMTOH
 70
     1
  9
$DIMSE1
 70
     0
  9
$DIMSE2
 70
     0
  9
$DIMTAD
 70
     1
  9
$DIMZIN
 70
     0
  9
$DIMBLK
  1

  9
$DIMASO
 70
     1
  9
$DIMSHO
 70
     1
  9
$DIMPOST
  1

  9
$DIMAPOST
  1

  9
$DIMALT
 70
     0
  9
$DIMALTD
 70
     3
  9
$DIMALTF
 40
0.0393700787401575
  9
$DIMLFAC
 40
1.0
  9
$DIMTOFL
 70
     1
  9
$DIMTVP
 40
0.0
  9
$DIMTIX
 70
     0
  9
$DIMSOXD
 70
     0
  9
$DIMSAH
 70
     0
  9
$DIMBLK1
  1

  9
$DIMBLK2
  1

  9
$DIMSTYLE
  2
ISO-25
  9
$DIMCLRD
 70
     0
  9
$DIMCLRE
 70
     0
  9
$DIMCLRT
 70
     0
  9
$DIMTFAC
 40
1.0
  9
$DIMGAP
 40
1.524
  9
$LUNITS
 70
     2
  9
$LUPREC
 70
     3
  9
$SKETCHINC
 40
1.0
  9
$FILLETRAD
 40
10.0
  9
$AUNITS
 70
     0
  9
$AUPREC
 70
     0
  9
$MENU
  1
.
  9
$ELEVATION
 40
0.0
  9
$PELEVATION
 40
0.0
  9
$THICKNESS
 40
0.0
  9
$LIMCHECK
 70
     0
  9
$BLIPMODE
 70
     0
  9
$CHAMFERA
 40
10.0
  9
$CHAMFERB
 40
10.0
  9
$SKPOLY
 70
     0
  9
$TDCREATE
 40
2455132.3992460528
  9
$TDUPDATE
 40
2456598.659411829
  9
$TDINDWG
 40
0.2150618866
  9
$TDUSRTIMER
 40
0.2150618866
  9
$USRTIMER
 70
     1
  9
$ANGBASE
 50
0.0
  9
$ANGDIR
 70
     0
  9
$PDMODE
 70
     0
  9
$PDSIZE
 40
-1.0
  9
$PLINEWID
 40
0.0
  9
$COORDS
 70
     1
  9
$SPLFRAME
 70
     0
  9
$SPLINETYPE
 70
     6
  9
$SPLINESEGS
 70
     8
  9
$ATTDIA
 70
     0
  9
$ATTREQ
 70
     1
  9
$HANDLING
 70
     1
  9
$HANDSEED
  5
4BBA
  9
$SURFTAB1
 70
     6
  9
$SURFTAB2
 70
     6
  9
$SURFTYPE
 70
     6
  9
$SURFU
 70
     6
  9
$SURFV
 70
     6
  9
$UCSNAME
  2

  9
$UCSORG
 10
0.0
 20
0.0
 30
0.0
  9
$UCSXDIR
 10
1.0
 20
0.0
 30
0.0
  9
$UCSYDIR
 10
0.0
 20
1.0
 30
0.0
  9
$PUCSNAME
  2

  9
$PUCSORG
 10
0.0
 20
0.0
 30
0.0
  9
$PUCSXDIR
 10
1.0
 20
0.0
 30
0.0
  9
$PUCSYDIR
 10
0.0
 20
1.0
 30
0.0
  9
$USERI1
 70
     0
  9
$USERI2
 70
     0
  9
$USERI3
 70
     0
  9
$USERI4
 70
     0
  9
$USERI5
 70
     0
  9
$USERR1
 40
0.0
  9
$USERR2
 40
0.0
  9
$USERR3
 40
0.0
  9
$USERR4
 40
0.0
  9
$USERR5
 40
0.0
  9
$WORLDVIEW
 70
     1
  9
$SHADEDGE
 70
     3
  9
$SHADEDIF
 70
    70
  9
$TILEMODE
 70
     1
  9
$MAXACTVP
 70
    64
  9
$PLIMCHECK
 70
     0
  9
$PEXTMIN
 10
1.0000000000000000E+020
 20
1.0000000000000000E+020
 30
1.0000000000000000E+020
  9
$PEXTMAX
 10
-1.0000000000000000E+020
 20
-1.0000000000000000E+020
 30
-1.0000000000000000E+020
  9
$PLIMMIN
 10
0.0
 20
0.0
  9
$PLIMMAX
 10
420.0
 20
297.0
  9
$UNITMODE
 70
     0
  9
$VISRETAIN
 70
     1
  9
$PLINEGEN
 70
     0
  9
$PSLTSCALE
 70
     1
  0
ENDSEC
  0
SECTION
  2
TABLES
  0
TABLE
  2
VPORT
 70
     1
  0
VPORT
  2
*ACTIVE
 70
     0
 10
0.0
 20
0.0
 11
1.0
 21
1.0
 12
139.69573701959541
 22
136.18828034825529
 13
0.0
 23
0.0
 14
10.0
 24
10.0
 15
10.0
 25
10.0
 16
0.0
 26
0.0
 36
1.0
 17
0.0
 27
0.0
 37
0.0
 40
277.85339726799202
 41
1.831871345029239
 42
50.0
 43
0.0
 44
0.0
 50
0.0
 51
0.0
 71
     0
 72
  2000
 73
     1
 74
     3
 75
     0
 76
     0
 77
     0
 78
     0
  0
ENDTAB
  0
TABLE
  2
LTYPE
 70
     3
  0
LTYPE
  2
CONTINUOUS
 70
     0
  3
Solid line
 72
    65
 73
     0
 40
0.0
  0
LTYPE
  2
CENTER
 70
     0
  3
____ _ ____ _ ____ _ ____ _ ____ _ ____ _ ____
 72
    65
 73
     4
 40
2.0
 49
1.25
 49
-0.25
 49
0.25
 49
-0.25
  0
LTYPE
  2
HIDDEN
 70
     0
  3
_ _ _ _ _ _ _ _ _ _ _ _ _ _ _ _ _ _ _ _ _ _ _
 72
    65
 73
     2
 40
0.375
 49
0.25
 49
-0.125
  0
ENDTAB
  0
TABLE
  2
LAYER
 70
     5
  0
LAYER
  2
0
 70
     0
 62
     7
  6
CONTINUOUS
  0
LAYER
  2
1
 70
     0
 62
     1
  6
CENTER
  0
LAYER
  2
DEFPOINTS
 70
     0
 62
     7
  6
CONTINUOUS
  0
LAYER
  2
2
 70
     0
 62
     2
  6
HIDDEN
  0
LAYER
  2
3
 70
     0
 62
     3
  6
CONTINUOUS
  0
ENDTAB
  0
TABLE
  2
STYLE
 70
     2
  0
STYLE
  2
STANDARD
 70
     0
 40
0.0
 41
1.0
 50
0.0
 71
     0
 42
2.5
  3
txt
  4
bigfont
  0
STYLE
  2
STANDARD1
 70
     0
 40
0.0
 41
1.0
 50
0.0
 71
     0
 42
3.0
  3
txt
  4

  0
ENDTAB
  0
TABLE
  2
VIEW
 70
     0
  0
ENDTAB
  0
TABLE
  2
UCS
 70
     0
  0
ENDTAB
  0
TABLE
  2
APPID
 70
     3
  0
APPID
  2
ACAD
 70
     0
  0
APPID
  2
ACAD_MLEADERVER
 70
     0
  0
APPID
  2
ACAD_NAV_VCDISPLAY
 70
     0
  0
ENDTAB
  0
TABLE
  2
DIMSTYLE
 70
     2
  0
DIMSTYLE
  2
ISO-25
 70
     0
  3

  4

  5

  6

  7

 40
1.0
 41
2.5
 42
0.625
 43
3.75
 44
1.25
 45
0.0
 46
0.0
 47
0.0
 48
0.0
140
2.5
141
2.5
142
0.0
143
0.03937007874016
144
1.0
145
0.0
146
1.0
147
0.625
 71
     0
 72
     0
 73
     0
 74
     0
 75
     0
 76
     0
 77
     1
 78
     8
170
     0
171
     3
172
     1
173
     0
174
     0
175
     0
176
     0
177
     0
178
     0
  0
DIMSTYLE
  2
STANDARD
 70
     0
  3

  4

  5

  6

  7

 40
1.0
 41
0.18
 42
0.0625
 43
0.38
 44
0.18
 45
0.0
 46
0.0
 47
0.0
 48
0.0
140
0.18
141
0.09
142
0.0
143
25.399999999999999
144
1.0
145
0.0
146
1.0
147
0.09
 71
     0
 72
     0
 73
     1
 74
     1
 75
     0
 76
     0
 77
     0
 78
     0
170
     0
171
     2
172
     0
173
     0
174
     0
175
     0
176
     0
177
     0
178
     0
  0
ENDTAB
  0
ENDSEC
  0
SECTION
  2
BLOCKS
  0
BLOCK
  8
0
  2
$MODEL_SPACE
 70
     0
 10
0.0
 20
0.0
 30
0.0
  3
$MODEL_SPACE
  1

  0
ENDBLK
  5
21
  8
0
  0
BLOCK
 67
     1
  8
0
  2
$PAPER_SPACE
 70
     0
 10
0.0
 20
0.0
 30
0.0
  3
$PAPER_SPACE
  1

  0
ENDBLK
  5
1D
 67
     1
  8
0
  0
ENDSEC
  0
SECTION
  2
ENTITIES
  0
LINE
  5
3560
  8
0
 10
121.07263322699291
 20
48.474808586695858
 30
0.0
 11
118.38263322699289
 21
48.474808586695858
 31
0.0
  0
POLYLINE
  5
3561
  8
0
 66
     1
 10
0.0
 20
0.0
 30
0.0
  0
VERTEX
  5
42A2
  8
0
 10
120.57263322699291
 20
48.97455646791478
 30
0.0
  0
VERTEX
  5
42A3
  8
0
 10
120.6591348678742
 20
48.89598140811168
 30
0.0
  0
VERTEX
  5
42A4
  8
0
 10
120.82828948253071
 20
48.740780925310659
 30
0.0
  0
VERTEX
  5
42A5
  8
0
 10
120.9924170854832
 20
48.58808436140027
 30
0.0
  0
VERTEX
  5
42A6
  8
0
 10
121.07263322699291
 20
48.512640064272993
 30
0.0
  0
SEQEND
  5
42A7
  8
0
  0
LINE
  5
3562
  8
0
 10
121.07263322699291
 20
48.365834292867909
 30
0.0
 11
118.38263322699289
 21
48.365834292867909
 31
0.0
  0
POLYLINE
  5
3563
  8
0
 66
     1
 10
0.0
 20
0.0
 30
0.0
  0
VERTEX
  5
42A8
  8
0
 10
120.57263322699291
 20
48.806263795824819
 30
0.0
  0
VERTEX
  5
42A9
  8
0
 10
120.6591348678744
 20
48.737015329078901
 30
0.0
  0
VERTEX
  5
42AA
  8
0
 10
120.82828948253071
 20
48.600236617117318
 30
0.0
  0
VERTEX
  5
42AB
  8
0
 10
120.992417085483
 20
48.46566461736775
 30
0.0
  0
VERTEX
  5
42AC
  8
0
 10
121.07263322699291
 20
48.399175302388073
 30
0.0
  0
SEQEND
  5
42AD
  8
0
  0
LINE
  5
3564
  8
0
 10
121.07263322699291
 20
48.149079650379448
 30
0.0
 11
118.38263322699289
 21
48.149079650379448
 31
0.0
  0
POLYLINE
  5
3565
  8
0
 66
     1
 10
0.0
 20
0.0
 30
0.0
  0
VERTEX
  5
42AE
  8
0
 10
120.57263322699291
 20
48.525365337274209
 30
0.0
  0
VERTEX
  5
42AF
  8
0
 10
120.6591348678743
 20
48.466202164278442
 30
0.0
  0
VERTEX
  5
42B0
  8
0
 10
120.82828948253071
 20
48.349343799347089
 30
0.0
  0
VERTEX
  5
42B1
  8
0
 10
120.9924170854831
 20
48.234370762748469
 30
0.0
  0
VERTEX
  5
42B2
  8
0
 10
121.07263322699291
 20
48.177564900765347
 30
0.0
  0
SEQEND
  5
42B3
  8
0
  0
LINE
  5
3566
  8
0
 10
121.07263322699291
 20
47.826919468452488
 30
0.0
 11
118.38263322699289
 21
47.826919468452488
 31
0.0
  0
POLYLINE
  5
3567
  8
0
 66
     1
 10
0.0
 20
0.0
 30
0.0
  0
VERTEX
  5
42B4
  8
0
 10
120.57263322699291
 20
48.134938674556579
 30
0.0
  0
VERTEX
  5
42B5
  8
0
 10
120.6591348678743
 20
48.086508999414988
 30
0.0
  0
VERTEX
  5
42B6
  8
0
 10
120.82828948253059
 20
47.990851306214367
 30
0.0
  0
VERTEX
  5
42B7
  8
0
 10
120.992417085483
 20
47.896736901415331
 30
0.0
  0
VERTEX
  5
42B8
  8
0
 10
121.07263322699291
 20
47.850236869339923
 30
0.0
  0
SEQEND
  5
42B9
  8
0
  0
LINE
  5
3568
  8
0
 10
121.07263322699291
 20
47.402883401456492
 30
0.0
 11
118.38263322699289
 21
47.402883401456492
 31
0.0
  0
POLYLINE
  5
3569
  8
0
 66
     1
 10
0.0
 20
0.0
 30
0.0
  0
VERTEX
  5
42BA
  8
0
 10
120.57263322699291
 20
47.639261403890728
 30
0.0
  0
VERTEX
  5
42BB
  8
0
 10
120.6591348678744
 20
47.602095832258598
 30
0.0
  0
VERTEX
  5
42BC
  8
0
 10
120.82828948253071
 20
47.528686856493053
 30
0.0
  0
VERTEX
  5
42BD
  8
0
 10
120.992417085483
 20
47.456462220607371
 30
0.0
  0
VERTEX
  5
42BE
  8
0
 10
121.07263322699291
 20
47.420777482521913
 30
0.0
  0
SEQEND
  5
42BF
  8
0
  0
LINE
  5
356A
  8
0
 10
121.07263322699291
 20
46.881617277276732
 30
0.0
 11
118.38263322699289
 21
46.881617277276732
 31
0.0
  0
POLYLINE
  5
356B
  8
0
 66
     1
 10
0.0
 20
0.0
 30
0.0
  0
VERTEX
  5
42C0
  8
0
 10
120.57263322699291
 20
47.04376426918121
 30
0.0
  0
VERTEX
  5
42C1
  8
0
 10
120.6591348678743
 20
47.018269994838867
 30
0.0
  0
VERTEX
  5
42C2
  8
0
 10
120.82828948253071
 20
46.967914020608617
 30
0.0
  0
VERTEX
  5
42C3
  8
0
 10
120.9924170854831
 20
46.91837046186091
 30
0.0
  0
VERTEX
  5
42C4
  8
0
 10
121.07263322699291
 20
46.893891987223419
 30
0.0
  0
SEQEND
  5
42C5
  8
0
  0
LINE
  5
356C
  8
0
 10
121.07263322699291
 20
46.268832196651758
 30
0.0
 11
118.38263322699289
 21
46.268832196651758
 31
0.0
  0
POLYLINE
  5
356D
  8
0
 66
     1
 10
0.0
 20
0.0
 30
0.0
  0
VERTEX
  5
42C6
  8
0
 10
120.57263322699291
 20
46.354971661651653
 30
0.0
  0
VERTEX
  5
42C7
  8
0
 10
120.6591348678743
 20
46.341428005203781
 30
0.0
  0
VERTEX
  5
42C8
  8
0
 10
120.82828948253081
 20
46.314676743100193
 30
0.0
  0
VERTEX
  5
42C9
  8
0
 10
120.9924170854831
 20
46.28835707108783
 30
0.0
  0
VERTEX
  5
42CA
  8
0
 10
121.07263322699291
 20
46.275353051188837
 30
0.0
  0
SEQEND
  5
42CB
  8
0
  0
LINE
  5
356E
  8
0
 10
121.07263322699291
 20
45.57124196115835
 30
0.0
 11
118.38263322699289
 21
45.57124196115835
 31
0.0
  0
POLYLINE
  5
356F
  8
0
 66
     1
 10
0.0
 20
0.0
 30
0.0
  0
VERTEX
  5
42CC
  8
0
 10
120.57263322699291
 20
45.580430137249287
 30
0.0
  0
VERTEX
  5
42CD
  8
0
 10
120.6591348678743
 20
45.578985485830131
 30
0.0
  0
VERTEX
  5
42CE
  8
0
 10
120.82828948253071
 20
45.576132028278899
 30
0.0
  0
VERTEX
  5
42CF
  8
0
 10
120.9924170854831
 20
45.573324606836167
 30
0.0
  0
VERTEX
  5
42D0
  8
0
 10
121.07263322699291
 20
45.571937516438958
 30
0.0
  0
SEQEND
  5
42D1
  8
0
  0
POLYLINE
  5
3570
  8
0
 66
     1
 10
0.0
 20
0.0
 30
0.0
  0
VERTEX
  5
42D2
  8
0
 10
120.57263322699291
 20
44.72862573499873
 30
0.0
  0
VERTEX
  5
42D3
  8
0
 10
120.6591348678742
 20
44.739295916511509
 30
0.0
  0
VERTEX
  5
42D4
  8
0
 10
120.82828948253059
 20
44.760371526590667
 30
0.0
  0
VERTEX
  5
42D5
  8
0
 10
120.9924170854831
 20
44.781107114414397
 30
0.0
  0
VERTEX
  5
42D6
  8
0
 10
121.07263322699291
 20
44.791352150771658
 30
0.0
  0
SEQEND
  5
42D7
  8
0
  0
LINE
  5
3571
  8
0
 10
118.38263322699289
 20
43.953063209289994
 30
0.0
 11
118.38263322699289
 21
43.808891002182499
 31
0.0
  0
POLYLINE
  5
3572
  8
0
 66
     1
 10
0.0
 20
0.0
 30
0.0
  0
VERTEX
  5
42D8
  8
0
 10
120.57263322699291
 20
43.80889100218252
 30
0.0
  0
VERTEX
  5
42D9
  8
0
 10
120.6591348678743
 20
43.831559111885731
 30
0.0
  0
VERTEX
  5
42DA
  8
0
 10
120.82828948253059
 20
43.876332880800909
 30
0.0
  0
VERTEX
  5
42DB
  8
0
 10
120.992417085483
 20
43.920384294451708
 30
0.0
  0
VERTEX
  5
42DC
  8
0
 10
121.07263322699291
 20
43.942149210801162
 30
0.0
  0
SEQEND
  5
42DD
  8
0
  0
POLYLINE
  5
3573
  8
0
 66
     1
 10
0.0
 20
0.0
 30
0.0
  0
VERTEX
  5
42DE
  8
0
 10
120.57263322699291
 20
42.831302745000279
 30
0.0
  0
VERTEX
  5
42DF
  8
0
 10
120.6591348678744
 20
42.865720426340438
 30
0.0
  0
VERTEX
  5
42E0
  8
0
 10
120.82828948253071
 20
42.933701803309908
 30
0.0
  0
VERTEX
  5
42E1
  8
0
 10
120.9924170854831
 20
43.000586406281442
 30
0.0
  0
VERTEX
  5
42E2
  8
0
 10
121.07263322699291
 20
43.033632741644929
 30
0.0
  0
SEQEND
  5
42E3
  8
0
  0
POLYLINE
  5
3574
  8
0
 66
     1
 10
0.0
 20
0.0
 30
0.0
  0
VERTEX
  5
42E4
  8
0
 10
120.57263322699291
 20
41.80657162497122
 30
0.0
  0
VERTEX
  5
42E5
  8
0
 10
120.6591348678743
 20
41.852361790629097
 30
0.0
  0
VERTEX
  5
42E6
  8
0
 10
120.82828948253059
 20
41.942805957460742
 30
0.0
  0
VERTEX
  5
42E7
  8
0
 10
120.9924170854831
 20
42.031790948046407
 30
0.0
  0
VERTEX
  5
42E8
  8
0
 10
121.07263322699291
 20
42.075756639858348
 30
0.0
  0
SEQEND
  5
42E9
  8
0
  0
LINE
  5
3575
  8
0
 10
118.38263322699289
 20
41.106296109761423
 30
0.0
 11
118.38263322699289
 21
40.745924810685082
 31
0.0
  0
POLYLINE
  5
3576
  8
0
 66
     1
 10
0.0
 20
0.0
 30
0.0
  0
VERTEX
  5
42EA
  8
0
 10
120.57263322699291
 20
40.745924810685111
 30
0.0
  0
VERTEX
  5
42EB
  8
0
 10
120.6591348678743
 20
40.802585774023633
 30
0.0
  0
VERTEX
  5
42EC
  8
0
 10
120.82828948253071
 20
40.914501805499029
 30
0.0
  0
VERTEX
  5
42ED
  8
0
 10
120.9924170854831
 20
41.024612245520601
 30
0.0
  0
VERTEX
  5
42EE
  8
0
 10
121.07263322699291
 20
41.079015596461041
 30
0.0
  0
SEQEND
  5
42EF
  8
0
  0
POLYLINE
  5
3577
  8
0
 66
     1
 10
0.0
 20
0.0
 30
0.0
  0
VERTEX
  5
42F0
  8
0
 10
120.57263322699291
 20
39.660982970593892
 30
0.0
  0
VERTEX
  5
42F1
  8
0
 10
120.6591348678744
 20
39.727893942241721
 30
0.0
  0
VERTEX
  5
42F2
  8
0
 10
120.82828948253071
 20
39.860055662900002
 30
0.0
  0
VERTEX
  5
42F3
  8
0
 10
120.9924170854831
 20
39.99008515933447
 30
0.0
  0
VERTEX
  5
42F4
  8
0
 10
121.07263322699291
 20
40.054330114905952
 30
0.0
  0
SEQEND
  5
42F5
  8
0
  0
POLYLINE
  5
3578
  8
0
 66
     1
 10
0.0
 20
0.0
 30
0.0
  0
VERTEX
  5
42F6
  8
0
 10
120.57263322699291
 20
38.563632954536303
 30
0.0
  0
VERTEX
  5
42F7
  8
0
 10
120.6591348678744
 20
38.640060843885941
 30
0.0
  0
VERTEX
  5
42F8
  8
0
 10
120.82828948253071
 20
38.791020262258932
 30
0.0
  0
VERTEX
  5
42F9
  8
0
 10
120.992417085483
 20
38.939544184733009
 30
0.0
  0
VERTEX
  5
42FA
  8
0
 10
121.07263322699291
 20
39.01292686375821
 30
0.0
  0
SEQEND
  5
42FB
  8
0
  0
POLYLINE
  5
3579
  8
0
 66
     1
 10
0.0
 20
0.0
 30
0.0
  0
VERTEX
  5
42FC
  8
0
 10
120.57263322699291
 20
37.465897558923487
 30
0.0
  0
VERTEX
  5
42FD
  8
0
 10
120.6591348678742
 20
37.551005006025477
 30
0.0
  0
VERTEX
  5
42FE
  8
0
 10
120.82828948253049
 20
37.719108179135382
 30
0.0
  0
VERTEX
  5
42FF
  8
0
 10
120.9924170854831
 20
37.884499268474023
 30
0.0
  0
VERTEX
  5
4300
  8
0
 10
121.07263322699291
 20
37.966215674965028
 30
0.0
  0
SEQEND
  5
4301
  8
0
  0
POLYLINE
  5
357A
  8
0
 66
     1
 10
0.0
 20
0.0
 30
0.0
  0
VERTEX
  5
4302
  8
0
 10
120.57263322699291
 20
36.37980380246573
 30
0.0
  0
VERTEX
  5
4303
  8
0
 10
120.6591348678743
 20
36.472658352320103
 30
0.0
  0
VERTEX
  5
4304
  8
0
 10
120.82828948253071
 20
36.656063506624307
 30
0.0
  0
VERTEX
  5
4305
  8
0
 10
120.9924170854831
 20
36.836509703442047
 30
0.0
  0
VERTEX
  5
4306
  8
0
 10
121.07263322699291
 20
36.925664535349227
 30
0.0
  0
SEQEND
  5
4307
  8
0
  0
POLYLINE
  5
357B
  8
0
 66
     1
 10
0.0
 20
0.0
 30
0.0
  0
VERTEX
  5
4308
  8
0
 10
120.57263322699291
 20
35.317251155638459
 30
0.0
  0
VERTEX
  5
4309
  8
0
 10
120.6591348678743
 20
35.416835474365833
 30
0.0
  0
VERTEX
  5
430A
  8
0
 10
120.82828948253071
 20
35.613533184613821
 30
0.0
  0
VERTEX
  5
430B
  8
0
 10
120.9924170854831
 20
35.807057482617623
 30
0.0
  0
VERTEX
  5
430C
  8
0
 10
121.07263322699291
 20
35.902673940945782
 30
0.0
  0
SEQEND
  5
430D
  8
0
  0
POLYLINE
  5
357C
  8
0
 66
     1
 10
0.0
 20
0.0
 30
0.0
  0
VERTEX
  5
430E
  8
0
 10
120.57263322699291
 20
34.289881167593791
 30
0.0
  0
VERTEX
  5
430F
  8
0
 10
120.6591348678743
 20
34.395104188558733
 30
0.0
  0
VERTEX
  5
4310
  8
0
 10
120.82828948253081
 20
34.602939393475552
 30
0.0
  0
VERTEX
  5
4311
  8
0
 10
120.9924170854832
 20
34.80742149995902
 30
0.0
  0
VERTEX
  5
4312
  8
0
 10
121.07263322699291
 20
34.908451990781472
 30
0.0
  0
SEQEND
  5
4313
  8
0
  0
POLYLINE
  5
357D
  8
0
 66
     1
 10
0.0
 20
0.0
 30
0.0
  0
VERTEX
  5
4314
  8
0
 10
120.57263322699291
 20
33.308949918911708
 30
0.0
  0
VERTEX
  5
4315
  8
0
 10
120.6591348678744
 20
33.41865879667732
 30
0.0
  0
VERTEX
  5
4316
  8
0
 10
120.82828948253071
 20
33.635354410265279
 30
0.0
  0
VERTEX
  5
4317
  8
0
 10
120.9924170854831
 20
33.848553976479018
 30
0.0
  0
VERTEX
  5
4318
  8
0
 10
121.07263322699291
 20
33.953891588596683
 30
0.0
  0
SEQEND
  5
4319
  8
0
  0
POLYLINE
  5
357E
  8
0
 66
     1
 10
0.0
 20
0.0
 30
0.0
  0
VERTEX
  5
431A
  8
0
 10
120.57263322699291
 20
32.385204697625859
 30
0.0
  0
VERTEX
  5
431B
  8
0
 10
120.6591348678744
 20
32.498197438769203
 30
0.0
  0
VERTEX
  5
431C
  8
0
 10
120.82828948253071
 20
32.721379298539553
 30
0.0
  0
VERTEX
  5
431D
  8
0
 10
120.9924170854831
 20
32.940960465421327
 30
0.0
  0
VERTEX
  5
431E
  8
0
 10
121.07263322699291
 20
33.049451097912289
 30
0.0
  0
SEQEND
  5
431F
  8
0
  0
POLYLINE
  5
357F
  8
0
 66
     1
 10
0.0
 20
0.0
 30
0.0
  0
VERTEX
  5
4320
  8
0
 10
120.57263322699291
 20
31.528766249686729
 30
0.0
  0
VERTEX
  5
4321
  8
0
 10
120.6591348678744
 20
31.643804882090659
 30
0.0
  0
VERTEX
  5
4322
  8
0
 10
120.82828948253071
 20
31.871027760883791
 30
0.0
  0
VERTEX
  5
4323
  8
0
 10
120.992417085483
 20
32.094584751218889
 30
0.0
  0
VERTEX
  5
4324
  8
0
 10
121.07263322699291
 20
32.205039758010621
 30
0.0
  0
SEQEND
  5
4325
  8
0
  0
POLYLINE
  5
3580
  8
0
 66
     1
 10
0.0
 20
0.0
 30
0.0
  0
VERTEX
  5
4326
  8
0
 10
120.57263322699291
 20
30.74901789395124
 30
0.0
  0
VERTEX
  5
4327
  8
0
 10
120.6591348678742
 20
30.864842030285399
 30
0.0
  0
VERTEX
  5
4328
  8
0
 10
120.82828948253071
 20
31.09361642669219
 30
0.0
  0
VERTEX
  5
4329
  8
0
 10
120.9924170854832
 20
31.31869990331252
 30
0.0
  0
VERTEX
  5
432A
  8
0
 10
121.07263322699291
 20
31.429909116236029
 30
0.0
  0
SEQEND
  5
432B
  8
0
  0
POLYLINE
  5
3581
  8
0
 66
     1
 10
0.0
 20
0.0
 30
0.0
  0
VERTEX
  5
432C
  8
0
 10
120.57263322699291
 20
30.05450271657763
 30
0.0
  0
VERTEX
  5
432D
  8
0
 10
120.6591348678743
 20
30.169843363367011
 30
0.0
  0
VERTEX
  5
432E
  8
0
 10
120.82828948253071
 20
30.397662777226021
 30
0.0
  0
VERTEX
  5
432F
  8
0
 10
120.9924170854831
 20
30.62180667845961
 30
0.0
  0
VERTEX
  5
4330
  8
0
 10
121.07263322699291
 20
30.73255166610635
 30
0.0
  0
SEQEND
  5
4331
  8
0
  0
POLYLINE
  5
3582
  8
0
 66
     1
 10
0.0
 20
0.0
 30
0.0
  0
VERTEX
  5
4332
  8
0
 10
120.57263322699291
 20
29.452829971185889
 30
0.0
  0
VERTEX
  5
4333
  8
0
 10
120.6591348678743
 20
29.56642343216755
 30
0.0
  0
VERTEX
  5
4334
  8
0
 10
120.82828948253071
 20
29.790791826306229
 30
0.0
  0
VERTEX
  5
4335
  8
0
 10
120.9924170854831
 20
30.011540384666109
 30
0.0
  0
VERTEX
  5
4336
  8
0
 10
121.07263322699291
 20
30.120607801776629
 30
0.0
  0
SEQEND
  5
4337
  8
0
  0
LINE
  5
3583
  8
0
 10
121.07263322699291
 20
29.600782108281908
 30
0.0
 11
121.07263322699291
 21
29.654033439624168
 31
0.0
  0
POLYLINE
  5
3584
  8
0
 66
     1
 10
0.0
 20
0.0
 30
0.0
  0
VERTEX
  5
4338
  8
0
 10
120.57263322699291
 20
28.95059171028263
 30
0.0
  0
VERTEX
  5
4339
  8
0
 10
120.6591348678744
 20
29.06119343172718
 30
0.0
  0
VERTEX
  5
433A
  8
0
 10
120.82828948253071
 20
29.279652579067271
 30
0.0
  0
VERTEX
  5
433B
  8
0
 10
120.9924170854831
 20
29.494587227153389
 30
0.0
  0
VERTEX
  5
433C
  8
0
 10
121.07263322699291
 20
29.60078210828193
 30
0.0
  0
SEQEND
  5
433D
  8
0
  0
LINE
  5
3585
  8
0
 10
121.07263322699291
 20
29.178769904700729
 30
0.0
 11
121.07263322699291
 21
29.22999737262818
 31
0.0
  0
POLYLINE
  5
3586
  8
0
 66
     1
 10
0.0
 20
0.0
 30
0.0
  0
VERTEX
  5
433E
  8
0
 10
120.57263322699291
 20
28.553290561354419
 30
0.0
  0
VERTEX
  5
433F
  8
0
 10
120.6591348678743
 20
28.65968876765665
 30
0.0
  0
VERTEX
  5
4340
  8
0
 10
120.82828948253071
 20
28.86984518406452
 30
0.0
  0
VERTEX
  5
4341
  8
0
 10
120.9924170854831
 20
29.07661105289462
 30
0.0
  0
VERTEX
  5
4342
  8
0
 10
121.07263322699291
 20
29.178769904700719
 30
0.0
  0
SEQEND
  5
4343
  8
0
  0
LINE
  5
3587
  8
0
 10
121.07263322699291
 20
28.859194845047099
 30
0.0
 11
121.07263322699291
 21
28.907837190701208
 31
0.0
  0
POLYLINE
  5
3588
  8
0
 66
     1
 10
0.0
 20
0.0
 30
0.0
  0
VERTEX
  5
4344
  8
0
 10
120.57263322699291
 20
28.2652794389295
 30
0.0
  0
VERTEX
  5
4345
  8
0
 10
120.6591348678742
 20
28.366308409075859
 30
0.0
  0
VERTEX
  5
4346
  8
0
 10
120.82828948253059
 20
28.565859576875159
 30
0.0
  0
VERTEX
  5
4347
  8
0
 10
120.9924170854831
 20
28.762191296321859
 30
0.0
  0
VERTEX
  5
4348
  8
0
 10
121.07263322699291
 20
28.859194845047139
 30
0.0
  0
SEQEND
  5
4349
  8
0
  0
LINE
  5
3589
  8
0
 10
121.07263322699291
 20
28.64555826055015
 30
0.0
 11
121.07263322699291
 21
28.691082548212751
 31
0.0
  0
POLYLINE
  5
358A
  8
0
 66
     1
 10
0.0
 20
0.0
 30
0.0
  0
VERTEX
  5
434A
  8
0
 10
120.57263322699291
 20
28.08971385313539
 30
0.0
  0
VERTEX
  5
434B
  8
0
 10
120.6591348678743
 20
28.184266692587538
 30
0.0
  0
VERTEX
  5
434C
  8
0
 10
120.82828948253071
 20
28.371026287425082
 30
0.0
  0
VERTEX
  5
434D
  8
0
 10
120.9924170854831
 20
28.554772806084809
 30
0.0
  0
VERTEX
  5
434E
  8
0
 10
121.07263322699291
 20
28.64555826055016
 30
0.0
  0
SEQEND
  5
434F
  8
0
  0
LINE
  5
358B
  8
0
 10
121.07263322699291
 20
28.540200798335821
 30
0.0
 11
121.07263322699291
 21
28.58210825438481
 31
0.0
  0
POLYLINE
  5
358C
  8
0
 66
     1
 10
0.0
 20
0.0
 30
0.0
  0
VERTEX
  5
4350
  8
0
 10
120.57263322699291
 20
28.02851733726952
 30
0.0
  0
VERTEX
  5
4351
  8
0
 10
120.6591348678743
 20
28.1155581053318
 30
0.0
  0
VERTEX
  5
4352
  8
0
 10
120.82828948253049
 20
28.287479950004531
 30
0.0
  0
VERTEX
  5
4353
  8
0
 10
120.992417085483
 20
28.456628102567588
 30
0.0
  0
VERTEX
  5
4354
  8
0
 10
121.07263322699291
 20
28.540200798335849
 30
0.0
  0
SEQEND
  5
4355
  8
0
  0
LINE
  5
358D
  8
0
 10
118.38263322699289
 20
28.08236037316588
 30
0.0
 11
120.57263322699291
 21
28.08236037316588
 31
0.0
  0
LINE
  5
358E
  8
0
 10
121.07263322699291
 20
28.58210825438481
 30
0.0
 11
118.38263322699289
 21
28.58210825438481
 31
0.0
  0
POLYLINE
  5
358F
  8
0
 66
     1
 10
0.0
 20
0.0
 30
0.0
  0
VERTEX
  5
4356
  8
0
 10
120.57263322699291
 20
28.08236037316588
 30
0.0
  0
VERTEX
  5
4357
  8
0
 10
120.6591348678742
 20
28.160935432968969
 30
0.0
  0
VERTEX
  5
4358
  8
0
 10
120.82828948253071
 20
28.316135915769909
 30
0.0
  0
VERTEX
  5
4359
  8
0
 10
120.9924170854831
 20
28.468832479680302
 30
0.0
  0
VERTEX
  5
435A
  8
0
 10
121.07263322699291
 20
28.544276776807681
 30
0.0
  0
SEQEND
  5
435B
  8
0
  0
LINE
  5
3590
  8
0
 10
118.38263322699289
 20
28.25065304525582
 30
0.0
 11
120.57263322699291
 21
28.25065304525582
 31
0.0
  0
LINE
  5
3591
  8
0
 10
121.07263322699291
 20
28.691082548212751
 30
0.0
 11
118.38263322699289
 21
28.691082548212751
 31
0.0
  0
POLYLINE
  5
3592
  8
0
 66
     1
 10
0.0
 20
0.0
 30
0.0
  0
VERTEX
  5
435C
  8
0
 10
120.57263322699291
 20
28.250653045255849
 30
0.0
  0
VERTEX
  5
435D
  8
0
 10
120.6591348678743
 20
28.31990151200171
 30
0.0
  0
VERTEX
  5
435E
  8
0
 10
120.82828948253071
 20
28.45668022396341
 30
0.0
  0
VERTEX
  5
435F
  8
0
 10
120.9924170854832
 20
28.591252223713031
 30
0.0
  0
VERTEX
  5
4360
  8
0
 10
121.07263322699291
 20
28.657741538692591
 30
0.0
  0
SEQEND
  5
4361
  8
0
  0
LINE
  5
3593
  8
0
 10
118.38263322699289
 20
28.53155150380643
 30
0.0
 11
120.57263322699291
 21
28.53155150380643
 31
0.0
  0
LINE
  5
3594
  8
0
 10
121.07263322699291
 20
28.907837190701208
 30
0.0
 11
118.38263322699289
 21
28.907837190701208
 31
0.0
  0
POLYLINE
  5
3595
  8
0
 66
     1
 10
0.0
 20
0.0
 30
0.0
  0
VERTEX
  5
4362
  8
0
 10
120.57263322699291
 20
28.531551503806469
 30
0.0
  0
VERTEX
  5
4363
  8
0
 10
120.6591348678742
 20
28.590714676802179
 30
0.0
  0
VERTEX
  5
4364
  8
0
 10
120.82828948253059
 20
28.707573041733522
 30
0.0
  0
VERTEX
  5
4365
  8
0
 10
120.9924170854831
 20
28.822546078332199
 30
0.0
  0
VERTEX
  5
4366
  8
0
 10
121.07263322699291
 20
28.87935194031532
 30
0.0
  0
SEQEND
  5
4367
  8
0
  0
LINE
  5
3596
  8
0
 10
118.38263322699289
 20
28.921978166524109
 30
0.0
 11
120.57263322699291
 21
28.921978166524109
 31
0.0
  0
LINE
  5
3597
  8
0
 10
121.07263322699291
 20
29.22999737262824
 30
0.0
 11
118.38263322699289
 21
29.22999737262824
 31
0.0
  0
POLYLINE
  5
3598
  8
0
 66
     1
 10
0.0
 20
0.0
 30
0.0
  0
VERTEX
  5
4368
  8
0
 10
120.57263322699291
 20
28.921978166524092
 30
0.0
  0
VERTEX
  5
4369
  8
0
 10
120.6591348678742
 20
28.970407841665651
 30
0.0
  0
VERTEX
  5
436A
  8
0
 10
120.82828948253081
 20
29.066065534866411
 30
0.0
  0
VERTEX
  5
436B
  8
0
 10
120.9924170854833
 20
29.1601799396655
 30
0.0
  0
VERTEX
  5
436C
  8
0
 10
121.07263322699291
 20
29.206679971740741
 30
0.0
  0
SEQEND
  5
436D
  8
0
  0
LINE
  5
3599
  8
0
 10
118.38263322699289
 20
29.417655437189971
 30
0.0
 11
120.57263322699291
 21
29.417655437189971
 31
0.0
  0
LINE
  5
359A
  8
0
 10
121.07263322699291
 20
29.654033439624168
 30
0.0
 11
118.38263322699289
 21
29.654033439624168
 31
0.0
  0
POLYLINE
  5
359B
  8
0
 66
     1
 10
0.0
 20
0.0
 30
0.0
  0
VERTEX
  5
436E
  8
0
 10
120.57263322699291
 20
29.417655437189929
 30
0.0
  0
VERTEX
  5
436F
  8
0
 10
120.6591348678742
 20
29.454821008821948
 30
0.0
  0
VERTEX
  5
4370
  8
0
 10
120.82828948253059
 20
29.528229984587579
 30
0.0
  0
VERTEX
  5
4371
  8
0
 10
120.9924170854831
 20
29.600454620473361
 30
0.0
  0
VERTEX
  5
4372
  8
0
 10
121.07263322699291
 20
29.636139358558768
 30
0.0
  0
SEQEND
  5
4373
  8
0
  0
LINE
  5
359C
  8
0
 10
118.38263322699289
 20
30.013152571899461
 30
0.0
 11
120.57263322699291
 21
30.013152571899461
 31
0.0
  0
LINE
  5
359D
  8
0
 10
121.07263322699291
 20
30.175299563803929
 30
0.0
 11
118.38263322699289
 21
30.175299563803929
 31
0.0
  0
POLYLINE
  5
359E
  8
0
 66
     1
 10
0.0
 20
0.0
 30
0.0
  0
VERTEX
  5
4374
  8
0
 10
120.57263322699291
 20
30.013152571899472
 30
0.0
  0
VERTEX
  5
4375
  8
0
 10
120.6591348678742
 20
30.038646846241779
 30
0.0
  0
VERTEX
  5
4376
  8
0
 10
120.82828948253059
 20
30.08900282047205
 30
0.0
  0
VERTEX
  5
4377
  8
0
 10
120.9924170854831
 20
30.138546379219761
 30
0.0
  0
VERTEX
  5
4378
  8
0
 10
121.07263322699291
 20
30.163024853857241
 30
0.0
  0
SEQEND
  5
4379
  8
0
  0
LINE
  5
359F
  8
0
 10
118.38263322699289
 20
30.701945179428989
 30
0.0
 11
120.57263322699291
 21
30.701945179428989
 31
0.0
  0
LINE
  5
35A0
  8
0
 10
121.07263322699291
 20
30.78808464442891
 30
0.0
 11
118.38263322699289
 21
30.78808464442891
 31
0.0
  0
POLYLINE
  5
35A1
  8
0
 66
     1
 10
0.0
 20
0.0
 30
0.0
  0
VERTEX
  5
437A
  8
0
 10
120.57263322699291
 20
30.701945179429021
 30
0.0
  0
VERTEX
  5
437B
  8
0
 10
120.6591348678743
 20
30.715488835876879
 30
0.0
  0
VERTEX
  5
437C
  8
0
 10
120.82828948253071
 20
30.742240097980471
 30
0.0
  0
VERTEX
  5
437D
  8
0
 10
120.9924170854831
 20
30.76855976999283
 30
0.0
  0
VERTEX
  5
437E
  8
0
 10
121.07263322699291
 20
30.78156378989182
 30
0.0
  0
SEQEND
  5
437F
  8
0
  0
LINE
  5
35A2
  8
0
 10
118.38263322699289
 20
31.476486703831359
 30
0.0
 11
120.57263322699291
 21
31.476486703831359
 31
0.0
  0
LINE
  5
35A3
  8
0
 10
121.07263322699291
 20
31.485674879922311
 30
0.0
 11
118.38263322699289
 21
31.485674879922311
 31
0.0
  0
POLYLINE
  5
35A4
  8
0
 66
     1
 10
0.0
 20
0.0
 30
0.0
  0
VERTEX
  5
4380
  8
0
 10
120.57263322699291
 20
31.476486703831391
 30
0.0
  0
VERTEX
  5
4381
  8
0
 10
120.6591348678743
 20
31.477931355250551
 30
0.0
  0
VERTEX
  5
4382
  8
0
 10
120.82828948253059
 20
31.480784812801769
 30
0.0
  0
VERTEX
  5
4383
  8
0
 10
120.992417085483
 20
31.483592234244501
 30
0.0
  0
VERTEX
  5
4384
  8
0
 10
121.07263322699291
 20
31.48497932464171
 30
0.0
  0
SEQEND
  5
4385
  8
0
  0
LINE
  5
35A5
  8
0
 10
118.38263322699289
 20
32.328291106081949
 30
0.0
 11
120.57263322699291
 21
32.328291106081949
 31
0.0
  0
LINE
  5
35A6
  8
0
 10
121.07263322699291
 20
32.260427325683949
 30
0.0
 11
118.38263322699289
 21
32.260427325683949
 31
0.0
  0
POLYLINE
  5
35A7
  8
0
 66
     1
 10
0.0
 20
0.0
 30
0.0
  0
VERTEX
  5
4386
  8
0
 10
120.57263322699291
 20
32.328291106081949
 30
0.0
  0
VERTEX
  5
4387
  8
0
 10
120.6591348678743
 20
32.317620924569169
 30
0.0
  0
VERTEX
  5
4388
  8
0
 10
120.82828948253059
 20
32.29654531448999
 30
0.0
  0
VERTEX
  5
4389
  8
0
 10
120.992417085483
 20
32.27580972666626
 30
0.0
  0
VERTEX
  5
438A
  8
0
 10
121.07263322699291
 20
32.265564690309027
 30
0.0
  0
SEQEND
  5
438B
  8
0
  0
LINE
  5
35A8
  8
0
 10
118.38263322699289
 20
33.248025838898158
 30
0.0
 11
120.57263322699291
 21
33.248025838898158
 31
0.0
  0
LINE
  5
35A9
  8
0
 10
121.07263322699291
 20
33.10385363179067
 30
0.0
 11
118.38263322699289
 21
33.10385363179067
 31
0.0
  0
POLYLINE
  5
35AA
  8
0
 66
     1
 10
0.0
 20
0.0
 30
0.0
  0
VERTEX
  5
438C
  8
0
 10
120.57263322699291
 20
33.248025838898158
 30
0.0
  0
VERTEX
  5
438D
  8
0
 10
120.6591348678744
 20
33.225357729194933
 30
0.0
  0
VERTEX
  5
438E
  8
0
 10
120.82828948253071
 20
33.180583960279741
 30
0.0
  0
VERTEX
  5
438F
  8
0
 10
120.9924170854831
 20
33.136532546628942
 30
0.0
  0
VERTEX
  5
4390
  8
0
 10
121.07263322699291
 20
33.11476763027953
 30
0.0
  0
SEQEND
  5
4391
  8
0
  0
LINE
  5
35AB
  8
0
 10
118.38263322699289
 20
34.225614096080378
 30
0.0
 11
120.57263322699291
 21
34.225614096080378
 31
0.0
  0
LINE
  5
35AC
  8
0
 10
121.07263322699291
 20
34.006713043134468
 30
0.0
 11
118.38263322699289
 21
34.006713043134468
 31
0.0
  0
POLYLINE
  5
35AD
  8
0
 66
     1
 10
0.0
 20
0.0
 30
0.0
  0
VERTEX
  5
4392
  8
0
 10
120.57263322699291
 20
34.225614096080378
 30
0.0
  0
VERTEX
  5
4393
  8
0
 10
120.6591348678744
 20
34.191196414740247
 30
0.0
  0
VERTEX
  5
4394
  8
0
 10
120.82828948253071
 20
34.123215037770812
 30
0.0
  0
VERTEX
  5
4395
  8
0
 10
120.992417085483
 20
34.056330434799271
 30
0.0
  0
VERTEX
  5
4396
  8
0
 10
121.07263322699291
 20
34.023284099435742
 30
0.0
  0
SEQEND
  5
4397
  8
0
  0
LINE
  5
35AE
  8
0
 10
118.38263322699289
 20
35.250345216109501
 30
0.0
 11
120.57263322699291
 21
35.250345216109501
 31
0.0
  0
LINE
  5
35AF
  8
0
 10
121.07263322699291
 20
34.959113643069131
 30
0.0
 11
118.38263322699289
 21
34.959113643069131
 31
0.0
  0
POLYLINE
  5
35B0
  8
0
 66
     1
 10
0.0
 20
0.0
 30
0.0
  0
VERTEX
  5
4398
  8
0
 10
120.57263322699291
 20
35.250345216109473
 30
0.0
  0
VERTEX
  5
4399
  8
0
 10
120.6591348678743
 20
35.204555050451532
 30
0.0
  0
VERTEX
  5
439A
  8
0
 10
120.82828948253071
 20
35.114110883619887
 30
0.0
  0
VERTEX
  5
439B
  8
0
 10
120.9924170854831
 20
35.025125893034271
 30
0.0
  0
VERTEX
  5
439C
  8
0
 10
121.07263322699291
 20
34.981160201222323
 30
0.0
  0
SEQEND
  5
439D
  8
0
  0
LINE
  5
35B1
  8
0
 10
118.38263322699289
 20
36.310992030395582
 30
0.0
 11
120.57263322699291
 21
36.310992030395582
 31
0.0
  0
LINE
  5
35B2
  8
0
 10
121.07263322699291
 20
35.950620731319241
 30
0.0
 11
118.38263322699289
 21
35.950620731319241
 31
0.0
  0
POLYLINE
  5
35B3
  8
0
 66
     1
 10
0.0
 20
0.0
 30
0.0
  0
VERTEX
  5
439E
  8
0
 10
120.57263322699291
 20
36.310992030395582
 30
0.0
  0
VERTEX
  5
439F
  8
0
 10
120.6591348678743
 20
36.254331067057031
 30
0.0
  0
VERTEX
  5
43A0
  8
0
 10
120.82828948253071
 20
36.142415035581656
 30
0.0
  0
VERTEX
  5
43A1
  8
0
 10
120.9924170854831
 20
36.032304595560113
 30
0.0
  0
VERTEX
  5
43A2
  8
0
 10
121.07263322699291
 20
35.97790124461963
 30
0.0
  0
SEQEND
  5
43A3
  8
0
  0
LINE
  5
35B4
  8
0
 10
118.38263322699289
 20
37.395933870486822
 30
0.0
 11
120.57263322699291
 21
37.395933870486822
 31
0.0
  0
LINE
  5
35B5
  8
0
 10
121.07263322699291
 20
36.970371148739659
 30
0.0
 11
118.38263322699289
 21
36.970371148739659
 31
0.0
  0
POLYLINE
  5
35B6
  8
0
 66
     1
 10
0.0
 20
0.0
 30
0.0
  0
VERTEX
  5
43A4
  8
0
 10
120.57263322699291
 20
37.395933870486793
 30
0.0
  0
VERTEX
  5
43A5
  8
0
 10
120.6591348678743
 20
37.329022898839028
 30
0.0
  0
VERTEX
  5
43A6
  8
0
 10
120.82828948253071
 20
37.196861178180733
 30
0.0
  0
VERTEX
  5
43A7
  8
0
 10
120.9924170854831
 20
37.066831681746187
 30
0.0
  0
VERTEX
  5
43A8
  8
0
 10
121.07263322699291
 20
37.002586726174727
 30
0.0
  0
SEQEND
  5
43A9
  8
0
  0
LINE
  5
35B7
  8
0
 10
118.38263322699289
 20
38.493283886544397
 30
0.0
 11
120.57263322699291
 21
38.493283886544397
 31
0.0
  0
LINE
  5
35B8
  8
0
 10
121.07263322699291
 20
38.007192296360628
 30
0.0
 11
118.38263322699289
 21
38.007192296360628
 31
0.0
  0
POLYLINE
  5
35B9
  8
0
 66
     1
 10
0.0
 20
0.0
 30
0.0
  0
VERTEX
  5
43AA
  8
0
 10
120.57263322699291
 20
38.493283886544383
 30
0.0
  0
VERTEX
  5
43AB
  8
0
 10
120.6591348678742
 20
38.416855997194851
 30
0.0
  0
VERTEX
  5
43AC
  8
0
 10
120.82828948253071
 20
38.265896578821703
 30
0.0
  0
VERTEX
  5
43AD
  8
0
 10
120.9924170854832
 20
38.117372656347513
 30
0.0
  0
VERTEX
  5
43AE
  8
0
 10
121.07263322699291
 20
38.043989977322468
 30
0.0
  0
SEQEND
  5
43AF
  8
0
  0
LINE
  5
35BA
  8
0
 10
118.38263322699289
 20
39.591019282157148
 30
0.0
 11
120.57263322699291
 21
39.591019282157148
 31
0.0
  0
LINE
  5
35BB
  8
0
 10
121.07263322699291
 20
39.049724544720043
 30
0.0
 11
118.38263322699289
 21
39.049724544720043
 31
0.0
  0
POLYLINE
  5
35BC
  8
0
 66
     1
 10
0.0
 20
0.0
 30
0.0
  0
VERTEX
  5
43B0
  8
0
 10
120.57263322699291
 20
39.591019282157177
 30
0.0
  0
VERTEX
  5
43B1
  8
0
 10
120.6591348678742
 20
39.505911835055173
 30
0.0
  0
VERTEX
  5
43B2
  8
0
 10
120.82828948253059
 20
39.337808661945289
 30
0.0
  0
VERTEX
  5
43B3
  8
0
 10
120.9924170854831
 20
39.172417572606683
 30
0.0
  0
VERTEX
  5
43B4
  8
0
 10
121.07263322699291
 20
39.09070116611565
 30
0.0
  0
SEQEND
  5
43B5
  8
0
  0
LINE
  5
35BD
  8
0
 10
118.38263322699289
 20
40.677113038614927
 30
0.0
 11
120.57263322699291
 21
40.677113038614927
 31
0.0
  0
LINE
  5
35BE
  8
0
 10
121.07263322699291
 20
40.086545692340998
 30
0.0
 11
118.38263322699289
 21
40.086545692340998
 31
0.0
  0
POLYLINE
  5
35BF
  8
0
 66
     1
 10
0.0
 20
0.0
 30
0.0
  0
VERTEX
  5
43B6
  8
0
 10
120.57263322699291
 20
40.677113038614962
 30
0.0
  0
VERTEX
  5
43B7
  8
0
 10
120.6591348678743
 20
40.584258488760639
 30
0.0
  0
VERTEX
  5
43B8
  8
0
 10
120.82828948253071
 20
40.400853334456379
 30
0.0
  0
VERTEX
  5
43B9
  8
0
 10
120.9924170854831
 20
40.220407137638603
 30
0.0
  0
VERTEX
  5
43BA
  8
0
 10
121.07263322699291
 20
40.131252305731451
 30
0.0
  0
SEQEND
  5
43BB
  8
0
  0
LINE
  5
35C0
  8
0
 10
118.38263322699289
 20
41.739665685442198
 30
0.0
 11
120.57263322699291
 21
41.739665685442198
 31
0.0
  0
LINE
  5
35C1
  8
0
 10
121.07263322699291
 20
41.106296109761423
 30
0.0
 11
118.38263322699289
 21
41.106296109761423
 31
0.0
  0
POLYLINE
  5
35C2
  8
0
 66
     1
 10
0.0
 20
0.0
 30
0.0
  0
VERTEX
  5
43BC
  8
0
 10
120.57263322699291
 20
41.739665685442198
 30
0.0
  0
VERTEX
  5
43BD
  8
0
 10
120.6591348678743
 20
41.640081366714881
 30
0.0
  0
VERTEX
  5
43BE
  8
0
 10
120.82828948253071
 20
41.443383656466892
 30
0.0
  0
VERTEX
  5
43BF
  8
0
 10
120.9924170854831
 20
41.249859358463048
 30
0.0
  0
VERTEX
  5
43C0
  8
0
 10
121.07263322699291
 20
41.154242900134903
 30
0.0
  0
SEQEND
  5
43C1
  8
0
  0
LINE
  5
35C3
  8
0
 10
118.38263322699289
 20
42.767035673486909
 30
0.0
 11
120.57263322699291
 21
42.767035673486909
 31
0.0
  0
LINE
  5
35C4
  8
0
 10
121.07263322699291
 20
42.097803198011533
 30
0.0
 11
118.38263322699289
 21
42.097803198011533
 31
0.0
  0
POLYLINE
  5
35C5
  8
0
 66
     1
 10
0.0
 20
0.0
 30
0.0
  0
VERTEX
  5
43C2
  8
0
 10
120.57263322699291
 20
42.767035673486888
 30
0.0
  0
VERTEX
  5
43C3
  8
0
 10
120.6591348678742
 20
42.661812652522087
 30
0.0
  0
VERTEX
  5
43C4
  8
0
 10
120.82828948253059
 20
42.453977447605332
 30
0.0
  0
VERTEX
  5
43C5
  8
0
 10
120.9924170854831
 20
42.249495341121737
 30
0.0
  0
VERTEX
  5
43C6
  8
0
 10
121.07263322699291
 20
42.148464850299199
 30
0.0
  0
SEQEND
  5
43C7
  8
0
  0
LINE
  5
35C6
  8
0
 10
118.38263322699289
 20
43.74796692216897
 30
0.0
 11
120.57263322699291
 21
43.74796692216897
 31
0.0
  0
LINE
  5
35C7
  8
0
 10
121.07263322699291
 20
43.050203797946189
 30
0.0
 11
118.38263322699289
 21
43.050203797946189
 31
0.0
  0
POLYLINE
  5
35C8
  8
0
 66
     1
 10
0.0
 20
0.0
 30
0.0
  0
VERTEX
  5
43C8
  8
0
 10
120.57263322699291
 20
43.74796692216897
 30
0.0
  0
VERTEX
  5
43C9
  8
0
 10
120.6591348678743
 20
43.638258044403401
 30
0.0
  0
VERTEX
  5
43CA
  8
0
 10
120.82828948253071
 20
43.421562430815321
 30
0.0
  0
VERTEX
  5
43CB
  8
0
 10
120.9924170854831
 20
43.208362864601519
 30
0.0
  0
VERTEX
  5
43CC
  8
0
 10
121.07263322699291
 20
43.103025252484017
 30
0.0
  0
SEQEND
  5
43CD
  8
0
  0
LINE
  5
35C9
  8
0
 10
118.38263322699289
 20
44.671712143454833
 30
0.0
 11
120.57263322699291
 21
44.671712143454833
 31
0.0
  0
LINE
  5
35CA
  8
0
 10
121.07263322699291
 20
43.953063209289994
 30
0.0
 11
118.38263322699289
 21
43.953063209289994
 31
0.0
  0
POLYLINE
  5
35CB
  8
0
 66
     1
 10
0.0
 20
0.0
 30
0.0
  0
VERTEX
  5
43CE
  8
0
 10
120.57263322699291
 20
44.671712143454833
 30
0.0
  0
VERTEX
  5
43CF
  8
0
 10
120.6591348678742
 20
44.558719402311681
 30
0.0
  0
VERTEX
  5
43D0
  8
0
 10
120.82828948253059
 20
44.335537542541239
 30
0.0
  0
VERTEX
  5
43D1
  8
0
 10
120.9924170854831
 20
44.115956375659259
 30
0.0
  0
VERTEX
  5
43D2
  8
0
 10
121.07263322699291
 20
44.007465743168403
 30
0.0
  0
SEQEND
  5
43D3
  8
0
  0
LINE
  5
35CC
  8
0
 10
118.38263322699289
 20
45.528150591393953
 30
0.0
 11
120.57263322699291
 21
45.528150591393953
 31
0.0
  0
LINE
  5
35CD
  8
0
 10
121.07263322699291
 20
44.796489515396722
 30
0.0
 11
118.38263322699289
 21
44.796489515396722
 31
0.0
  0
POLYLINE
  5
35CE
  8
0
 66
     1
 10
0.0
 20
0.0
 30
0.0
  0
VERTEX
  5
43D4
  8
0
 10
120.57263322699291
 20
45.528150591393953
 30
0.0
  0
VERTEX
  5
43D5
  8
0
 10
120.6591348678743
 20
45.413111958990172
 30
0.0
  0
VERTEX
  5
43D6
  8
0
 10
120.82828948253071
 20
45.185889080196887
 30
0.0
  0
VERTEX
  5
43D7
  8
0
 10
120.9924170854831
 20
44.962332089861633
 30
0.0
  0
VERTEX
  5
43D8
  8
0
 10
121.07263322699291
 20
44.851877083070057
 30
0.0
  0
SEQEND
  5
43D9
  8
0
  0
LINE
  5
35CF
  8
0
 10
118.38263322699289
 20
46.307898947129416
 30
0.0
 11
120.57263322699291
 21
46.307898947129416
 31
0.0
  0
LINE
  5
35D0
  8
0
 10
118.38263322699289
 20
45.571241961158293
 30
0.0
 11
118.38263322699289
 21
49.022903967157951
 31
0.0
  0
POLYLINE
  5
35D1
  8
0
 66
     1
 10
0.0
 20
0.0
 30
0.0
  0
VERTEX
  5
43DA
  8
0
 10
120.57263322699291
 20
46.307898947129416
 30
0.0
  0
VERTEX
  5
43DB
  8
0
 10
120.6591348678743
 20
46.192074810795077
 30
0.0
  0
VERTEX
  5
43DC
  8
0
 10
120.82828948253071
 20
45.963300414388407
 30
0.0
  0
VERTEX
  5
43DD
  8
0
 10
120.9924170854831
 20
45.73821693776825
 30
0.0
  0
VERTEX
  5
43DE
  8
0
 10
121.07263322699291
 20
45.627007724844638
 30
0.0
  0
SEQEND
  5
43DF
  8
0
  0
LINE
  5
35D2
  8
0
 10
118.38263322699289
 20
47.002414124503026
 30
0.0
 11
120.57263322699291
 21
47.002414124503026
 31
0.0
  0
POLYLINE
  5
35D3
  8
0
 66
     1
 10
0.0
 20
0.0
 30
0.0
  0
VERTEX
  5
43E0
  8
0
 10
120.57263322699291
 20
47.002414124503026
 30
0.0
  0
VERTEX
  5
43E1
  8
0
 10
120.6591348678744
 20
46.887073477713571
 30
0.0
  0
VERTEX
  5
43E2
  8
0
 10
120.82828948253071
 20
46.659254063854661
 30
0.0
  0
VERTEX
  5
43E3
  8
0
 10
120.9924170854831
 20
46.435110162621179
 30
0.0
  0
VERTEX
  5
43E4
  8
0
 10
121.07263322699291
 20
46.324365174974311
 30
0.0
  0
SEQEND
  5
43E5
  8
0
  0
LINE
  5
35D4
  8
0
 10
118.38263322699289
 20
47.604086869894772
 30
0.0
 11
120.57263322699291
 21
47.604086869894772
 31
0.0
  0
POLYLINE
  5
35D5
  8
0
 66
     1
 10
0.0
 20
0.0
 30
0.0
  0
VERTEX
  5
43E6
  8
0
 10
120.57263322699291
 20
47.604086869894772
 30
0.0
  0
VERTEX
  5
43E7
  8
0
 10
120.6591348678743
 20
47.490493408913153
 30
0.0
  0
VERTEX
  5
43E8
  8
0
 10
120.82828948253059
 20
47.266125014774538
 30
0.0
  0
VERTEX
  5
43E9
  8
0
 10
120.992417085483
 20
47.045376456414637
 30
0.0
  0
VERTEX
  5
43EA
  8
0
 10
121.07263322699291
 20
46.936309039304042
 30
0.0
  0
SEQEND
  5
43EB
  8
0
  0
LINE
  5
35D6
  8
0
 10
118.38263322699289
 20
48.10632513079802
 30
0.0
 11
120.57263322699291
 21
48.10632513079802
 31
0.0
  0
POLYLINE
  5
35D7
  8
0
 66
     1
 10
0.0
 20
0.0
 30
0.0
  0
VERTEX
  5
43EC
  8
0
 10
120.57263322699291
 20
48.106325130798041
 30
0.0
  0
VERTEX
  5
43ED
  8
0
 10
120.6591348678742
 20
47.995723409353637
 30
0.0
  0
VERTEX
  5
43EE
  8
0
 10
120.82828948253071
 20
47.777264262013432
 30
0.0
  0
VERTEX
  5
43EF
  8
0
 10
120.9924170854831
 20
47.56232961392719
 30
0.0
  0
VERTEX
  5
43F0
  8
0
 10
121.07263322699291
 20
47.456134732798731
 30
0.0
  0
SEQEND
  5
43F1
  8
0
  0
LINE
  5
35D8
  8
0
 10
118.38263322699289
 20
48.503626279726276
 30
0.0
 11
120.57263322699291
 21
48.503626279726276
 31
0.0
  0
POLYLINE
  5
35D9
  8
0
 66
     1
 10
0.0
 20
0.0
 30
0.0
  0
VERTEX
  5
43F2
  8
0
 10
120.57263322699291
 20
48.503626279726262
 30
0.0
  0
VERTEX
  5
43F3
  8
0
 10
120.6591348678742
 20
48.397228073424181
 30
0.0
  0
VERTEX
  5
43F4
  8
0
 10
120.82828948253059
 20
48.18707165701629
 30
0.0
  0
VERTEX
  5
43F5
  8
0
 10
120.9924170854831
 20
47.980305788186037
 30
0.0
  0
VERTEX
  5
43F6
  8
0
 10
121.07263322699291
 20
47.878146936379963
 30
0.0
  0
SEQEND
  5
43F7
  8
0
  0
LINE
  5
35DA
  8
0
 10
118.38263322699289
 20
48.791637402151181
 30
0.0
 11
120.57263322699291
 21
48.791637402151181
 31
0.0
  0
POLYLINE
  5
35DB
  8
0
 66
     1
 10
0.0
 20
0.0
 30
0.0
  0
VERTEX
  5
43F8
  8
0
 10
120.57263322699291
 20
48.79163740215116
 30
0.0
  0
VERTEX
  5
43F9
  8
0
 10
120.6591348678743
 20
48.690608432004652
 30
0.0
  0
VERTEX
  5
43FA
  8
0
 10
120.82828948253071
 20
48.49105726420543
 30
0.0
  0
VERTEX
  5
43FB
  8
0
 10
120.9924170854831
 20
48.294725544758883
 30
0.0
  0
VERTEX
  5
43FC
  8
0
 10
121.07263322699291
 20
48.197721996033529
 30
0.0
  0
SEQEND
  5
43FD
  8
0
  0
LINE
  5
35DC
  8
0
 10
118.38263322699289
 20
48.967202987945242
 30
0.0
 11
120.57263322699291
 21
48.967202987945242
 31
0.0
  0
POLYLINE
  5
35DD
  8
0
 66
     1
 10
0.0
 20
0.0
 30
0.0
  0
VERTEX
  5
43FE
  8
0
 10
120.57263322699291
 20
48.967202987945271
 30
0.0
  0
VERTEX
  5
43FF
  8
0
 10
120.6591348678742
 20
48.872650148493221
 30
0.0
  0
VERTEX
  5
4400
  8
0
 10
120.82828948253071
 20
48.685890553655568
 30
0.0
  0
VERTEX
  5
4401
  8
0
 10
120.9924170854832
 20
48.502144034995737
 30
0.0
  0
VERTEX
  5
4402
  8
0
 10
121.07263322699291
 20
48.411358580530496
 30
0.0
  0
SEQEND
  5
4403
  8
0
  0
LINE
  5
35DE
  8
0
 10
120.5781114498502
 20
49.022903967157951
 30
0.0
 11
118.38263322699289
 21
49.022903967157951
 31
0.0
  0
LINE
  5
35DF
  8
0
 10
120.57263322699291
 20
49.028382229787709
 30
0.0
 11
120.57811144886681
 21
49.022903966174489
 31
0.0
  0
LINE
  5
35E0
  8
0
 10
118.38263322699289
 20
28.02851733726952
 30
0.0
 11
118.38263322699289
 21
28.08236037316588
 31
0.0
  0
LINE
  5
35E1
  8
0
 10
118.38263322699289
 20
28.02851733726952
 30
0.0
 11
118.38263322699289
 21
31.485674879922311
 31
0.0
  0
LINE
  5
35E2
  8
0
 10
118.38263322699289
 20
30.74901789395124
 30
0.0
 11
118.38263322699289
 21
31.476486703831359
 31
0.0
  0
LINE
  5
35E3
  8
0
 10
118.38263322699289
 20
31.528766249686711
 30
0.0
 11
118.38263322699289
 21
32.328291106081949
 31
0.0
  0
LINE
  5
35E4
  8
0
 10
118.38263322699289
 20
32.385204697625838
 30
0.0
 11
118.38263322699289
 21
33.248025838898158
 31
0.0
  0
LINE
  5
35E5
  8
0
 10
118.38263322699289
 20
33.308949918911694
 30
0.0
 11
118.38263322699289
 21
34.225614096080378
 31
0.0
  0
LINE
  5
35E6
  8
0
 10
118.38263322699289
 20
34.289881167593748
 30
0.0
 11
118.38263322699289
 21
35.250345216109501
 31
0.0
  0
LINE
  5
35E7
  8
0
 10
118.38263322699289
 20
35.317251155638459
 30
0.0
 11
118.38263322699289
 21
36.310992030395582
 31
0.0
  0
LINE
  5
35E8
  8
0
 10
118.38263322699289
 20
36.37980380246573
 30
0.0
 11
118.38263322699289
 21
37.395933870486822
 31
0.0
  0
LINE
  5
35E9
  8
0
 10
118.38263322699289
 20
37.465897558923459
 30
0.0
 11
118.38263322699289
 21
38.493283886544397
 31
0.0
  0
LINE
  5
35EA
  8
0
 10
118.38263322699289
 20
38.56363295453626
 30
0.0
 11
118.38263322699289
 21
39.591019282157212
 31
0.0
  0
LINE
  5
35EB
  8
0
 10
118.38263322699289
 20
39.660982970593849
 30
0.0
 11
118.38263322699289
 21
40.677113038614927
 31
0.0
  0
LINE
  5
35EC
  8
0
 10
118.38263322699289
 20
40.745924810685082
 30
0.0
 11
118.38263322699289
 21
41.739665685442198
 31
0.0
  0
LINE
  5
35ED
  8
0
 10
118.38263322699289
 20
41.80657162497117
 30
0.0
 11
118.38263322699289
 21
42.767035673486909
 31
0.0
  0
LINE
  5
35EE
  8
0
 10
118.38263322699289
 20
42.831302745000279
 30
0.0
 11
118.38263322699289
 21
43.74796692216897
 31
0.0
  0
LINE
  5
35EF
  8
0
 10
118.38263322699289
 20
43.808891002182499
 30
0.0
 11
118.38263322699289
 21
44.671712143454833
 31
0.0
  0
LINE
  5
35F0
  8
0
 10
118.38263322699289
 20
44.728625734998708
 30
0.0
 11
118.38263322699289
 21
45.528150591393953
 31
0.0
  0
LINE
  5
35F1
  8
0
 10
118.38263322699289
 20
45.580430137249309
 30
0.0
 11
118.38263322699289
 21
46.307898947129416
 31
0.0
  0
LINE
  5
35F2
  8
0
 10
118.38263322699289
 20
46.354971661651611
 30
0.0
 11
118.38263322699289
 21
47.002414124503026
 31
0.0
  0
LINE
  5
35F3
  8
0
 10
118.38263322699289
 20
47.04376426918121
 30
0.0
 11
118.38263322699289
 21
47.604086869894772
 31
0.0
  0
LINE
  5
35F4
  8
0
 10
118.38263322699289
 20
47.639261403890693
 30
0.0
 11
118.38263322699289
 21
48.10632513079802
 31
0.0
  0
LINE
  5
35F5
  8
0
 10
118.38263322699289
 20
48.134938674556551
 30
0.0
 11
118.38263322699289
 21
48.503626279726276
 31
0.0
  0
LINE
  5
35F6
  8
0
 10
118.38263322699289
 20
48.525365337274181
 30
0.0
 11
118.38263322699289
 21
48.791637402151181
 31
0.0
  0
LINE
  5
35F7
  8
0
 10
118.38263322699289
 20
48.80626379582484
 30
0.0
 11
118.38263322699289
 21
48.967202987945242
 31
0.0
  0
LINE
  5
35F8
  8
0
 10
118.38263322699289
 20
48.97455646791478
 30
0.0
 11
118.38263322699289
 21
49.028382229787709
 31
0.0
  0
POLYLINE
  5
35F9
  8
0
 66
     1
 10
0.0
 20
0.0
 30
0.0
  0
VERTEX
  5
4404
  8
0
 10
120.5781114498502
 20
49.022903967157909
 30
0.0
  0
VERTEX
  5
4405
  8
0
 10
120.6636324934011
 20
48.936817330658997
 30
0.0
  0
VERTEX
  5
4406
  8
0
 10
120.8309084887903
 20
48.766756393726311
 30
0.0
  0
VERTEX
  5
4407
  8
0
 10
120.9932642003274
 20
48.599409370523183
 30
0.0
  0
VERTEX
  5
4408
  8
0
 10
121.07263322699291
 20
48.516716042744818
 30
0.0
  0
SEQEND
  5
4409
  8
0
  0
POLYLINE
  5
35FA
  8
0
 66
     1
 10
0.0
 20
0.0
 30
0.0
  0
VERTEX
  5
440A
  8
0
 10
121.07263322699291
 20
32.26556469030902
 30
0.0
  0
VERTEX
  5
440B
  8
0
 10
120.9924170854831
 20
32.27580972666626
 30
0.0
  0
VERTEX
  5
440C
  8
0
 10
120.82828948253071
 20
32.296545314489983
 30
0.0
  0
VERTEX
  5
440D
  8
0
 10
120.6591348678743
 20
32.317620924569162
 30
0.0
  0
VERTEX
  5
440E
  8
0
 10
120.57263322699291
 20
32.328291106081949
 30
0.0
  0
SEQEND
  5
440F
  8
0
  0
LINE
  5
35FB
  8
0
 10
120.57263322699291
 20
28.089713853135422
 30
0.0
 11
118.38263322699289
 21
28.089713853135422
 31
0.0
  0
LINE
  5
35FC
  8
0
 10
120.57263322699291
 20
28.265279438929479
 30
0.0
 11
118.38263322699289
 21
28.265279438929479
 31
0.0
  0
LINE
  5
35FD
  8
0
 10
120.57263322699291
 20
28.553290561354391
 30
0.0
 11
118.38263322699289
 21
28.553290561354391
 31
0.0
  0
LINE
  5
35FE
  8
0
 10
120.57263322699291
 20
28.950591710282641
 30
0.0
 11
118.38263322699289
 21
28.950591710282641
 31
0.0
  0
LINE
  5
35FF
  8
0
 10
120.57263322699291
 20
29.452829971185889
 30
0.0
 11
118.38263322699289
 21
29.452829971185889
 31
0.0
  0
LINE
  5
3600
  8
0
 10
120.57263322699291
 20
30.05450271657763
 30
0.0
 11
118.38263322699289
 21
30.05450271657763
 31
0.0
  0
LINE
  5
3601
  8
0
 10
120.57263322699291
 20
30.74901789395124
 30
0.0
 11
118.38263322699289
 21
30.74901789395124
 31
0.0
  0
LINE
  5
3602
  8
0
 10
120.57263322699291
 20
31.528766249686711
 30
0.0
 11
118.38263322699289
 21
31.528766249686711
 31
0.0
  0
POLYLINE
  5
3603
  8
0
 66
     1
 10
0.0
 20
0.0
 30
0.0
  0
VERTEX
  5
4410
  8
0
 10
121.07263322699291
 20
32.205039758010599
 30
0.0
  0
VERTEX
  5
4411
  8
0
 10
120.9924170854831
 20
32.094584751219053
 30
0.0
  0
VERTEX
  5
4412
  8
0
 10
120.82828948253059
 20
31.871027760883681
 30
0.0
  0
VERTEX
  5
4413
  8
0
 10
120.6591348678742
 20
31.64380488209035
 30
0.0
  0
VERTEX
  5
4414
  8
0
 10
120.57263322699291
 20
31.528766249686711
 30
0.0
  0
SEQEND
  5
4415
  8
0
  0
LINE
  5
3604
  8
0
 10
120.57263322699291
 20
32.385204697625838
 30
0.0
 11
118.38263322699289
 21
32.385204697625838
 31
0.0
  0
LINE
  5
3605
  8
0
 10
120.57263322699291
 20
33.308949918911694
 30
0.0
 11
118.38263322699289
 21
33.308949918911694
 31
0.0
  0
LINE
  5
3606
  8
0
 10
120.57263322699291
 20
34.289881167593748
 30
0.0
 11
118.38263322699289
 21
34.289881167593748
 31
0.0
  0
LINE
  5
3607
  8
0
 10
120.57263322699291
 20
35.317251155638459
 30
0.0
 11
118.38263322699289
 21
35.317251155638459
 31
0.0
  0
LINE
  5
3608
  8
0
 10
120.57263322699291
 20
36.37980380246573
 30
0.0
 11
118.38263322699289
 21
36.37980380246573
 31
0.0
  0
LINE
  5
3609
  8
0
 10
120.57263322699291
 20
37.465897558923459
 30
0.0
 11
118.38263322699289
 21
37.465897558923459
 31
0.0
  0
LINE
  5
360A
  8
0
 10
120.57263322699291
 20
38.56363295453626
 30
0.0
 11
118.38263322699289
 21
38.56363295453626
 31
0.0
  0
LINE
  5
360B
  8
0
 10
120.57263322699291
 20
39.660982970593849
 30
0.0
 11
118.38263322699289
 21
39.660982970593849
 31
0.0
  0
LINE
  5
360C
  8
0
 10
120.57263322699291
 20
40.745924810685082
 30
0.0
 11
118.38263322699289
 21
40.745924810685082
 31
0.0
  0
LINE
  5
360D
  8
0
 10
120.57263322699291
 20
41.80657162497117
 30
0.0
 11
118.38263322699289
 21
41.80657162497117
 31
0.0
  0
LINE
  5
360E
  8
0
 10
120.57263322699291
 20
42.831302745000279
 30
0.0
 11
118.38263322699289
 21
42.831302745000279
 31
0.0
  0
LINE
  5
360F
  8
0
 10
120.57263322699291
 20
43.808891002182499
 30
0.0
 11
118.38263322699289
 21
43.808891002182499
 31
0.0
  0
LINE
  5
3610
  8
0
 10
120.57263322699291
 20
44.728625734998708
 30
0.0
 11
118.38263322699289
 21
44.728625734998708
 31
0.0
  0
LINE
  5
3611
  8
0
 10
120.57263322699291
 20
45.580430137249309
 30
0.0
 11
118.38263322699289
 21
45.580430137249309
 31
0.0
  0
LINE
  5
3612
  8
0
 10
120.57263322699291
 20
46.354971661651611
 30
0.0
 11
118.38263322699289
 21
46.354971661651611
 31
0.0
  0
LINE
  5
3613
  8
0
 10
120.57263322699291
 20
47.04376426918121
 30
0.0
 11
118.38263322699289
 21
47.04376426918121
 31
0.0
  0
LINE
  5
3614
  8
0
 10
120.57263322699291
 20
47.639261403890693
 30
0.0
 11
118.38263322699289
 21
47.639261403890693
 31
0.0
  0
LINE
  5
3615
  8
0
 10
120.57263322699291
 20
48.134938674556551
 30
0.0
 11
118.38263322699289
 21
48.134938674556551
 31
0.0
  0
LINE
  5
3616
  8
0
 10
120.57263322699291
 20
48.525365337274181
 30
0.0
 11
118.38263322699289
 21
48.525365337274181
 31
0.0
  0
LINE
  5
3617
  8
0
 10
120.57263322699291
 20
48.80626379582484
 30
0.0
 11
118.38263322699289
 21
48.80626379582484
 31
0.0
  0
LINE
  5
3618
  8
0
 10
120.57263322699291
 20
48.97455646791478
 30
0.0
 11
118.38263322699289
 21
48.97455646791478
 31
0.0
  0
LINE
  5
3619
  8
0
 10
115.9313740104491
 20
49.028458420540332
 30
0.0
 11
115.9313740104491
 21
28.028458420540328
 31
0.0
  0
LINE
  5
361A
  8
0
 10
120.57263322699291
 20
28.08236037316588
 30
0.0
 11
120.57263322699291
 21
28.089713853135422
 31
0.0
  0
LINE
  5
361B
  8
0
 10
120.57263322699291
 20
28.25065304525582
 30
0.0
 11
120.57263322699291
 21
28.265279438929479
 31
0.0
  0
LINE
  5
361C
  8
0
 10
120.57263322699291
 20
28.53155150380643
 30
0.0
 11
120.57263322699291
 21
28.553290561354391
 31
0.0
  0
LINE
  5
361D
  8
0
 10
120.57263322699291
 20
28.921978166524109
 30
0.0
 11
120.57263322699291
 21
28.950591710282641
 31
0.0
  0
LINE
  5
361E
  8
0
 10
120.57263322699291
 20
29.417655437189971
 30
0.0
 11
120.57263322699291
 21
29.452829971185889
 31
0.0
  0
LINE
  5
361F
  8
0
 10
120.57263322699291
 20
30.013152571899461
 30
0.0
 11
120.57263322699291
 21
30.05450271657763
 31
0.0
  0
LINE
  5
3620
  8
0
 10
120.57263322699291
 20
30.701945179428989
 30
0.0
 11
120.57263322699291
 21
30.74901789395124
 31
0.0
  0
LINE
  5
3621
  8
0
 10
120.57263322699291
 20
31.476486703831359
 30
0.0
 11
120.57263322699291
 21
31.528766249686711
 31
0.0
  0
LINE
  5
3622
  8
0
 10
120.57263322699291
 20
32.328291106081949
 30
0.0
 11
120.57263322699291
 21
32.385204697625838
 31
0.0
  0
LINE
  5
3623
  8
0
 10
120.57263322699291
 20
33.248025838898158
 30
0.0
 11
120.57263322699291
 21
33.308949918911694
 31
0.0
  0
LINE
  5
3624
  8
0
 10
120.57263322699291
 20
34.225614096080378
 30
0.0
 11
120.57263322699291
 21
34.289881167593748
 31
0.0
  0
LINE
  5
3625
  8
0
 10
120.57263322699291
 20
35.250345216109501
 30
0.0
 11
120.57263322699291
 21
35.317251155638459
 31
0.0
  0
LINE
  5
3626
  8
0
 10
120.57263322699291
 20
36.310992030395582
 30
0.0
 11
120.57263322699291
 21
36.37980380246573
 31
0.0
  0
LINE
  5
3627
  8
0
 10
120.57263322699291
 20
37.395933870486822
 30
0.0
 11
120.57263322699291
 21
37.465897558923508
 31
0.0
  0
LINE
  5
3628
  8
0
 10
120.57263322699291
 20
38.493283886544397
 30
0.0
 11
120.57263322699291
 21
38.56363295453626
 31
0.0
  0
LINE
  5
3629
  8
0
 10
120.57263322699291
 20
39.591019282157148
 30
0.0
 11
120.57263322699291
 21
39.660982970593849
 31
0.0
  0
LINE
  5
362A
  8
0
 10
120.57263322699291
 20
40.677113038614927
 30
0.0
 11
120.57263322699291
 21
40.745924810685082
 31
0.0
  0
LINE
  5
362B
  8
0
 10
120.57263322699291
 20
41.739665685442198
 30
0.0
 11
120.57263322699291
 21
41.80657162497117
 31
0.0
  0
LINE
  5
362C
  8
0
 10
120.57263322699291
 20
42.767035673486909
 30
0.0
 11
120.57263322699291
 21
42.831302745000279
 31
0.0
  0
LINE
  5
362D
  8
0
 10
120.57263322699291
 20
43.74796692216897
 30
0.0
 11
120.57263322699291
 21
43.808891002182499
 31
0.0
  0
LINE
  5
362E
  8
0
 10
120.57263322699291
 20
44.671712143454833
 30
0.0
 11
120.57263322699291
 21
44.728625734998708
 31
0.0
  0
LINE
  5
362F
  8
0
 10
120.57263322699291
 20
45.528150591393953
 30
0.0
 11
120.57263322699291
 21
45.580430137249309
 31
0.0
  0
LINE
  5
3630
  8
0
 10
120.57263322699291
 20
46.307898947129416
 30
0.0
 11
120.57263322699291
 21
46.354971661651611
 31
0.0
  0
LINE
  5
3631
  8
0
 10
120.57263322699291
 20
47.002414124503026
 30
0.0
 11
120.57263322699291
 21
47.04376426918121
 31
0.0
  0
LINE
  5
3632
  8
0
 10
120.57263322699291
 20
47.604086869894772
 30
0.0
 11
120.57263322699291
 21
47.639261403890693
 31
0.0
  0
LINE
  5
3633
  8
0
 10
120.57263322699291
 20
48.10632513079802
 30
0.0
 11
120.57263322699291
 21
48.134938674556551
 31
0.0
  0
LINE
  5
3634
  8
0
 10
120.57263322699291
 20
48.503626279726276
 30
0.0
 11
120.57263322699291
 21
48.525365337274181
 31
0.0
  0
LINE
  5
3635
  8
0
 10
120.57263322699291
 20
48.791637402151181
 30
0.0
 11
120.57263322699291
 21
48.80626379582484
 31
0.0
  0
LINE
  5
3636
  8
0
 10
120.57263322699291
 20
48.967202987945242
 30
0.0
 11
120.57263322699291
 21
48.97455646791478
 31
0.0
  0
LINE
  5
3637
  8
0
 10
121.07263322699291
 20
48.528458420540332
 30
0.0
 11
121.07263322699291
 21
28.528458420540328
 31
0.0
  0
LINE
  5
3638
  8
0
 10
114.17042525426
 20
47.601365215968578
 30
0.0
 11
114.17042525426
 21
29.455551625112079
 31
0.0
  0
LINE
  5
3639
  8
0
 10
113.7237372133593
 20
45.492005022826199
 30
0.0
 11
113.7237372133593
 21
31.564911818254458
 31
0.0
  0
LINE
  5
363A
  8
0
 10
112.8432628352648
 20
44.778458420540332
 30
0.0
 11
112.8432628352648
 21
32.278458420540332
 31
0.0
  0
LINE
  5
363C
  8
0
 10
115.9313740104491
 20
28.028458420540328
 30
0.0
 11
120.57263322699291
 21
28.028458420540328
 31
0.0
  0
LINE
  5
363D
  8
0
 10
120.57263322699291
 20
49.028458420540332
 30
0.0
 11
115.9313740104491
 21
49.028458420540332
 31
0.0
  0
LINE
  5
363E
  8
0
 10
120.57263322699291
 20
28.028458420540328
 30
0.0
 11
121.07263322699291
 21
28.528458420540328
 31
0.0
  0
ARC
  5
363F
  8
2
 10
139.77263322699289
 20
38.528458420540332
 30
0.0
 40
20.500000000000011
 50
155.81048584597499
 51
204.18951415402441
  0
LINE
  5
3640
  8
0
 10
121.07263322699291
 20
48.528458420540332
 30
0.0
 11
120.57263322699291
 21
49.028458420540332
 31
0.0
  0
ARC
  5
3641
  8
0
 10
115.9313740104491
 20
47.228458420540321
 30
0.0
 40
1.800000000000004
 50
90.0
 51
168.04341575685021
  0
ARC
  5
3642
  8
0
 10
115.9313740104491
 20
29.82845842054035
 30
0.0
 40
1.800000000000004
 50
191.956584243149
 51
270.0
  0
LINE
  5
3643
  8
0
 10
113.7237372133593
 20
31.564911818254458
 30
0.0
 11
114.17042525426
 21
29.455551625112079
 31
0.0
  0
LINE
  5
3644
  8
0
 10
114.17042525426
 20
47.601365215968578
 30
0.0
 11
113.7237372133593
 21
45.492005022826199
 31
0.0
  0
ARC
  5
3645
  8
0
 10
112.8432628352648
 20
45.678458420540309
 30
0.0
 40
0.9000000000000021
 50
270.0
 51
348.043415756851
  0
ARC
  5
3646
  8
0
 10
112.8432628352648
 20
31.378458420540358
 30
0.0
 40
0.9000000000000035
 50
11.956584243149029
 51
90.0
  0
LINE
  5
3647
  8
0
 10
103.07263322699281
 20
32.278458420540332
 30
0.0
 11
112.8432628352648
 21
32.278458420540332
 31
0.0
  0
LINE
  5
3648
  8
0
 10
112.8432628352648
 20
44.778458420540332
 30
0.0
 11
103.07263322699281
 21
44.778458420540332
 31
0.0
  0
LINE
  5
3655
  8
0
 10
114.1704252542601
 20
86.453110743096616
 30
0.0
 11
113.7237372133593
 21
84.343750549954237
 31
0.0
  0
LINE
  5
3656
  8
0
 10
113.7237372133593
 20
70.416657345382475
 30
0.0
 11
114.1704252542601
 21
68.30729715224011
 31
0.0
  0
ARC
  5
3657
  8
0
 10
115.9313740104491
 20
68.680203947668375
 30
0.0
 40
1.800000000000004
 50
191.956584243149
 51
270.0
  0
ARC
  5
3658
  8
0
 10
115.9313740104491
 20
86.080203947668352
 30
0.0
 40
1.800000000000004
 50
90.0
 51
168.04341575685021
  0
LINE
  5
3659
  8
0
 10
121.07263322699291
 20
87.380203947668363
 30
0.0
 11
120.57263322699291
 21
87.880203947668363
 31
0.0
  0
ARC
  5
365A
  8
2
 10
139.77263322699289
 20
77.380203947668363
 30
0.0
 40
20.500000000000011
 50
155.81048584597499
 51
204.18951415402441
  0
LINE
  5
365B
  8
0
 10
120.57263322699291
 20
66.880203947668363
 30
0.0
 11
121.07263322699291
 21
67.380203947668363
 31
0.0
  0
LINE
  5
365C
  8
0
 10
120.57263322699291
 20
87.880203947668363
 30
0.0
 11
115.9313740104491
 21
87.880203947668363
 31
0.0
  0
LINE
  5
365D
  8
0
 10
115.9313740104491
 20
66.880203947668363
 30
0.0
 11
120.57263322699291
 21
66.880203947668363
 31
0.0
  0
LINE
  5
365E
  8
0
 10
113.7237372133593
 20
84.343750549954237
 30
0.0
 11
113.7237372133593
 21
70.416657345382475
 31
0.0
  0
LINE
  5
365F
  8
0
 10
114.1704252542601
 20
86.453110743096616
 30
0.0
 11
114.1704252542601
 21
68.30729715224011
 31
0.0
  0
LINE
  5
3660
  8
0
 10
121.07263322699291
 20
87.380203947668363
 30
0.0
 11
121.07263322699291
 21
67.380203947668363
 31
0.0
  0
LINE
  5
3661
  8
0
 10
120.57263322699291
 20
87.818948515073274
 30
0.0
 11
120.57263322699291
 21
87.826301995042797
 31
0.0
  0
LINE
  5
3662
  8
0
 10
120.57263322699291
 20
87.643382929279227
 30
0.0
 11
120.57263322699291
 21
87.658009322952879
 31
0.0
  0
LINE
  5
3663
  8
0
 10
120.57263322699291
 20
87.355371806854308
 30
0.0
 11
120.57263322699291
 21
87.377110864402212
 31
0.0
  0
LINE
  5
3664
  8
0
 10
120.57263322699291
 20
86.958070657926044
 30
0.0
 11
120.57263322699291
 21
86.986684201684568
 31
0.0
  0
LINE
  5
3665
  8
0
 10
120.57263322699291
 20
86.455832397022803
 30
0.0
 11
120.57263322699291
 21
86.491006931018731
 31
0.0
  0
LINE
  5
3666
  8
0
 10
120.57263322699291
 20
85.854159651631065
 30
0.0
 11
120.57263322699291
 21
85.895509796309241
 31
0.0
  0
LINE
  5
3667
  8
0
 10
120.57263322699291
 20
85.159644474257462
 30
0.0
 11
120.57263322699291
 21
85.206717188779649
 31
0.0
  0
LINE
  5
3668
  8
0
 10
120.57263322699291
 20
84.379896118521984
 30
0.0
 11
120.57263322699291
 21
84.43217566437734
 31
0.0
  0
LINE
  5
3669
  8
0
 10
120.57263322699291
 20
83.523457670582857
 30
0.0
 11
120.57263322699291
 21
83.580371262126747
 31
0.0
  0
LINE
  5
366A
  8
0
 10
120.57263322699291
 20
82.599712449296987
 30
0.0
 11
120.57263322699291
 21
82.660636529310537
 31
0.0
  0
LINE
  5
366B
  8
0
 10
120.57263322699291
 20
81.618781200614933
 30
0.0
 11
120.57263322699291
 21
81.683048272128318
 31
0.0
  0
LINE
  5
366C
  8
0
 10
120.57263322699291
 20
80.591411212570236
 30
0.0
 11
120.57263322699291
 21
80.658317152099201
 31
0.0
  0
LINE
  5
366D
  8
0
 10
120.57263322699291
 20
79.528858565742965
 30
0.0
 11
120.57263322699291
 21
79.597670337813113
 31
0.0
  0
LINE
  5
366E
  8
0
 10
120.57263322699291
 20
78.44276480928518
 30
0.0
 11
120.57263322699291
 21
78.512728497721881
 31
0.0
  0
LINE
  5
366F
  8
0
 10
120.57263322699291
 20
77.345029413672435
 30
0.0
 11
120.57263322699291
 21
77.415378481664291
 31
0.0
  0
LINE
  5
3670
  8
0
 10
120.57263322699291
 20
76.247679397614846
 30
0.0
 11
120.57263322699291
 21
76.317643086051547
 31
0.0
  0
LINE
  5
3671
  8
0
 10
120.57263322699291
 20
75.162737557523613
 30
0.0
 11
120.57263322699291
 21
75.231549329593761
 31
0.0
  0
LINE
  5
3672
  8
0
 10
120.57263322699291
 20
74.102090743237525
 30
0.0
 11
120.57263322699291
 21
74.16899668276649
 31
0.0
  0
LINE
  5
3673
  8
0
 10
120.57263322699291
 20
73.077359623208395
 30
0.0
 11
120.57263322699291
 21
73.141626694721779
 31
0.0
  0
LINE
  5
3674
  8
0
 10
120.57263322699291
 20
72.099771366026189
 30
0.0
 11
120.57263322699291
 21
72.160695446039725
 31
0.0
  0
LINE
  5
3675
  8
0
 10
120.57263322699291
 20
71.180036633209966
 30
0.0
 11
120.57263322699291
 21
71.236950224753869
 31
0.0
  0
LINE
  5
3676
  8
0
 10
120.57263322699291
 20
70.328232230959387
 30
0.0
 11
120.57263322699291
 21
70.380511776814743
 31
0.0
  0
LINE
  5
3677
  8
0
 10
120.57263322699291
 20
69.55369070655702
 30
0.0
 11
120.57263322699291
 21
69.600763421079265
 31
0.0
  0
LINE
  5
3678
  8
0
 10
120.57263322699291
 20
68.864898099027485
 30
0.0
 11
120.57263322699291
 21
68.906248243705662
 31
0.0
  0
LINE
  5
3679
  8
0
 10
120.57263322699291
 20
68.269400964317995
 30
0.0
 11
120.57263322699291
 21
68.304575498313923
 31
0.0
  0
LINE
  5
367A
  8
0
 10
120.57263322699291
 20
67.773723693652144
 30
0.0
 11
120.57263322699291
 21
67.802337237410669
 31
0.0
  0
LINE
  5
367B
  8
0
 10
120.57263322699291
 20
67.383297030934443
 30
0.0
 11
120.57263322699291
 21
67.405036088482419
 31
0.0
  0
LINE
  5
367C
  8
0
 10
120.57263322699291
 20
67.102398572383834
 30
0.0
 11
120.57263322699291
 21
67.117024966057514
 31
0.0
  0
LINE
  5
367D
  8
0
 10
120.57263322699291
 20
66.934105900293915
 30
0.0
 11
120.57263322699291
 21
66.941459380263453
 31
0.0
  0
LINE
  5
367E
  8
0
 10
115.9313740104491
 20
87.880203947668363
 30
0.0
 11
115.9313740104491
 21
66.880203947668363
 31
0.0
  0
LINE
  5
367F
  8
0
 10
120.57263322699291
 20
87.826301995042797
 30
0.0
 11
118.38263322699289
 21
87.826301995042797
 31
0.0
  0
LINE
  5
3680
  8
0
 10
120.57263322699291
 20
87.658009322952879
 30
0.0
 11
118.38263322699289
 21
87.658009322952879
 31
0.0
  0
LINE
  5
3681
  8
0
 10
120.57263322699291
 20
87.377110864402212
 30
0.0
 11
118.38263322699289
 21
87.377110864402212
 31
0.0
  0
LINE
  5
3682
  8
0
 10
120.57263322699291
 20
86.986684201684568
 30
0.0
 11
118.38263322699289
 21
86.986684201684568
 31
0.0
  0
LINE
  5
3683
  8
0
 10
120.57263322699291
 20
86.491006931018731
 30
0.0
 11
118.38263322699289
 21
86.491006931018731
 31
0.0
  0
LINE
  5
3684
  8
0
 10
120.57263322699291
 20
85.895509796309241
 30
0.0
 11
118.38263322699289
 21
85.895509796309241
 31
0.0
  0
LINE
  5
3685
  8
0
 10
120.57263322699291
 20
85.206717188779649
 30
0.0
 11
118.38263322699289
 21
85.206717188779649
 31
0.0
  0
LINE
  5
3686
  8
0
 10
120.57263322699291
 20
84.43217566437734
 30
0.0
 11
118.38263322699289
 21
84.43217566437734
 31
0.0
  0
LINE
  5
3687
  8
0
 10
120.57263322699291
 20
83.580371262126747
 30
0.0
 11
118.38263322699289
 21
83.580371262126747
 31
0.0
  0
LINE
  5
3688
  8
0
 10
120.57263322699291
 20
82.660636529310537
 30
0.0
 11
118.38263322699289
 21
82.660636529310537
 31
0.0
  0
LINE
  5
3689
  8
0
 10
120.57263322699291
 20
81.683048272128318
 30
0.0
 11
118.38263322699289
 21
81.683048272128318
 31
0.0
  0
LINE
  5
368A
  8
0
 10
120.57263322699291
 20
80.658317152099201
 30
0.0
 11
118.38263322699289
 21
80.658317152099201
 31
0.0
  0
LINE
  5
368B
  8
0
 10
120.57263322699291
 20
79.597670337813113
 30
0.0
 11
118.38263322699289
 21
79.597670337813113
 31
0.0
  0
LINE
  5
368C
  8
0
 10
120.57263322699291
 20
78.512728497721881
 30
0.0
 11
118.38263322699289
 21
78.512728497721881
 31
0.0
  0
LINE
  5
368D
  8
0
 10
120.57263322699291
 20
77.415378481664291
 30
0.0
 11
118.38263322699289
 21
77.415378481664291
 31
0.0
  0
LINE
  5
368E
  8
0
 10
120.57263322699291
 20
76.317643086051476
 30
0.0
 11
118.38263322699289
 21
76.317643086051476
 31
0.0
  0
LINE
  5
368F
  8
0
 10
120.57263322699291
 20
75.231549329593761
 30
0.0
 11
118.38263322699289
 21
75.231549329593761
 31
0.0
  0
LINE
  5
3690
  8
0
 10
120.57263322699291
 20
74.16899668276649
 30
0.0
 11
118.38263322699289
 21
74.16899668276649
 31
0.0
  0
LINE
  5
3691
  8
0
 10
120.57263322699291
 20
73.141626694721779
 30
0.0
 11
118.38263322699289
 21
73.141626694721779
 31
0.0
  0
LINE
  5
3692
  8
0
 10
120.57263322699291
 20
72.160695446039725
 30
0.0
 11
118.38263322699289
 21
72.160695446039725
 31
0.0
  0
LINE
  5
3693
  8
0
 10
120.57263322699291
 20
71.236950224753869
 30
0.0
 11
118.38263322699289
 21
71.236950224753869
 31
0.0
  0
POLYLINE
  5
3694
  8
0
 66
     1
 10
0.0
 20
0.0
 30
0.0
  0
VERTEX
  5
4416
  8
0
 10
121.07263322699291
 20
71.056785285138631
 30
0.0
  0
VERTEX
  5
4417
  8
0
 10
120.9924170854831
 20
70.946330278347077
 30
0.0
  0
VERTEX
  5
4418
  8
0
 10
120.82828948253059
 20
70.722773288011695
 30
0.0
  0
VERTEX
  5
4419
  8
0
 10
120.6591348678742
 20
70.495550409218382
 30
0.0
  0
VERTEX
  5
441A
  8
0
 10
120.57263322699291
 20
70.380511776814743
 30
0.0
  0
SEQEND
  5
441B
  8
0
  0
LINE
  5
3695
  8
0
 10
120.57263322699291
 20
70.380511776814743
 30
0.0
 11
118.38263322699289
 21
70.380511776814743
 31
0.0
  0
LINE
  5
3696
  8
0
 10
120.57263322699291
 20
69.600763421079265
 30
0.0
 11
118.38263322699289
 21
69.600763421079265
 31
0.0
  0
LINE
  5
3697
  8
0
 10
120.57263322699291
 20
68.906248243705662
 30
0.0
 11
118.38263322699289
 21
68.906248243705662
 31
0.0
  0
LINE
  5
3698
  8
0
 10
120.57263322699291
 20
68.304575498313923
 30
0.0
 11
118.38263322699289
 21
68.304575498313923
 31
0.0
  0
LINE
  5
3699
  8
0
 10
120.57263322699291
 20
67.802337237410669
 30
0.0
 11
118.38263322699289
 21
67.802337237410669
 31
0.0
  0
LINE
  5
369A
  8
0
 10
120.57263322699291
 20
67.405036088482419
 30
0.0
 11
118.38263322699289
 21
67.405036088482419
 31
0.0
  0
LINE
  5
369B
  8
0
 10
120.57263322699291
 20
67.117024966057514
 30
0.0
 11
118.38263322699289
 21
67.117024966057514
 31
0.0
  0
LINE
  5
369C
  8
0
 10
120.57263322699291
 20
66.941459380263453
 30
0.0
 11
118.38263322699289
 21
66.941459380263453
 31
0.0
  0
POLYLINE
  5
369D
  8
0
 66
     1
 10
0.0
 20
0.0
 30
0.0
  0
VERTEX
  5
441C
  8
0
 10
121.07263322699291
 20
71.117310217437051
 30
0.0
  0
VERTEX
  5
441D
  8
0
 10
120.9924170854831
 20
71.127555253794284
 30
0.0
  0
VERTEX
  5
441E
  8
0
 10
120.82828948253071
 20
71.148290841618007
 30
0.0
  0
VERTEX
  5
441F
  8
0
 10
120.6591348678743
 20
71.169366451697186
 30
0.0
  0
VERTEX
  5
4420
  8
0
 10
120.57263322699291
 20
71.180036633209966
 30
0.0
  0
SEQEND
  5
4421
  8
0
  0
POLYLINE
  5
369E
  8
0
 66
     1
 10
0.0
 20
0.0
 30
0.0
  0
VERTEX
  5
4422
  8
0
 10
120.5781114498503
 20
87.874649494285947
 30
0.0
  0
VERTEX
  5
4423
  8
0
 10
120.6636324934011
 20
87.788562857787028
 30
0.0
  0
VERTEX
  5
4424
  8
0
 10
120.8309084887903
 20
87.618501920854342
 30
0.0
  0
VERTEX
  5
4425
  8
0
 10
120.9932642003275
 20
87.451154897651207
 30
0.0
  0
VERTEX
  5
4426
  8
0
 10
121.07263322699291
 20
87.368461569872849
 30
0.0
  0
SEQEND
  5
4427
  8
0
  0
LINE
  5
369F
  8
0
 10
118.38263322699289
 20
87.826301995042797
 30
0.0
 11
118.38263322699289
 21
87.880127756915755
 31
0.0
  0
LINE
  5
36A0
  8
0
 10
118.38263322699289
 20
87.658009322952879
 30
0.0
 11
118.38263322699289
 21
87.818948515073274
 31
0.0
  0
LINE
  5
36A1
  8
0
 10
118.38263322699289
 20
87.377110864402212
 30
0.0
 11
118.38263322699289
 21
87.643382929279227
 31
0.0
  0
LINE
  5
36A2
  8
0
 10
118.38263322699289
 20
86.986684201684568
 30
0.0
 11
118.38263322699289
 21
87.355371806854308
 31
0.0
  0
LINE
  5
36A3
  8
0
 10
118.38263322699289
 20
86.491006931018731
 30
0.0
 11
118.38263322699289
 21
86.958070657926044
 31
0.0
  0
LINE
  5
36A4
  8
0
 10
118.38263322699289
 20
85.895509796309241
 30
0.0
 11
118.38263322699289
 21
86.455832397022803
 31
0.0
  0
LINE
  5
36A5
  8
0
 10
118.38263322699289
 20
85.206717188779649
 30
0.0
 11
118.38263322699289
 21
85.854159651631065
 31
0.0
  0
LINE
  5
36A6
  8
0
 10
118.38263322699289
 20
84.43217566437734
 30
0.0
 11
118.38263322699289
 21
85.159644474257462
 31
0.0
  0
LINE
  5
36A7
  8
0
 10
118.38263322699289
 20
83.580371262126747
 30
0.0
 11
118.38263322699289
 21
84.379896118521984
 31
0.0
  0
LINE
  5
36A8
  8
0
 10
118.38263322699289
 20
82.660636529310537
 30
0.0
 11
118.38263322699289
 21
83.523457670582857
 31
0.0
  0
LINE
  5
36A9
  8
0
 10
118.38263322699289
 20
81.683048272128318
 30
0.0
 11
118.38263322699289
 21
82.599712449296987
 31
0.0
  0
LINE
  5
36AA
  8
0
 10
118.38263322699289
 20
80.658317152099201
 30
0.0
 11
118.38263322699289
 21
81.618781200614933
 31
0.0
  0
LINE
  5
36AB
  8
0
 10
118.38263322699289
 20
79.597670337813113
 30
0.0
 11
118.38263322699289
 21
80.591411212570236
 31
0.0
  0
LINE
  5
36AC
  8
0
 10
118.38263322699289
 20
78.512728497721881
 30
0.0
 11
118.38263322699289
 21
79.528858565742965
 31
0.0
  0
LINE
  5
36AD
  8
0
 10
118.38263322699289
 20
77.415378481664291
 30
0.0
 11
118.38263322699289
 21
78.442764809285237
 31
0.0
  0
LINE
  5
36AE
  8
0
 10
118.38263322699289
 20
76.317643086051476
 30
0.0
 11
118.38263322699289
 21
77.345029413672435
 31
0.0
  0
LINE
  5
36AF
  8
0
 10
118.38263322699289
 20
75.231549329593761
 30
0.0
 11
118.38263322699289
 21
76.247679397614846
 31
0.0
  0
LINE
  5
36B0
  8
0
 10
118.38263322699289
 20
74.16899668276649
 30
0.0
 11
118.38263322699289
 21
75.162737557523613
 31
0.0
  0
LINE
  5
36B1
  8
0
 10
118.38263322699289
 20
73.141626694721779
 30
0.0
 11
118.38263322699289
 21
74.102090743237525
 31
0.0
  0
LINE
  5
36B2
  8
0
 10
118.38263322699289
 20
72.160695446039725
 30
0.0
 11
118.38263322699289
 21
73.077359623208395
 31
0.0
  0
LINE
  5
36B3
  8
0
 10
118.38263322699289
 20
71.236950224753869
 30
0.0
 11
118.38263322699289
 21
72.099771366026189
 31
0.0
  0
LINE
  5
36B4
  8
0
 10
118.38263322699289
 20
70.380511776814743
 30
0.0
 11
118.38263322699289
 21
71.180036633209966
 31
0.0
  0
LINE
  5
36B5
  8
0
 10
118.38263322699289
 20
69.600763421079265
 30
0.0
 11
118.38263322699289
 21
70.328232230959387
 31
0.0
  0
LINE
  5
36B6
  8
0
 10
118.38263322699289
 20
66.880262864397551
 30
0.0
 11
118.38263322699289
 21
70.337420407050345
 31
0.0
  0
LINE
  5
36B7
  8
0
 10
118.38263322699289
 20
66.880262864397551
 30
0.0
 11
118.38263322699289
 21
66.934105900293915
 31
0.0
  0
LINE
  5
36B8
  8
0
 10
120.57263322699291
 20
87.880127756915755
 30
0.0
 11
120.57811144886681
 21
87.874649493302528
 31
0.0
  0
LINE
  5
36B9
  8
0
 10
120.5781114498503
 20
87.874649494285975
 30
0.0
 11
118.38263322699289
 21
87.874649494285975
 31
0.0
  0
POLYLINE
  5
36BA
  8
0
 66
     1
 10
0.0
 20
0.0
 30
0.0
  0
VERTEX
  5
4428
  8
0
 10
120.57263322699291
 20
87.818948515073288
 30
0.0
  0
VERTEX
  5
4429
  8
0
 10
120.6591348678742
 20
87.724395675621253
 30
0.0
  0
VERTEX
  5
442A
  8
0
 10
120.82828948253071
 20
87.537636080783599
 30
0.0
  0
VERTEX
  5
442B
  8
0
 10
120.9924170854832
 20
87.353889562123769
 30
0.0
  0
VERTEX
  5
442C
  8
0
 10
121.07263322699291
 20
87.263104107658535
 30
0.0
  0
SEQEND
  5
442D
  8
0
  0
LINE
  5
36BB
  8
0
 10
118.38263322699289
 20
87.818948515073274
 30
0.0
 11
120.57263322699291
 21
87.818948515073274
 31
0.0
  0
POLYLINE
  5
36BC
  8
0
 66
     1
 10
0.0
 20
0.0
 30
0.0
  0
VERTEX
  5
442E
  8
0
 10
120.57263322699291
 20
87.643382929279198
 30
0.0
  0
VERTEX
  5
442F
  8
0
 10
120.6591348678744
 20
87.542353959132669
 30
0.0
  0
VERTEX
  5
4430
  8
0
 10
120.82828948253071
 20
87.342802791333455
 30
0.0
  0
VERTEX
  5
4431
  8
0
 10
120.9924170854831
 20
87.146471071886907
 30
0.0
  0
VERTEX
  5
4432
  8
0
 10
121.07263322699291
 20
87.049467523161567
 30
0.0
  0
SEQEND
  5
4433
  8
0
  0
LINE
  5
36BD
  8
0
 10
118.38263322699289
 20
87.643382929279227
 30
0.0
 11
120.57263322699291
 21
87.643382929279227
 31
0.0
  0
POLYLINE
  5
36BE
  8
0
 66
     1
 10
0.0
 20
0.0
 30
0.0
  0
VERTEX
  5
4434
  8
0
 10
120.57263322699291
 20
87.355371806854293
 30
0.0
  0
VERTEX
  5
4435
  8
0
 10
120.6591348678742
 20
87.248973600552205
 30
0.0
  0
VERTEX
  5
4436
  8
0
 10
120.82828948253071
 20
87.038817184144321
 30
0.0
  0
VERTEX
  5
4437
  8
0
 10
120.9924170854832
 20
86.832051315314075
 30
0.0
  0
VERTEX
  5
4438
  8
0
 10
121.07263322699291
 20
86.729892463507994
 30
0.0
  0
SEQEND
  5
4439
  8
0
  0
LINE
  5
36BF
  8
0
 10
118.38263322699289
 20
87.355371806854308
 30
0.0
 11
120.57263322699291
 21
87.355371806854308
 31
0.0
  0
POLYLINE
  5
36C0
  8
0
 66
     1
 10
0.0
 20
0.0
 30
0.0
  0
VERTEX
  5
443A
  8
0
 10
120.57263322699291
 20
86.958070657926072
 30
0.0
  0
VERTEX
  5
443B
  8
0
 10
120.6591348678743
 20
86.847468936481675
 30
0.0
  0
VERTEX
  5
443C
  8
0
 10
120.82828948253071
 20
86.629009789141463
 30
0.0
  0
VERTEX
  5
443D
  8
0
 10
120.9924170854832
 20
86.414075141055207
 30
0.0
  0
VERTEX
  5
443E
  8
0
 10
121.07263322699291
 20
86.307880259926776
 30
0.0
  0
SEQEND
  5
443F
  8
0
  0
LINE
  5
36C1
  8
0
 10
118.38263322699289
 20
86.958070657926044
 30
0.0
 11
120.57263322699291
 21
86.958070657926044
 31
0.0
  0
POLYLINE
  5
36C2
  8
0
 66
     1
 10
0.0
 20
0.0
 30
0.0
  0
VERTEX
  5
4440
  8
0
 10
120.57263322699291
 20
86.455832397022803
 30
0.0
  0
VERTEX
  5
4441
  8
0
 10
120.6591348678743
 20
86.342238936041184
 30
0.0
  0
VERTEX
  5
4442
  8
0
 10
120.82828948253059
 20
86.117870541902576
 30
0.0
  0
VERTEX
  5
4443
  8
0
 10
120.9924170854831
 20
85.897121983542675
 30
0.0
  0
VERTEX
  5
4444
  8
0
 10
121.07263322699291
 20
85.788054566432066
 30
0.0
  0
SEQEND
  5
4445
  8
0
  0
LINE
  5
36C3
  8
0
 10
118.38263322699289
 20
86.455832397022803
 30
0.0
 11
120.57263322699291
 21
86.455832397022803
 31
0.0
  0
POLYLINE
  5
36C4
  8
0
 66
     1
 10
0.0
 20
0.0
 30
0.0
  0
VERTEX
  5
4446
  8
0
 10
120.57263322699291
 20
85.854159651631065
 30
0.0
  0
VERTEX
  5
4447
  8
0
 10
120.6591348678744
 20
85.738819004841602
 30
0.0
  0
VERTEX
  5
4448
  8
0
 10
120.82828948253071
 20
85.510999590982692
 30
0.0
  0
VERTEX
  5
4449
  8
0
 10
120.9924170854831
 20
85.286855689749217
 30
0.0
  0
VERTEX
  5
444A
  8
0
 10
121.07263322699291
 20
85.176110702102335
 30
0.0
  0
SEQEND
  5
444B
  8
0
  0
LINE
  5
36C5
  8
0
 10
118.38263322699289
 20
85.854159651631065
 30
0.0
 11
120.57263322699291
 21
85.854159651631065
 31
0.0
  0
POLYLINE
  5
36C6
  8
0
 66
     1
 10
0.0
 20
0.0
 30
0.0
  0
VERTEX
  5
444C
  8
0
 10
120.57263322699291
 20
85.159644474257462
 30
0.0
  0
VERTEX
  5
444D
  8
0
 10
120.6591348678744
 20
85.043820337923123
 30
0.0
  0
VERTEX
  5
444E
  8
0
 10
120.82828948253071
 20
84.815045941516445
 30
0.0
  0
VERTEX
  5
444F
  8
0
 10
120.9924170854831
 20
84.589962464896288
 30
0.0
  0
VERTEX
  5
4450
  8
0
 10
121.07263322699291
 20
84.478753251972677
 30
0.0
  0
SEQEND
  5
4451
  8
0
  0
LINE
  5
36C7
  8
0
 10
118.38263322699289
 20
84.422987488286324
 30
0.0
 11
118.38263322699289
 21
87.874649494285975
 31
0.0
  0
LINE
  5
36C8
  8
0
 10
118.38263322699289
 20
85.159644474257462
 30
0.0
 11
120.57263322699291
 21
85.159644474257462
 31
0.0
  0
POLYLINE
  5
36C9
  8
0
 66
     1
 10
0.0
 20
0.0
 30
0.0
  0
VERTEX
  5
4452
  8
0
 10
120.57263322699291
 20
84.379896118521984
 30
0.0
  0
VERTEX
  5
4453
  8
0
 10
120.6591348678743
 20
84.264857486118203
 30
0.0
  0
VERTEX
  5
4454
  8
0
 10
120.82828948253071
 20
84.037634607324904
 30
0.0
  0
VERTEX
  5
4455
  8
0
 10
120.9924170854831
 20
83.814077616989664
 30
0.0
  0
VERTEX
  5
4456
  8
0
 10
121.07263322699291
 20
83.703622610198096
 30
0.0
  0
SEQEND
  5
4457
  8
0
  0
LINE
  5
36CA
  8
0
 10
121.07263322699291
 20
83.648235042524746
 30
0.0
 11
118.38263322699289
 21
83.648235042524746
 31
0.0
  0
LINE
  5
36CB
  8
0
 10
118.38263322699289
 20
84.379896118521984
 30
0.0
 11
120.57263322699291
 21
84.379896118521984
 31
0.0
  0
POLYLINE
  5
36CC
  8
0
 66
     1
 10
0.0
 20
0.0
 30
0.0
  0
VERTEX
  5
4458
  8
0
 10
120.57263322699291
 20
83.523457670582857
 30
0.0
  0
VERTEX
  5
4459
  8
0
 10
120.6591348678742
 20
83.410464929439726
 30
0.0
  0
VERTEX
  5
445A
  8
0
 10
120.82828948253071
 20
83.187283069669277
 30
0.0
  0
VERTEX
  5
445B
  8
0
 10
120.9924170854832
 20
82.967701902787297
 30
0.0
  0
VERTEX
  5
445C
  8
0
 10
121.07263322699291
 20
82.859211270296427
 30
0.0
  0
SEQEND
  5
445D
  8
0
  0
LINE
  5
36CD
  8
0
 10
121.07263322699291
 20
82.804808736418025
 30
0.0
 11
118.38263322699289
 21
82.804808736418025
 31
0.0
  0
LINE
  5
36CE
  8
0
 10
118.38263322699289
 20
83.523457670582857
 30
0.0
 11
120.57263322699291
 21
83.523457670582857
 31
0.0
  0
POLYLINE
  5
36CF
  8
0
 66
     1
 10
0.0
 20
0.0
 30
0.0
  0
VERTEX
  5
445E
  8
0
 10
120.57263322699291
 20
82.599712449296987
 30
0.0
  0
VERTEX
  5
445F
  8
0
 10
120.6591348678744
 20
82.490003571531432
 30
0.0
  0
VERTEX
  5
4460
  8
0
 10
120.82828948253081
 20
82.273307957943345
 30
0.0
  0
VERTEX
  5
4461
  8
0
 10
120.9924170854832
 20
82.060108391729557
 30
0.0
  0
VERTEX
  5
4462
  8
0
 10
121.07263322699291
 20
81.954770779612048
 30
0.0
  0
SEQEND
  5
4463
  8
0
  0
LINE
  5
36D0
  8
0
 10
121.07263322699291
 20
81.901949325074213
 30
0.0
 11
118.38263322699289
 21
81.901949325074213
 31
0.0
  0
LINE
  5
36D1
  8
0
 10
118.38263322699289
 20
82.599712449296987
 30
0.0
 11
120.57263322699291
 21
82.599712449296987
 31
0.0
  0
POLYLINE
  5
36D2
  8
0
 66
     1
 10
0.0
 20
0.0
 30
0.0
  0
VERTEX
  5
4464
  8
0
 10
120.57263322699291
 20
81.618781200614919
 30
0.0
  0
VERTEX
  5
4465
  8
0
 10
120.6591348678742
 20
81.513558179650104
 30
0.0
  0
VERTEX
  5
4466
  8
0
 10
120.82828948253059
 20
81.305722974733371
 30
0.0
  0
VERTEX
  5
4467
  8
0
 10
120.9924170854831
 20
81.101240868249775
 30
0.0
  0
VERTEX
  5
4468
  8
0
 10
121.07263322699291
 20
81.000210377427237
 30
0.0
  0
SEQEND
  5
4469
  8
0
  0
LINE
  5
36D3
  8
0
 10
121.07263322699291
 20
80.949548725139564
 30
0.0
 11
118.38263322699289
 21
80.949548725139564
 31
0.0
  0
LINE
  5
36D4
  8
0
 10
118.38263322699289
 20
81.618781200614933
 30
0.0
 11
120.57263322699291
 21
81.618781200614933
 31
0.0
  0
POLYLINE
  5
36D5
  8
0
 66
     1
 10
0.0
 20
0.0
 30
0.0
  0
VERTEX
  5
446A
  8
0
 10
120.57263322699291
 20
80.591411212570236
 30
0.0
  0
VERTEX
  5
446B
  8
0
 10
120.6591348678744
 20
80.491826893842912
 30
0.0
  0
VERTEX
  5
446C
  8
0
 10
120.82828948253071
 20
80.295129183594909
 30
0.0
  0
VERTEX
  5
446D
  8
0
 10
120.9924170854831
 20
80.101604885591087
 30
0.0
  0
VERTEX
  5
446E
  8
0
 10
121.07263322699291
 20
80.005988427262935
 30
0.0
  0
SEQEND
  5
446F
  8
0
  0
LINE
  5
36D6
  8
0
 10
121.07263322699291
 20
79.958041636889462
 30
0.0
 11
118.38263322699289
 21
79.958041636889462
 31
0.0
  0
LINE
  5
36D7
  8
0
 10
118.38263322699289
 20
80.591411212570236
 30
0.0
 11
120.57263322699291
 21
80.591411212570236
 31
0.0
  0
POLYLINE
  5
36D8
  8
0
 66
     1
 10
0.0
 20
0.0
 30
0.0
  0
VERTEX
  5
4470
  8
0
 10
120.57263322699291
 20
79.528858565742993
 30
0.0
  0
VERTEX
  5
4471
  8
0
 10
120.6591348678743
 20
79.43600401588867
 30
0.0
  0
VERTEX
  5
4472
  8
0
 10
120.82828948253071
 20
79.252598861584417
 30
0.0
  0
VERTEX
  5
4473
  8
0
 10
120.9924170854831
 20
79.072152664766634
 30
0.0
  0
VERTEX
  5
4474
  8
0
 10
121.07263322699291
 20
78.982997832859482
 30
0.0
  0
SEQEND
  5
4475
  8
0
  0
LINE
  5
36D9
  8
0
 10
121.07263322699291
 20
78.938291219469036
 30
0.0
 11
118.38263322699289
 21
78.938291219469036
 31
0.0
  0
LINE
  5
36DA
  8
0
 10
118.38263322699289
 20
79.528858565742965
 30
0.0
 11
120.57263322699291
 21
79.528858565742965
 31
0.0
  0
POLYLINE
  5
36DB
  8
0
 66
     1
 10
0.0
 20
0.0
 30
0.0
  0
VERTEX
  5
4476
  8
0
 10
120.57263322699291
 20
78.442764809285194
 30
0.0
  0
VERTEX
  5
4477
  8
0
 10
120.6591348678742
 20
78.357657362183204
 30
0.0
  0
VERTEX
  5
4478
  8
0
 10
120.82828948253059
 20
78.18955418907332
 30
0.0
  0
VERTEX
  5
4479
  8
0
 10
120.9924170854831
 20
78.024163099734693
 30
0.0
  0
VERTEX
  5
447A
  8
0
 10
121.07263322699291
 20
77.942446693243681
 30
0.0
  0
SEQEND
  5
447B
  8
0
  0
LINE
  5
36DC
  8
0
 10
121.07263322699291
 20
77.901470071848067
 30
0.0
 11
118.38263322699289
 21
77.901470071848067
 31
0.0
  0
LINE
  5
36DD
  8
0
 10
118.38263322699289
 20
78.44276480928518
 30
0.0
 11
120.57263322699291
 21
78.44276480928518
 31
0.0
  0
POLYLINE
  5
36DE
  8
0
 66
     1
 10
0.0
 20
0.0
 30
0.0
  0
VERTEX
  5
447C
  8
0
 10
120.57263322699291
 20
77.345029413672407
 30
0.0
  0
VERTEX
  5
447D
  8
0
 10
120.6591348678743
 20
77.268601524322875
 30
0.0
  0
VERTEX
  5
447E
  8
0
 10
120.82828948253071
 20
77.117642105949727
 30
0.0
  0
VERTEX
  5
447F
  8
0
 10
120.9924170854832
 20
76.969118183475544
 30
0.0
  0
VERTEX
  5
4480
  8
0
 10
121.07263322699291
 20
76.895735504450499
 30
0.0
  0
SEQEND
  5
4481
  8
0
  0
LINE
  5
36DF
  8
0
 10
121.07263322699291
 20
76.85893782348866
 30
0.0
 11
118.38263322699289
 21
76.85893782348866
 31
0.0
  0
LINE
  5
36E0
  8
0
 10
118.38263322699289
 20
77.345029413672435
 30
0.0
 11
120.57263322699291
 21
77.345029413672435
 31
0.0
  0
POLYLINE
  5
36E1
  8
0
 66
     1
 10
0.0
 20
0.0
 30
0.0
  0
VERTEX
  5
4482
  8
0
 10
120.57263322699291
 20
76.247679397614817
 30
0.0
  0
VERTEX
  5
4483
  8
0
 10
120.6591348678743
 20
76.180768425967059
 30
0.0
  0
VERTEX
  5
4484
  8
0
 10
120.82828948253071
 20
76.048606705308757
 30
0.0
  0
VERTEX
  5
4485
  8
0
 10
120.9924170854831
 20
75.918577208874225
 30
0.0
  0
VERTEX
  5
4486
  8
0
 10
121.07263322699291
 20
75.854332253302758
 30
0.0
  0
SEQEND
  5
4487
  8
0
  0
LINE
  5
36E2
  8
0
 10
121.07263322699291
 20
75.82211667586769
 30
0.0
 11
118.38263322699289
 21
75.82211667586769
 31
0.0
  0
LINE
  5
36E3
  8
0
 10
118.38263322699289
 20
76.247679397614846
 30
0.0
 11
120.57263322699291
 21
76.247679397614846
 31
0.0
  0
POLYLINE
  5
36E4
  8
0
 66
     1
 10
0.0
 20
0.0
 30
0.0
  0
VERTEX
  5
4488
  8
0
 10
120.57263322699291
 20
75.162737557523613
 30
0.0
  0
VERTEX
  5
4489
  8
0
 10
120.6591348678744
 20
75.106076594185055
 30
0.0
  0
VERTEX
  5
448A
  8
0
 10
120.82828948253071
 20
74.994160562709695
 30
0.0
  0
VERTEX
  5
448B
  8
0
 10
120.9924170854831
 20
74.884050122688123
 30
0.0
  0
VERTEX
  5
448C
  8
0
 10
121.07263322699291
 20
74.829646771747662
 30
0.0
  0
SEQEND
  5
448D
  8
0
  0
LINE
  5
36E5
  8
0
 10
121.07263322699291
 20
74.802366258447265
 30
0.0
 11
118.38263322699289
 21
74.802366258447265
 31
0.0
  0
LINE
  5
36E6
  8
0
 10
118.38263322699289
 20
75.162737557523613
 30
0.0
 11
120.57263322699291
 21
75.162737557523613
 31
0.0
  0
POLYLINE
  5
36E7
  8
0
 66
     1
 10
0.0
 20
0.0
 30
0.0
  0
VERTEX
  5
448E
  8
0
 10
120.57263322699291
 20
74.102090743237497
 30
0.0
  0
VERTEX
  5
448F
  8
0
 10
120.6591348678744
 20
74.056300577579563
 30
0.0
  0
VERTEX
  5
4490
  8
0
 10
120.82828948253071
 20
73.965856410747918
 30
0.0
  0
VERTEX
  5
4491
  8
0
 10
120.9924170854831
 20
73.876871420162303
 30
0.0
  0
VERTEX
  5
4492
  8
0
 10
121.07263322699291
 20
73.832905728350354
 30
0.0
  0
SEQEND
  5
4493
  8
0
  0
LINE
  5
36E8
  8
0
 10
121.07263322699291
 20
73.810859170197162
 30
0.0
 11
118.38263322699289
 21
73.810859170197162
 31
0.0
  0
LINE
  5
36E9
  8
0
 10
118.38263322699289
 20
74.102090743237525
 30
0.0
 11
120.57263322699291
 21
74.102090743237525
 31
0.0
  0
POLYLINE
  5
36EA
  8
0
 66
     1
 10
0.0
 20
0.0
 30
0.0
  0
VERTEX
  5
4494
  8
0
 10
120.57263322699291
 20
73.077359623208395
 30
0.0
  0
VERTEX
  5
4495
  8
0
 10
120.6591348678744
 20
73.042941941868278
 30
0.0
  0
VERTEX
  5
4496
  8
0
 10
120.82828948253071
 20
72.974960564898836
 30
0.0
  0
VERTEX
  5
4497
  8
0
 10
120.9924170854831
 20
72.908075961927295
 30
0.0
  0
VERTEX
  5
4498
  8
0
 10
121.07263322699291
 20
72.875029626563773
 30
0.0
  0
SEQEND
  5
4499
  8
0
  0
LINE
  5
36EB
  8
0
 10
121.07263322699291
 20
72.858458570262499
 30
0.0
 11
118.38263322699289
 21
72.858458570262499
 31
0.0
  0
LINE
  5
36EC
  8
0
 10
118.38263322699289
 20
73.077359623208395
 30
0.0
 11
120.57263322699291
 21
73.077359623208395
 31
0.0
  0
POLYLINE
  5
36ED
  8
0
 66
     1
 10
0.0
 20
0.0
 30
0.0
  0
VERTEX
  5
449A
  8
0
 10
120.57263322699291
 20
72.099771366026189
 30
0.0
  0
VERTEX
  5
449B
  8
0
 10
120.6591348678744
 20
72.077103256322957
 30
0.0
  0
VERTEX
  5
449C
  8
0
 10
120.82828948253071
 20
72.032329487407765
 30
0.0
  0
VERTEX
  5
449D
  8
0
 10
120.9924170854831
 20
71.988278073756973
 30
0.0
  0
VERTEX
  5
449E
  8
0
 10
121.07263322699291
 20
71.966513157407562
 30
0.0
  0
SEQEND
  5
449F
  8
0
  0
LINE
  5
36EE
  8
0
 10
121.07263322699291
 20
71.955599158918702
 30
0.0
 11
118.38263322699289
 21
71.955599158918702
 31
0.0
  0
LINE
  5
36EF
  8
0
 10
118.38263322699289
 20
72.099771366026189
 30
0.0
 11
120.57263322699291
 21
72.099771366026189
 31
0.0
  0
POLYLINE
  5
36F0
  8
0
 66
     1
 10
0.0
 20
0.0
 30
0.0
  0
VERTEX
  5
44A0
  8
0
 10
120.57263322699291
 20
71.180036633209966
 30
0.0
  0
VERTEX
  5
44A1
  8
0
 10
120.6591348678743
 20
71.169366451697201
 30
0.0
  0
VERTEX
  5
44A2
  8
0
 10
120.82828948253071
 20
71.148290841618021
 30
0.0
  0
VERTEX
  5
44A3
  8
0
 10
120.9924170854831
 20
71.127555253794284
 30
0.0
  0
VERTEX
  5
44A4
  8
0
 10
121.07263322699291
 20
71.117310217437065
 30
0.0
  0
SEQEND
  5
44A5
  8
0
  0
LINE
  5
36F1
  8
0
 10
121.07263322699291
 20
71.11217285281198
 30
0.0
 11
118.38263322699289
 21
71.11217285281198
 31
0.0
  0
LINE
  5
36F2
  8
0
 10
118.38263322699289
 20
71.180036633209966
 30
0.0
 11
120.57263322699291
 21
71.180036633209966
 31
0.0
  0
POLYLINE
  5
36F3
  8
0
 66
     1
 10
0.0
 20
0.0
 30
0.0
  0
VERTEX
  5
44A6
  8
0
 10
120.57263322699291
 20
70.328232230959415
 30
0.0
  0
VERTEX
  5
44A7
  8
0
 10
120.6591348678744
 20
70.329676882378578
 30
0.0
  0
VERTEX
  5
44A8
  8
0
 10
120.82828948253071
 20
70.332530339929804
 30
0.0
  0
VERTEX
  5
44A9
  8
0
 10
120.9924170854831
 20
70.335337761372529
 30
0.0
  0
VERTEX
  5
44AA
  8
0
 10
121.07263322699291
 20
70.336724851769745
 30
0.0
  0
SEQEND
  5
44AB
  8
0
  0
LINE
  5
36F4
  8
0
 10
121.07263322699291
 20
70.337420407050345
 30
0.0
 11
118.38263322699289
 21
70.337420407050345
 31
0.0
  0
LINE
  5
36F5
  8
0
 10
118.38263322699289
 20
70.328232230959387
 30
0.0
 11
120.57263322699291
 21
70.328232230959387
 31
0.0
  0
POLYLINE
  5
36F6
  8
0
 66
     1
 10
0.0
 20
0.0
 30
0.0
  0
VERTEX
  5
44AC
  8
0
 10
120.57263322699291
 20
69.553690706557049
 30
0.0
  0
VERTEX
  5
44AD
  8
0
 10
120.6591348678744
 20
69.567234363004914
 30
0.0
  0
VERTEX
  5
44AE
  8
0
 10
120.82828948253081
 20
69.593985625108502
 30
0.0
  0
VERTEX
  5
44AF
  8
0
 10
120.9924170854832
 20
69.620305297120865
 30
0.0
  0
VERTEX
  5
44B0
  8
0
 10
121.07263322699291
 20
69.633309317019851
 30
0.0
  0
SEQEND
  5
44B1
  8
0
  0
LINE
  5
36F7
  8
0
 10
121.07263322699291
 20
69.639830171556937
 30
0.0
 11
118.38263322699289
 21
69.639830171556937
 31
0.0
  0
LINE
  5
36F8
  8
0
 10
118.38263322699289
 20
69.55369070655702
 30
0.0
 11
120.57263322699291
 21
69.55369070655702
 31
0.0
  0
POLYLINE
  5
36F9
  8
0
 66
     1
 10
0.0
 20
0.0
 30
0.0
  0
VERTEX
  5
44B2
  8
0
 10
120.57263322699291
 20
68.864898099027499
 30
0.0
  0
VERTEX
  5
44B3
  8
0
 10
120.6591348678743
 20
68.890392373369806
 30
0.0
  0
VERTEX
  5
44B4
  8
0
 10
120.82828948253071
 20
68.940748347600078
 30
0.0
  0
VERTEX
  5
44B5
  8
0
 10
120.9924170854831
 20
68.990291906347792
 30
0.0
  0
VERTEX
  5
44B6
  8
0
 10
121.07263322699291
 20
69.014770380985254
 30
0.0
  0
SEQEND
  5
44B7
  8
0
  0
LINE
  5
36FA
  8
0
 10
121.07263322699291
 20
69.027045090931964
 30
0.0
 11
118.38263322699289
 21
69.027045090931964
 31
0.0
  0
LINE
  5
36FB
  8
0
 10
118.38263322699289
 20
68.864898099027485
 30
0.0
 11
120.57263322699291
 21
68.864898099027485
 31
0.0
  0
POLYLINE
  5
36FC
  8
0
 66
     1
 10
0.0
 20
0.0
 30
0.0
  0
VERTEX
  5
44B8
  8
0
 10
120.57263322699291
 20
68.269400964317967
 30
0.0
  0
VERTEX
  5
44B9
  8
0
 10
120.6591348678742
 20
68.306566535949983
 30
0.0
  0
VERTEX
  5
44BA
  8
0
 10
120.82828948253059
 20
68.379975511715614
 30
0.0
  0
VERTEX
  5
44BB
  8
0
 10
120.9924170854832
 20
68.452200147601388
 30
0.0
  0
VERTEX
  5
44BC
  8
0
 10
121.07263322699291
 20
68.487884885686796
 30
0.0
  0
SEQEND
  5
44BD
  8
0
  0
LINE
  5
36FD
  8
0
 10
121.07263322699291
 20
68.505778966752203
 30
0.0
 11
118.38263322699289
 21
68.505778966752203
 31
0.0
  0
LINE
  5
36FE
  8
0
 10
118.38263322699289
 20
68.269400964317995
 30
0.0
 11
120.57263322699291
 21
68.269400964317995
 31
0.0
  0
POLYLINE
  5
36FF
  8
0
 66
     1
 10
0.0
 20
0.0
 30
0.0
  0
VERTEX
  5
44BE
  8
0
 10
120.57263322699291
 20
67.773723693652116
 30
0.0
  0
VERTEX
  5
44BF
  8
0
 10
120.6591348678742
 20
67.822153368793664
 30
0.0
  0
VERTEX
  5
44C0
  8
0
 10
120.82828948253081
 20
67.917811061994442
 30
0.0
  0
VERTEX
  5
44C1
  8
0
 10
120.9924170854833
 20
68.011925466793514
 30
0.0
  0
VERTEX
  5
44C2
  8
0
 10
121.07263322699291
 20
68.058425498868772
 30
0.0
  0
SEQEND
  5
44C3
  8
0
  0
LINE
  5
3700
  8
0
 10
121.07263322699291
 20
68.081742899756264
 30
0.0
 11
118.38263322699289
 21
68.081742899756264
 31
0.0
  0
LINE
  5
3701
  8
0
 10
118.38263322699289
 20
67.773723693652144
 30
0.0
 11
120.57263322699291
 21
67.773723693652144
 31
0.0
  0
POLYLINE
  5
3702
  8
0
 66
     1
 10
0.0
 20
0.0
 30
0.0
  0
VERTEX
  5
44C4
  8
0
 10
120.57263322699291
 20
67.3832970309345
 30
0.0
  0
VERTEX
  5
44C5
  8
0
 10
120.6591348678743
 20
67.44246020393021
 30
0.0
  0
VERTEX
  5
44C6
  8
0
 10
120.82828948253071
 20
67.559318568861556
 30
0.0
  0
VERTEX
  5
44C7
  8
0
 10
120.9924170854831
 20
67.674291605460226
 30
0.0
  0
VERTEX
  5
44C8
  8
0
 10
121.07263322699291
 20
67.731097467443348
 30
0.0
  0
SEQEND
  5
44C9
  8
0
  0
LINE
  5
3703
  8
0
 10
121.07263322699291
 20
67.759582717829247
 30
0.0
 11
118.38263322699289
 21
67.759582717829247
 31
0.0
  0
LINE
  5
3704
  8
0
 10
118.38263322699289
 20
67.383297030934443
 30
0.0
 11
120.57263322699291
 21
67.383297030934443
 31
0.0
  0
POLYLINE
  5
3705
  8
0
 66
     1
 10
0.0
 20
0.0
 30
0.0
  0
VERTEX
  5
44CA
  8
0
 10
120.57263322699291
 20
67.102398572383876
 30
0.0
  0
VERTEX
  5
44CB
  8
0
 10
120.6591348678743
 20
67.171647039129738
 30
0.0
  0
VERTEX
  5
44CC
  8
0
 10
120.82828948253081
 20
67.308425751091434
 30
0.0
  0
VERTEX
  5
44CD
  8
0
 10
120.9924170854832
 20
67.442997750841059
 30
0.0
  0
VERTEX
  5
44CE
  8
0
 10
121.07263322699291
 20
67.509487065820622
 30
0.0
  0
SEQEND
  5
44CF
  8
0
  0
LINE
  5
3706
  8
0
 10
121.07263322699291
 20
67.542828075340779
 30
0.0
 11
118.38263322699289
 21
67.542828075340779
 31
0.0
  0
LINE
  5
3707
  8
0
 10
118.38263322699289
 20
67.102398572383834
 30
0.0
 11
120.57263322699291
 21
67.102398572383834
 31
0.0
  0
POLYLINE
  5
3708
  8
0
 66
     1
 10
0.0
 20
0.0
 30
0.0
  0
VERTEX
  5
44D0
  8
0
 10
120.57263322699291
 20
66.934105900293915
 30
0.0
  0
VERTEX
  5
44D1
  8
0
 10
120.6591348678742
 20
67.012680960097001
 30
0.0
  0
VERTEX
  5
44D2
  8
0
 10
120.82828948253071
 20
67.167881442897936
 30
0.0
  0
VERTEX
  5
44D3
  8
0
 10
120.9924170854832
 20
67.320578006808333
 30
0.0
  0
VERTEX
  5
44D4
  8
0
 10
121.07263322699291
 20
67.396022303935709
 30
0.0
  0
SEQEND
  5
44D5
  8
0
  0
LINE
  5
3709
  8
0
 10
121.07263322699291
 20
67.433853781512838
 30
0.0
 11
118.38263322699289
 21
67.433853781512838
 31
0.0
  0
LINE
  5
370A
  8
0
 10
118.38263322699289
 20
66.934105900293915
 30
0.0
 11
120.57263322699291
 21
66.934105900293915
 31
0.0
  0
POLYLINE
  5
370B
  8
0
 66
     1
 10
0.0
 20
0.0
 30
0.0
  0
VERTEX
  5
44D6
  8
0
 10
120.57263322699291
 20
66.880262864397551
 30
0.0
  0
VERTEX
  5
44D7
  8
0
 10
120.6591348678743
 20
66.967303632459831
 30
0.0
  0
VERTEX
  5
44D8
  8
0
 10
120.82828948253059
 20
67.139225477132555
 30
0.0
  0
VERTEX
  5
44D9
  8
0
 10
120.992417085483
 20
67.308373629695623
 30
0.0
  0
VERTEX
  5
44DA
  8
0
 10
121.07263322699291
 20
67.391946325463877
 30
0.0
  0
SEQEND
  5
44DB
  8
0
  0
LINE
  5
370C
  8
0
 10
121.07263322699291
 20
67.391946325463849
 30
0.0
 11
121.07263322699291
 21
67.433853781512838
 31
0.0
  0
POLYLINE
  5
370D
  8
0
 66
     1
 10
0.0
 20
0.0
 30
0.0
  0
VERTEX
  5
44DC
  8
0
 10
120.57263322699291
 20
66.941459380263424
 30
0.0
  0
VERTEX
  5
44DD
  8
0
 10
120.6591348678744
 20
67.036012219715573
 30
0.0
  0
VERTEX
  5
44DE
  8
0
 10
120.82828948253071
 20
67.222771814553113
 30
0.0
  0
VERTEX
  5
44DF
  8
0
 10
120.9924170854831
 20
67.406518333212844
 30
0.0
  0
VERTEX
  5
44E0
  8
0
 10
121.07263322699291
 20
67.497303787678192
 30
0.0
  0
SEQEND
  5
44E1
  8
0
  0
LINE
  5
370E
  8
0
 10
121.07263322699291
 20
67.497303787678177
 30
0.0
 11
121.07263322699291
 21
67.542828075340779
 31
0.0
  0
POLYLINE
  5
370F
  8
0
 66
     1
 10
0.0
 20
0.0
 30
0.0
  0
VERTEX
  5
44E2
  8
0
 10
120.57263322699291
 20
67.117024966057514
 30
0.0
  0
VERTEX
  5
44E3
  8
0
 10
120.6591348678742
 20
67.218053936203887
 30
0.0
  0
VERTEX
  5
44E4
  8
0
 10
120.82828948253059
 20
67.417605104003187
 30
0.0
  0
VERTEX
  5
44E5
  8
0
 10
120.9924170854831
 20
67.61393682344989
 30
0.0
  0
VERTEX
  5
44E6
  8
0
 10
121.07263322699291
 20
67.710940372175173
 30
0.0
  0
SEQEND
  5
44E7
  8
0
  0
LINE
  5
3710
  8
0
 10
121.07263322699291
 20
67.710940372175131
 30
0.0
 11
121.07263322699291
 21
67.759582717829247
 31
0.0
  0
POLYLINE
  5
3711
  8
0
 66
     1
 10
0.0
 20
0.0
 30
0.0
  0
VERTEX
  5
44E8
  8
0
 10
120.57263322699291
 20
67.405036088482447
 30
0.0
  0
VERTEX
  5
44E9
  8
0
 10
120.6591348678743
 20
67.511434294784664
 30
0.0
  0
VERTEX
  5
44EA
  8
0
 10
120.82828948253081
 20
67.721590711192533
 30
0.0
  0
VERTEX
  5
44EB
  8
0
 10
120.9924170854832
 20
67.928356580022651
 30
0.0
  0
VERTEX
  5
44EC
  8
0
 10
121.07263322699291
 20
68.030515431828746
 30
0.0
  0
SEQEND
  5
44ED
  8
0
  0
LINE
  5
3712
  8
0
 10
121.07263322699291
 20
68.030515431828761
 30
0.0
 11
121.07263322699291
 21
68.081742899756208
 31
0.0
  0
POLYLINE
  5
3713
  8
0
 66
     1
 10
0.0
 20
0.0
 30
0.0
  0
VERTEX
  5
44EE
  8
0
 10
120.57263322699291
 20
67.802337237410654
 30
0.0
  0
VERTEX
  5
44EF
  8
0
 10
120.6591348678744
 20
67.912938958855193
 30
0.0
  0
VERTEX
  5
44F0
  8
0
 10
120.82828948253071
 20
68.131398106195306
 30
0.0
  0
VERTEX
  5
44F1
  8
0
 10
120.9924170854831
 20
68.34633275428142
 30
0.0
  0
VERTEX
  5
44F2
  8
0
 10
121.07263322699291
 20
68.452527635409965
 30
0.0
  0
SEQEND
  5
44F3
  8
0
  0
LINE
  5
3714
  8
0
 10
121.07263322699291
 20
68.452527635409936
 30
0.0
 11
121.07263322699291
 21
68.505778966752203
 31
0.0
  0
POLYLINE
  5
3715
  8
0
 66
     1
 10
0.0
 20
0.0
 30
0.0
  0
VERTEX
  5
44F4
  8
0
 10
120.57263322699291
 20
68.304575498313923
 30
0.0
  0
VERTEX
  5
44F5
  8
0
 10
120.6591348678743
 20
68.418168959295585
 30
0.0
  0
VERTEX
  5
44F6
  8
0
 10
120.82828948253071
 20
68.642537353434264
 30
0.0
  0
VERTEX
  5
44F7
  8
0
 10
120.9924170854831
 20
68.863285911794136
 30
0.0
  0
VERTEX
  5
44F8
  8
0
 10
121.07263322699291
 20
68.97235332890466
 30
0.0
  0
SEQEND
  5
44F9
  8
0
  0
POLYLINE
  5
3716
  8
0
 66
     1
 10
0.0
 20
0.0
 30
0.0
  0
VERTEX
  5
44FA
  8
0
 10
120.57263322699291
 20
68.906248243705662
 30
0.0
  0
VERTEX
  5
44FB
  8
0
 10
120.6591348678743
 20
69.021588890495039
 30
0.0
  0
VERTEX
  5
44FC
  8
0
 10
120.82828948253071
 20
69.249408304354048
 30
0.0
  0
VERTEX
  5
44FD
  8
0
 10
120.9924170854832
 20
69.473552205587637
 30
0.0
  0
VERTEX
  5
44FE
  8
0
 10
121.07263322699291
 20
69.584297193234363
 30
0.0
  0
SEQEND
  5
44FF
  8
0
  0
POLYLINE
  5
3717
  8
0
 66
     1
 10
0.0
 20
0.0
 30
0.0
  0
VERTEX
  5
4500
  8
0
 10
120.57263322699291
 20
69.600763421079265
 30
0.0
  0
VERTEX
  5
4501
  8
0
 10
120.6591348678742
 20
69.716587557413433
 30
0.0
  0
VERTEX
  5
4502
  8
0
 10
120.82828948253071
 20
69.945361953820225
 30
0.0
  0
VERTEX
  5
4503
  8
0
 10
120.9924170854832
 20
70.170445430440552
 30
0.0
  0
VERTEX
  5
4504
  8
0
 10
121.07263322699291
 20
70.281654643364064
 30
0.0
  0
SEQEND
  5
4505
  8
0
  0
POLYLINE
  5
3718
  8
0
 66
     1
 10
0.0
 20
0.0
 30
0.0
  0
VERTEX
  5
4506
  8
0
 10
120.57263322699291
 20
70.380511776814757
 30
0.0
  0
VERTEX
  5
4507
  8
0
 10
120.6591348678744
 20
70.495550409218694
 30
0.0
  0
VERTEX
  5
4508
  8
0
 10
120.82828948253071
 20
70.722773288011823
 30
0.0
  0
VERTEX
  5
4509
  8
0
 10
120.992417085483
 20
70.94633027834692
 30
0.0
  0
VERTEX
  5
450A
  8
0
 10
121.07263322699291
 20
71.056785285138645
 30
0.0
  0
SEQEND
  5
450B
  8
0
  0
POLYLINE
  5
3719
  8
0
 66
     1
 10
0.0
 20
0.0
 30
0.0
  0
VERTEX
  5
450C
  8
0
 10
120.57263322699291
 20
71.236950224753883
 30
0.0
  0
VERTEX
  5
450D
  8
0
 10
120.6591348678744
 20
71.349942965897228
 30
0.0
  0
VERTEX
  5
450E
  8
0
 10
120.82828948253071
 20
71.573124825667577
 30
0.0
  0
VERTEX
  5
450F
  8
0
 10
120.9924170854831
 20
71.792705992549358
 30
0.0
  0
VERTEX
  5
4510
  8
0
 10
121.07263322699291
 20
71.901196625040313
 30
0.0
  0
SEQEND
  5
4511
  8
0
  0
POLYLINE
  5
371A
  8
0
 66
     1
 10
0.0
 20
0.0
 30
0.0
  0
VERTEX
  5
4512
  8
0
 10
120.57263322699291
 20
72.160695446039739
 30
0.0
  0
VERTEX
  5
4513
  8
0
 10
120.6591348678744
 20
72.270404323805352
 30
0.0
  0
VERTEX
  5
4514
  8
0
 10
120.82828948253071
 20
72.48709993739331
 30
0.0
  0
VERTEX
  5
4515
  8
0
 10
120.9924170854831
 20
72.700299503607056
 30
0.0
  0
VERTEX
  5
4516
  8
0
 10
121.07263322699291
 20
72.805637115724707
 30
0.0
  0
SEQEND
  5
4517
  8
0
  0
POLYLINE
  5
371B
  8
0
 66
     1
 10
0.0
 20
0.0
 30
0.0
  0
VERTEX
  5
4518
  8
0
 10
120.57263322699291
 20
73.141626694721822
 30
0.0
  0
VERTEX
  5
4519
  8
0
 10
120.6591348678744
 20
73.246849715686764
 30
0.0
  0
VERTEX
  5
451A
  8
0
 10
120.82828948253081
 20
73.454684920603583
 30
0.0
  0
VERTEX
  5
451B
  8
0
 10
120.9924170854832
 20
73.659167027087051
 30
0.0
  0
VERTEX
  5
451C
  8
0
 10
121.07263322699291
 20
73.760197517909504
 30
0.0
  0
SEQEND
  5
451D
  8
0
  0
POLYLINE
  5
371C
  8
0
 66
     1
 10
0.0
 20
0.0
 30
0.0
  0
VERTEX
  5
451E
  8
0
 10
120.57263322699291
 20
74.16899668276649
 30
0.0
  0
VERTEX
  5
451F
  8
0
 10
120.6591348678744
 20
74.268581001493857
 30
0.0
  0
VERTEX
  5
4520
  8
0
 10
120.82828948253071
 20
74.465278711741846
 30
0.0
  0
VERTEX
  5
4521
  8
0
 10
120.9924170854831
 20
74.658803009745654
 30
0.0
  0
VERTEX
  5
4522
  8
0
 10
121.07263322699291
 20
74.754419468073806
 30
0.0
  0
SEQEND
  5
4523
  8
0
  0
POLYLINE
  5
371D
  8
0
 66
     1
 10
0.0
 20
0.0
 30
0.0
  0
VERTEX
  5
4524
  8
0
 10
120.57263322699291
 20
75.231549329593761
 30
0.0
  0
VERTEX
  5
4525
  8
0
 10
120.6591348678743
 20
75.324403879448127
 30
0.0
  0
VERTEX
  5
4526
  8
0
 10
120.82828948253071
 20
75.507809033752324
 30
0.0
  0
VERTEX
  5
4527
  8
0
 10
120.9924170854831
 20
75.688255230570064
 30
0.0
  0
VERTEX
  5
4528
  8
0
 10
121.07263322699291
 20
75.777410062477259
 30
0.0
  0
SEQEND
  5
4529
  8
0
  0
POLYLINE
  5
371E
  8
0
 66
     1
 10
0.0
 20
0.0
 30
0.0
  0
VERTEX
  5
452A
  8
0
 10
120.57263322699291
 20
76.317643086051518
 30
0.0
  0
VERTEX
  5
452B
  8
0
 10
120.6591348678742
 20
76.402750533153508
 30
0.0
  0
VERTEX
  5
452C
  8
0
 10
120.82828948253059
 20
76.570853706263406
 30
0.0
  0
VERTEX
  5
452D
  8
0
 10
120.9924170854831
 20
76.736244795602047
 30
0.0
  0
VERTEX
  5
452E
  8
0
 10
121.07263322699291
 20
76.817961202093045
 30
0.0
  0
SEQEND
  5
452F
  8
0
  0
POLYLINE
  5
371F
  8
0
 66
     1
 10
0.0
 20
0.0
 30
0.0
  0
VERTEX
  5
4530
  8
0
 10
120.57263322699291
 20
77.415378481664334
 30
0.0
  0
VERTEX
  5
4531
  8
0
 10
120.6591348678744
 20
77.491806371013965
 30
0.0
  0
VERTEX
  5
4532
  8
0
 10
120.82828948253071
 20
77.642765789386956
 30
0.0
  0
VERTEX
  5
4533
  8
0
 10
120.992417085483
 20
77.79128971186104
 30
0.0
  0
VERTEX
  5
4534
  8
0
 10
121.07263322699291
 20
77.864672390886241
 30
0.0
  0
SEQEND
  5
4535
  8
0
  0
POLYLINE
  5
3720
  8
0
 66
     1
 10
0.0
 20
0.0
 30
0.0
  0
VERTEX
  5
4536
  8
0
 10
120.57263322699291
 20
78.512728497721923
 30
0.0
  0
VERTEX
  5
4537
  8
0
 10
120.6591348678744
 20
78.579639469369752
 30
0.0
  0
VERTEX
  5
4538
  8
0
 10
120.82828948253081
 20
78.711801190028027
 30
0.0
  0
VERTEX
  5
4539
  8
0
 10
120.9924170854831
 20
78.841830686462501
 30
0.0
  0
VERTEX
  5
453A
  8
0
 10
121.07263322699291
 20
78.906075642033983
 30
0.0
  0
SEQEND
  5
453B
  8
0
  0
POLYLINE
  5
3721
  8
0
 66
     1
 10
0.0
 20
0.0
 30
0.0
  0
VERTEX
  5
453C
  8
0
 10
120.57263322699291
 20
79.597670337813142
 30
0.0
  0
VERTEX
  5
453D
  8
0
 10
120.6591348678743
 20
79.654331301151672
 30
0.0
  0
VERTEX
  5
453E
  8
0
 10
120.82828948253071
 20
79.76624733262706
 30
0.0
  0
VERTEX
  5
453F
  8
0
 10
120.9924170854832
 20
79.876357772648632
 30
0.0
  0
VERTEX
  5
4540
  8
0
 10
121.07263322699291
 20
79.930761123589079
 30
0.0
  0
SEQEND
  5
4541
  8
0
  0
LINE
  5
3722
  8
0
 10
118.38263322699289
 20
79.958041636889462
 30
0.0
 11
118.38263322699289
 21
79.597670337813113
 31
0.0
  0
POLYLINE
  5
3723
  8
0
 66
     1
 10
0.0
 20
0.0
 30
0.0
  0
VERTEX
  5
4542
  8
0
 10
120.57263322699291
 20
80.658317152099258
 30
0.0
  0
VERTEX
  5
4543
  8
0
 10
120.6591348678743
 20
80.704107317757135
 30
0.0
  0
VERTEX
  5
4544
  8
0
 10
120.82828948253071
 20
80.79455148458878
 30
0.0
  0
VERTEX
  5
4545
  8
0
 10
120.9924170854831
 20
80.883536475174424
 30
0.0
  0
VERTEX
  5
4546
  8
0
 10
121.07263322699291
 20
80.927502166986386
 30
0.0
  0
SEQEND
  5
4547
  8
0
  0
POLYLINE
  5
3724
  8
0
 66
     1
 10
0.0
 20
0.0
 30
0.0
  0
VERTEX
  5
4548
  8
0
 10
120.57263322699291
 20
81.683048272128318
 30
0.0
  0
VERTEX
  5
4549
  8
0
 10
120.6591348678744
 20
81.717465953468476
 30
0.0
  0
VERTEX
  5
454A
  8
0
 10
120.82828948253081
 20
81.785447330437947
 30
0.0
  0
VERTEX
  5
454B
  8
0
 10
120.9924170854831
 20
81.852331933409474
 30
0.0
  0
VERTEX
  5
454C
  8
0
 10
121.07263322699291
 20
81.885378268772968
 30
0.0
  0
SEQEND
  5
454D
  8
0
  0
POLYLINE
  5
3725
  8
0
 66
     1
 10
0.0
 20
0.0
 30
0.0
  0
VERTEX
  5
454E
  8
0
 10
120.57263322699291
 20
82.660636529310551
 30
0.0
  0
VERTEX
  5
454F
  8
0
 10
120.6591348678743
 20
82.683304639013755
 30
0.0
  0
VERTEX
  5
4550
  8
0
 10
120.82828948253071
 20
82.728078407928948
 30
0.0
  0
VERTEX
  5
4551
  8
0
 10
120.9924170854831
 20
82.772129821579739
 30
0.0
  0
VERTEX
  5
4552
  8
0
 10
121.07263322699291
 20
82.793894737929193
 30
0.0
  0
SEQEND
  5
4553
  8
0
  0
LINE
  5
3726
  8
0
 10
118.38263322699289
 20
82.804808736418025
 30
0.0
 11
118.38263322699289
 21
82.660636529310537
 31
0.0
  0
POLYLINE
  5
3727
  8
0
 66
     1
 10
0.0
 20
0.0
 30
0.0
  0
VERTEX
  5
4554
  8
0
 10
120.57263322699291
 20
83.580371262126775
 30
0.0
  0
VERTEX
  5
4555
  8
0
 10
120.6591348678743
 20
83.591041443639526
 30
0.0
  0
VERTEX
  5
4556
  8
0
 10
120.82828948253059
 20
83.612117053718706
 30
0.0
  0
VERTEX
  5
4557
  8
0
 10
120.9924170854831
 20
83.632852641542442
 30
0.0
  0
VERTEX
  5
4558
  8
0
 10
121.07263322699291
 20
83.643097677899675
 30
0.0
  0
SEQEND
  5
4559
  8
0
  0
POLYLINE
  5
3728
  8
0
 66
     1
 10
0.0
 20
0.0
 30
0.0
  0
VERTEX
  5
455A
  8
0
 10
120.57263322699291
 20
84.432175664377326
 30
0.0
  0
VERTEX
  5
455B
  8
0
 10
120.6591348678743
 20
84.430731012958162
 30
0.0
  0
VERTEX
  5
455C
  8
0
 10
120.82828948253071
 20
84.427877555406937
 30
0.0
  0
VERTEX
  5
455D
  8
0
 10
120.9924170854832
 20
84.425070133964198
 30
0.0
  0
VERTEX
  5
455E
  8
0
 10
121.07263322699291
 20
84.423683043566996
 30
0.0
  0
SEQEND
  5
455F
  8
0
  0
LINE
  5
3729
  8
0
 10
121.07263322699291
 20
84.422987488286395
 30
0.0
 11
118.38263322699289
 21
84.422987488286395
 31
0.0
  0
POLYLINE
  5
372A
  8
0
 66
     1
 10
0.0
 20
0.0
 30
0.0
  0
VERTEX
  5
4560
  8
0
 10
120.57263322699291
 20
85.206717188779677
 30
0.0
  0
VERTEX
  5
4561
  8
0
 10
120.6591348678744
 20
85.193173532331826
 30
0.0
  0
VERTEX
  5
4562
  8
0
 10
120.82828948253081
 20
85.166422270228225
 30
0.0
  0
VERTEX
  5
4563
  8
0
 10
120.9924170854832
 20
85.140102598215876
 30
0.0
  0
VERTEX
  5
4564
  8
0
 10
121.07263322699291
 20
85.127098578316875
 30
0.0
  0
SEQEND
  5
4565
  8
0
  0
LINE
  5
372B
  8
0
 10
121.07263322699291
 20
85.120577723779775
 30
0.0
 11
118.38263322699289
 21
85.120577723779775
 31
0.0
  0
POLYLINE
  5
372C
  8
0
 66
     1
 10
0.0
 20
0.0
 30
0.0
  0
VERTEX
  5
4566
  8
0
 10
120.57263322699291
 20
85.895509796309241
 30
0.0
  0
VERTEX
  5
4567
  8
0
 10
120.6591348678743
 20
85.870015521966906
 30
0.0
  0
VERTEX
  5
4568
  8
0
 10
120.82828948253071
 20
85.819659547736634
 30
0.0
  0
VERTEX
  5
4569
  8
0
 10
120.9924170854831
 20
85.770115988988948
 30
0.0
  0
VERTEX
  5
456A
  8
0
 10
121.07263322699291
 20
85.745637514351458
 30
0.0
  0
SEQEND
  5
456B
  8
0
  0
LINE
  5
372D
  8
0
 10
121.07263322699291
 20
85.733362804404777
 30
0.0
 11
118.38263322699289
 21
85.733362804404777
 31
0.0
  0
POLYLINE
  5
372E
  8
0
 66
     1
 10
0.0
 20
0.0
 30
0.0
  0
VERTEX
  5
456C
  8
0
 10
120.57263322699291
 20
86.491006931018774
 30
0.0
  0
VERTEX
  5
456D
  8
0
 10
120.6591348678745
 20
86.453841359386615
 30
0.0
  0
VERTEX
  5
456E
  8
0
 10
120.82828948253071
 20
86.380432383621084
 30
0.0
  0
VERTEX
  5
456F
  8
0
 10
120.992417085483
 20
86.308207747735409
 30
0.0
  0
VERTEX
  5
4570
  8
0
 10
121.07263322699291
 20
86.272523009649944
 30
0.0
  0
SEQEND
  5
4571
  8
0
  0
LINE
  5
372F
  8
0
 10
121.07263322699291
 20
86.254628928584523
 30
0.0
 11
118.38263322699289
 21
86.254628928584523
 31
0.0
  0
POLYLINE
  5
3730
  8
0
 66
     1
 10
0.0
 20
0.0
 30
0.0
  0
VERTEX
  5
4572
  8
0
 10
120.57263322699291
 20
86.986684201684611
 30
0.0
  0
VERTEX
  5
4573
  8
0
 10
120.6591348678743
 20
86.938254526543005
 30
0.0
  0
VERTEX
  5
4574
  8
0
 10
120.82828948253059
 20
86.842596833342384
 30
0.0
  0
VERTEX
  5
4575
  8
0
 10
120.9924170854831
 20
86.748482428543355
 30
0.0
  0
VERTEX
  5
4576
  8
0
 10
121.07263322699291
 20
86.701982396467955
 30
0.0
  0
SEQEND
  5
4577
  8
0
  0
LINE
  5
3731
  8
0
 10
121.07263322699291
 20
86.678664995580505
 30
0.0
 11
118.38263322699289
 21
86.678664995580505
 31
0.0
  0
POLYLINE
  5
3732
  8
0
 66
     1
 10
0.0
 20
0.0
 30
0.0
  0
VERTEX
  5
4578
  8
0
 10
120.57263322699291
 20
87.377110864402241
 30
0.0
  0
VERTEX
  5
4579
  8
0
 10
120.6591348678744
 20
87.317947691406474
 30
0.0
  0
VERTEX
  5
457A
  8
0
 10
120.82828948253071
 20
87.201089326475113
 30
0.0
  0
VERTEX
  5
457B
  8
0
 10
120.9924170854831
 20
87.0861162898765
 30
0.0
  0
VERTEX
  5
457C
  8
0
 10
121.07263322699291
 20
87.029310427893364
 30
0.0
  0
SEQEND
  5
457D
  8
0
  0
LINE
  5
3733
  8
0
 10
121.07263322699291
 20
87.000825177507494
 30
0.0
 11
118.38263322699289
 21
87.000825177507494
 31
0.0
  0
POLYLINE
  5
3734
  8
0
 66
     1
 10
0.0
 20
0.0
 30
0.0
  0
VERTEX
  5
457E
  8
0
 10
120.57263322699291
 20
87.65800932295285
 30
0.0
  0
VERTEX
  5
457F
  8
0
 10
120.6591348678744
 20
87.588760856206932
 30
0.0
  0
VERTEX
  5
4580
  8
0
 10
120.82828948253071
 20
87.451982144245349
 30
0.0
  0
VERTEX
  5
4581
  8
0
 10
120.9924170854831
 20
87.317410144495781
 30
0.0
  0
VERTEX
  5
4582
  8
0
 10
121.07263322699291
 20
87.250920829516105
 30
0.0
  0
SEQEND
  5
4583
  8
0
  0
LINE
  5
3735
  8
0
 10
121.07263322699291
 20
87.217579819995933
 30
0.0
 11
118.38263322699289
 21
87.217579819995933
 31
0.0
  0
POLYLINE
  5
3736
  8
0
 66
     1
 10
0.0
 20
0.0
 30
0.0
  0
VERTEX
  5
4584
  8
0
 10
120.57263322699291
 20
87.826301995042797
 30
0.0
  0
VERTEX
  5
4585
  8
0
 10
120.6591348678743
 20
87.747726935239712
 30
0.0
  0
VERTEX
  5
4586
  8
0
 10
120.82828948253081
 20
87.59252645243869
 30
0.0
  0
VERTEX
  5
4587
  8
0
 10
120.9924170854833
 20
87.439829888528308
 30
0.0
  0
VERTEX
  5
4588
  8
0
 10
121.07263322699291
 20
87.364385591401017
 30
0.0
  0
SEQEND
  5
4589
  8
0
  0
LINE
  5
3737
  8
0
 10
121.07263322699291
 20
87.326554113823875
 30
0.0
 11
118.38263322699289
 21
87.326554113823875
 31
0.0
  0
ARC
  5
3738
  8
0
 10
112.84326283526489
 20
84.53020394766834
 30
0.0
 40
0.9000000000000021
 50
270.0
 51
348.043415756851
  0
ARC
  5
3739
  8
0
 10
112.84326283526489
 20
70.230203947668386
 30
0.0
 40
0.9000000000000035
 50
11.956584243149029
 51
90.0
  0
LINE
  5
373A
  8
0
 10
112.84326283526489
 20
83.630203947668363
 30
0.0
 11
112.84326283526489
 21
71.130203947668363
 31
0.0
  0
ARC
  5
373B
  8
0
 10
163.27776979648411
 20
38.528458420541583
 30
0.0
 40
9.9999999999987814
 50
87.223113296097935
 51
92.776886703902065
  0
ARC
  5
373C
  8
0
 10
163.27776979648419
 20
38.528458420541362
 30
0.0
 40
9.9999999999989662
 50
81.223113296098205
 51
86.776886703900914
  0
ARC
  5
373D
  8
0
 10
163.27776979648391
 20
38.52845842054176
 30
0.0
 40
9.9999999999985665
 50
93.223113296099086
 51
98.776886703901809
  0
ARC
  5
373E
  8
0
 10
163.27776979648411
 20
38.528458420540559
 30
0.0
 40
9.9999999999997335
 50
75.223113296099584
 51
80.776886703900971
  0
ARC
  5
373F
  8
0
 10
163.27776979648399
 20
38.528458420540623
 30
0.0
 40
9.9999999999996927
 50
99.223113296099044
 51
104.7768867039004
  0
ARC
  5
3740
  8
0
 10
163.27776979648439
 20
38.528458420541362
 30
0.0
 40
9.9999999999989448
 50
69.223113296098106
 51
74.776886703902122
  0
ARC
  5
3741
  8
0
 10
163.27776979648399
 20
38.528458420540559
 30
0.0
 40
9.9999999999997957
 50
105.2231132960995
 51
110.77688670390189
  0
ARC
  5
3742
  8
0
 10
163.27776979648439
 20
38.528458420541192
 30
0.0
 40
9.9999999999990692
 50
63.223113296097907
 51
68.776886703901212
  0
ARC
  5
3743
  8
0
 10
163.27776979648431
 20
38.52845842053982
 30
0.0
 40
10.00000000000056
 50
111.2231132960988
 51
116.7768867039002
  0
ARC
  5
3744
  8
0
 10
163.27776979648459
 20
38.528458420541241
 30
0.0
 40
9.9999999999988987
 50
57.223113296098639
 51
62.776886703902228
  0
ARC
  5
3745
  8
0
 10
163.2777697964836
 20
38.528458420541192
 30
0.0
 40
9.9999999999990177
 50
117.22311329609769
 51
122.7768867039013
  0
ARC
  5
3746
  8
0
 10
163.2777697964828
 20
38.528458420538513
 30
0.0
 40
10.000000000002199
 50
51.223113296099122
 51
56.776886703901248
  0
ARC
  5
3747
  8
0
 10
163.27776979648439
 20
38.528458420539927
 30
0.0
 40
10.00000000000048
 50
123.2231132960987
 51
128.77688670390091
  0
ARC
  5
3748
  8
0
 10
163.2777697964838
 20
38.528458420539991
 30
0.0
 40
10.00000000000043
 50
45.223113296098226
 51
50.776886703901312
  0
ARC
  5
3749
  8
0
 10
163.27776979648391
 20
38.528458420540559
 30
0.0
 40
9.9999999999997549
 50
129.22311329609869
 51
134.77688670390171
  0
ARC
  5
374A
  8
0
 10
163.277769796483
 20
38.528458420539309
 30
0.0
 40
10.00000000000149
 50
39.223113296099108
 51
44.776886703901482
  0
ARC
  5
374B
  8
0
 10
163.2777697964838
 20
38.528458420540623
 30
0.0
 40
9.9999999999995808
 50
135.22311329609849
 51
140.77688670390091
  0
ARC
  5
374C
  8
0
 10
163.27776979648479
 20
38.5284584205409
 30
0.0
 40
9.9999999999990408
 50
33.223113296099143
 51
38.776886703902022
  0
ARC
  5
374D
  8
0
 10
163.27776979648479
 20
38.528458420539771
 30
0.0
 40
10.00000000000094
 50
141.22311329609829
 51
146.77688670390029
  0
ARC
  5
374E
  8
0
 10
163.27776979648499
 20
38.5284584205409
 30
0.0
 40
9.9999999999988596
 50
27.22311329609914
 51
32.776886703900971
  0
ARC
  5
374F
  8
0
 10
163.27776979648181
 20
38.528458420541639
 30
0.0
 40
9.9999999999973834
 50
147.22311329609849
 51
152.7768867039008
  0
ARC
  5
3750
  8
0
 10
163.2777697964836
 20
38.528458420540112
 30
0.0
 40
10.00000000000051
 50
21.223113296098781
 51
26.776886703901258
  0
ARC
  5
3751
  8
0
 10
163.27776979648451
 20
38.528458420540112
 30
0.0
 40
10.000000000000449
 50
153.22311329609869
 51
158.7768867039006
  0
ARC
  5
3752
  8
0
 10
163.2777697964857
 20
38.528458420540851
 30
0.0
 40
9.999999999998316
 50
15.22311329609782
 51
20.77688670390182
  0
ARC
  5
3753
  8
0
 10
163.2777697964824
 20
38.528458420540851
 30
0.0
 40
9.9999999999982716
 50
159.22311329609809
 51
164.77688670390211
  0
ARC
  5
3754
  8
0
 10
163.27776979648431
 20
38.528458420540332
 30
0.0
 40
9.9999999999997726
 50
9.2231132960981288
 51
14.776886703901351
  0
ARC
  5
3755
  8
0
 10
163.27776979648399
 20
38.528458420540332
 30
0.0
 40
9.9999999999998952
 50
165.2231132960984
 51
170.77688670390179
  0
ARC
  5
3756
  8
0
 10
163.2777697964849
 20
38.528458420540439
 30
0.0
 40
9.9999999999991598
 50
3.2231132960982358
 51
8.776886703901841
  0
ARC
  5
3757
  8
0
 10
163.27776979648371
 20
38.528458420540389
 30
0.0
 40
9.9999999999996358
 50
171.22311329609809
 51
176.77688670390091
  0
ARC
  5
3758
  8
0
 10
163.27776979648479
 20
38.528458420540332
 30
0.0
 40
9.9999999999992824
 50
357.2231132960988
 51
2.7768867039021088
  0
ARC
  5
3759
  8
0
 10
163.2777697964834
 20
38.528458420540332
 30
0.0
 40
9.9999999999993161
 50
177.2231132960988
 51
182.7768867039012
  0
ARC
  5
375A
  8
0
 10
163.27776979648399
 20
38.528458420540332
 30
0.0
 40
10.00000000000011
 50
351.22311329609897
 51
356.77688670390103
  0
ARC
  5
375B
  8
0
 10
163.27776979648331
 20
38.528458420540218
 30
0.0
 40
9.9999999999992095
 50
183.22311329609821
 51
188.776886703901
  0
ARC
  5
375C
  8
0
 10
163.27776979648499
 20
38.528458420540161
 30
0.0
 40
9.9999999999990781
 50
345.22311329609852
 51
350.77688670390131
  0
ARC
  5
375D
  8
0
 10
163.27776979648399
 20
38.528458420540332
 30
0.0
 40
9.9999999999998987
 50
189.22311329609809
 51
194.77688670390131
  0
ARC
  5
375E
  8
0
 10
163.27776979648351
 20
38.528458420540559
 30
0.0
 40
10.00000000000065
 50
339.22311329609892
 51
344.7768867039016
  0
ARC
  5
375F
  8
0
 10
163.2777697964826
 20
38.52845842053982
 30
0.0
 40
9.9999999999984048
 50
195.2231132960984
 51
200.77688670390179
  0
ARC
  5
3760
  8
0
 10
163.27776979648439
 20
38.528458420540218
 30
0.0
 40
9.9999999999996412
 50
333.2231132960988
 51
338.7768867039012
  0
ARC
  5
3761
  8
0
 10
163.27776979648431
 20
38.528458420540439
 30
0.0
 40
10.00000000000029
 50
201.2231132960988
 51
206.77688670390069
  0
ARC
  5
3762
  8
0
 10
163.27776979648209
 20
38.528458420541469
 30
0.0
 40
10.000000000002281
 50
327.22311329609943
 51
332.77688670390029
  0
ARC
  5
3763
  8
0
 10
163.2777697964838
 20
38.528458420540161
 30
0.0
 40
9.9999999999996447
 50
207.22311329609909
 51
212.776886703901
  0
ARC
  5
3764
  8
0
 10
163.27776979648351
 20
38.528458420540787
 30
0.0
 40
10.00000000000073
 50
321.22311329609829
 51
326.77688670390091
  0
ARC
  5
3765
  8
0
 10
163.27776979648399
 20
38.528458420540218
 30
0.0
 40
9.9999999999998614
 50
213.22311329609909
 51
218.77688670390171
  0
ARC
  5
3766
  8
0
 10
163.27776979648411
 20
38.528458420540282
 30
0.0
 40
9.9999999999999183
 50
315.22311329609852
 51
320.77688670390091
  0
ARC
  5
3767
  8
0
 10
163.2777697964849
 20
38.528458420541071
 30
0.0
 40
10.000000000001091
 50
219.22311329609909
 51
224.77688670390151
  0
ARC
  5
3768
  8
0
 10
163.27776979648499
 20
38.528458420539309
 30
0.0
 40
9.9999999999985718
 50
309.22311329609857
 51
314.77688670390182
  0
ARC
  5
3769
  8
0
 10
163.2777697964838
 20
38.528458420540112
 30
0.0
 40
9.9999999999997087
 50
225.22311329609821
 51
230.77688670390131
  0
ARC
  5
376A
  8
0
 10
163.27776979648451
 20
38.528458420539707
 30
0.0
 40
9.9999999999992362
 50
303.22311329609869
 51
308.77688670390091
  0
ARC
  5
376B
  8
0
 10
163.27776979648519
 20
38.52845842054181
 30
0.0
 40
10.000000000001821
 50
231.22311329609909
 51
236.7768867039012
  0
ARC
  5
376C
  8
0
 10
163.2777697964838
 20
38.52845842054068
 30
0.0
 40
10.00000000000038
 50
297.22311329609948
 51
302.7768867039012
  0
ARC
  5
376D
  8
0
 10
163.2777697964836
 20
38.528458420539543
 30
0.0
 40
9.9999999999990621
 50
237.22311329609869
 51
242.77688670390231
  0
ARC
  5
376E
  8
0
 10
163.27776979648431
 20
38.52845842053982
 30
0.0
 40
9.9999999999994174
 50
291.22311329609869
 51
296.77688670390211
  0
ARC
  5
376F
  8
0
 10
163.27776979648411
 20
38.528458420540332
 30
0.0
 40
9.9999999999999751
 50
243.22311329609789
 51
248.7768867039012
  0
ARC
  5
3770
  8
0
 10
163.27776979648451
 20
38.528458420538911
 30
0.0
 40
9.9999999999985043
 50
285.22311329609789
 51
290.77688670390199
  0
ARC
  5
3771
  8
0
 10
163.27776979648459
 20
38.52845842054198
 30
0.0
 40
10.00000000000173
 50
249.2231132960998
 51
254.7768867039004
  0
ARC
  5
3772
  8
0
 10
163.27776979648439
 20
38.528458420539017
 30
0.0
 40
9.9999999999986535
 50
279.22311329609897
 51
284.77688670390211
  0
ARC
  5
3773
  8
0
 10
163.27776979648391
 20
38.528458420539373
 30
0.0
 40
9.9999999999990301
 50
255.22311329609789
 51
260.77688670390091
  0
ARC
  5
3774
  8
0
 10
163.27776979648391
 20
38.528458420542151
 30
0.0
 40
10.000000000001799
 50
273.22311329609909
 51
278.77688670390017
  0
ARC
  5
3775
  8
0
 10
163.27776979648399
 20
38.528458420540112
 30
0.0
 40
9.9999999999997922
 50
261.22311329609818
 51
266.77688670390091
  0
ARC
  5
3776
  8
0
 10
163.27776979648411
 20
38.528458420539991
 30
0.0
 40
9.9999999999996714
 50
267.22311329609801
 51
272.77688670390052
  0
LINE
  5
3777
  8
0
 10
162.75650367230429
 20
48.474808586695858
 30
0.0
 11
162.71552705090869
 21
48.512640064272993
 31
0.0
  0
POLYLINE
  5
3778
  8
0
 66
     1
 10
0.0
 20
0.0
 30
0.0
  0
VERTEX
  5
458A
  8
0
 10
162.71552705090869
 20
48.512640064272993
 30
0.0
  0
VERTEX
  5
458B
  8
0
 10
162.63381064441759
 20
48.588084361400497
 30
0.0
  0
VERTEX
  5
458C
  8
0
 10
162.46841955507909
 20
48.740780925310801
 30
0.0
  0
VERTEX
  5
458D
  8
0
 10
162.3003163819694
 20
48.895981408111609
 30
0.0
  0
VERTEX
  5
458E
  8
0
 10
162.21520893486721
 20
48.97455646791478
 30
0.0
  0
SEQEND
  5
458F
  8
0
  0
LINE
  5
3779
  8
0
 10
161.71968252468341
 20
48.365834292867859
 30
0.0
 11
161.6749759112929
 21
48.399175302388059
 31
0.0
  0
POLYLINE
  5
377A
  8
0
 66
     1
 10
0.0
 20
0.0
 30
0.0
  0
VERTEX
  5
4590
  8
0
 10
161.6749759112929
 20
48.399175302388059
 30
0.0
  0
VERTEX
  5
4591
  8
0
 10
161.58582107938579
 20
48.465664617367629
 30
0.0
  0
VERTEX
  5
4592
  8
0
 10
161.405374882568
 20
48.600236617117261
 30
0.0
  0
VERTEX
  5
4593
  8
0
 10
161.22196972826379
 20
48.737015329078972
 30
0.0
  0
VERTEX
  5
4594
  8
0
 10
161.12911517840939
 20
48.806263795824819
 30
0.0
  0
SEQEND
  5
4595
  8
0
  0
LINE
  5
377B
  8
0
 10
160.69993210726301
 20
48.149079650379448
 30
0.0
 11
160.65198531688949
 21
48.177564900765319
 31
0.0
  0
POLYLINE
  5
377C
  8
0
 66
     1
 10
0.0
 20
0.0
 30
0.0
  0
VERTEX
  5
4596
  8
0
 10
160.65198531688949
 20
48.177564900765319
 30
0.0
  0
VERTEX
  5
4597
  8
0
 10
160.55636885856131
 20
48.234370762748469
 30
0.0
  0
VERTEX
  5
4598
  8
0
 10
160.36284456055751
 20
48.349343799347068
 30
0.0
  0
VERTEX
  5
4599
  8
0
 10
160.16614685030959
 20
48.466202164278378
 30
0.0
  0
VERTEX
  5
459A
  8
0
 10
160.06656253158221
 20
48.525365337274181
 30
0.0
  0
SEQEND
  5
459B
  8
0
  0
LINE
  5
377D
  8
0
 10
159.70842501901291
 20
47.826919468452417
 30
0.0
 11
159.65776336672519
 21
47.850236869339923
 31
0.0
  0
POLYLINE
  5
377E
  8
0
 66
     1
 10
0.0
 20
0.0
 30
0.0
  0
VERTEX
  5
459C
  8
0
 10
159.65776336672519
 20
47.850236869339923
 30
0.0
  0
VERTEX
  5
459D
  8
0
 10
159.55673287590261
 20
47.896736901415281
 30
0.0
  0
VERTEX
  5
459E
  8
0
 10
159.35225076941919
 20
47.990851306214303
 30
0.0
  0
VERTEX
  5
459F
  8
0
 10
159.1444155645024
 20
48.08650899941496
 30
0.0
  0
VERTEX
  5
45A0
  8
0
 10
159.0391925435375
 20
48.134938674556579
 30
0.0
  0
SEQEND
  5
45A1
  8
0
  0
LINE
  5
377F
  8
0
 10
158.75602441907819
 20
47.402883401456428
 30
0.0
 11
158.7032029645404
 21
47.420777482521871
 31
0.0
  0
POLYLINE
  5
3780
  8
0
 66
     1
 10
0.0
 20
0.0
 30
0.0
  0
VERTEX
  5
45A2
  8
0
 10
158.7032029645404
 20
47.420777482521899
 30
0.0
  0
VERTEX
  5
45A3
  8
0
 10
158.5978653524229
 20
47.456462220607257
 30
0.0
  0
VERTEX
  5
45A4
  8
0
 10
158.3846657862089
 20
47.528686856493053
 30
0.0
  0
VERTEX
  5
45A5
  8
0
 10
158.16797017262081
 20
47.602095832258712
 30
0.0
  0
VERTEX
  5
45A6
  8
0
 10
158.05826129485541
 20
47.639261403890728
 30
0.0
  0
SEQEND
  5
45A7
  8
0
  0
LINE
  5
3781
  8
0
 10
157.85316500773439
 20
46.881617277276732
 30
0.0
 11
157.79876247385599
 21
46.893891987223398
 31
0.0
  0
POLYLINE
  5
3782
  8
0
 66
     1
 10
0.0
 20
0.0
 30
0.0
  0
VERTEX
  5
45A8
  8
0
 10
157.79876247385599
 20
46.893891987223398
 30
0.0
  0
VERTEX
  5
45A9
  8
0
 10
157.69027184136499
 20
46.918370461860931
 30
0.0
  0
VERTEX
  5
45AA
  8
0
 10
157.47069067448319
 20
46.967914020608568
 30
0.0
  0
VERTEX
  5
45AB
  8
0
 10
157.247508814713
 20
47.018269994838832
 30
0.0
  0
VERTEX
  5
45AC
  8
0
 10
157.13451607356961
 20
47.043764269181182
 30
0.0
  0
SEQEND
  5
45AD
  8
0
  0
LINE
  5
3783
  8
0
 10
157.0097387016277
 20
46.268832196651687
 30
0.0
 11
156.9543511339543
 21
46.275353051188837
 31
0.0
  0
POLYLINE
  5
3784
  8
0
 66
     1
 10
0.0
 20
0.0
 30
0.0
  0
VERTEX
  5
45AE
  8
0
 10
156.9543511339543
 20
46.275353051188837
 30
0.0
  0
VERTEX
  5
45AF
  8
0
 10
156.84389612716279
 20
46.288357071087809
 30
0.0
  0
VERTEX
  5
45B0
  8
0
 10
156.62033913682771
 20
46.314676743100179
 30
0.0
  0
VERTEX
  5
45B1
  8
0
 10
156.3931162580343
 20
46.341428005203781
 30
0.0
  0
VERTEX
  5
45B2
  8
0
 10
156.27807762563049
 20
46.354971661651611
 30
0.0
  0
SEQEND
  5
45B3
  8
0
  0
LINE
  5
3785
  8
0
 10
156.23498625586609
 20
45.571241961158307
 30
0.0
 11
156.1792204921797
 21
45.571937516438993
 31
0.0
  0
POLYLINE
  5
3786
  8
0
 66
     1
 10
0.0
 20
0.0
 30
0.0
  0
VERTEX
  5
45B4
  8
0
 10
156.1792204921797
 20
45.571937516438958
 30
0.0
  0
VERTEX
  5
45B5
  8
0
 10
156.06801127925621
 20
45.573324606836167
 30
0.0
  0
VERTEX
  5
45B6
  8
0
 10
155.8429278026361
 20
45.576132028278892
 30
0.0
  0
VERTEX
  5
45B7
  8
0
 10
155.61415340622929
 20
45.57898548583011
 30
0.0
  0
VERTEX
  5
45B8
  8
0
 10
155.4983292698949
 20
45.580430137249287
 30
0.0
  0
SEQEND
  5
45B9
  8
0
  0
LINE
  5
3787
  8
0
 10
155.53739602037271
 20
44.796489515396722
 30
0.0
 11
155.48186304205009
 21
44.791352150771672
 31
0.0
  0
POLYLINE
  5
3788
  8
0
 66
     1
 10
0.0
 20
0.0
 30
0.0
  0
VERTEX
  5
45BA
  8
0
 10
155.48186304205009
 20
44.791352150771637
 30
0.0
  0
VERTEX
  5
45BB
  8
0
 10
155.37111805440321
 20
44.781107114414418
 30
0.0
  0
VERTEX
  5
45BC
  8
0
 10
155.14697415316971
 20
44.760371526590689
 30
0.0
  0
VERTEX
  5
45BD
  8
0
 10
154.91915473931081
 20
44.739295916511509
 30
0.0
  0
VERTEX
  5
45BE
  8
0
 10
154.80381409252141
 20
44.72862573499873
 30
0.0
  0
SEQEND
  5
45BF
  8
0
  0
LINE
  5
3789
  8
0
 10
154.92461093974771
 20
43.953063209290008
 30
0.0
 11
154.86991917772031
 21
43.942149210801169
 31
0.0
  0
POLYLINE
  5
378A
  8
0
 66
     1
 10
0.0
 20
0.0
 30
0.0
  0
VERTEX
  5
45C0
  8
0
 10
154.86991917772031
 20
43.942149210801148
 30
0.0
  0
VERTEX
  5
45C1
  8
0
 10
154.7608517606098
 20
43.920384294451729
 30
0.0
  0
VERTEX
  5
45C2
  8
0
 10
154.54010320225001
 20
43.876332880800931
 30
0.0
  0
VERTEX
  5
45C3
  8
0
 10
154.3157348081113
 20
43.831559111885753
 30
0.0
  0
VERTEX
  5
45C4
  8
0
 10
154.20214134712961
 20
43.80889100218252
 30
0.0
  0
SEQEND
  5
45C5
  8
0
  0
LINE
  5
378B
  8
0
 10
154.40334481556789
 20
43.05020379794621
 30
0.0
 11
154.3500934842256
 21
43.033632741644908
 31
0.0
  0
POLYLINE
  5
378C
  8
0
 66
     1
 10
0.0
 20
0.0
 30
0.0
  0
VERTEX
  5
45C6
  8
0
 10
154.3500934842256
 20
43.033632741644908
 30
0.0
  0
VERTEX
  5
45C7
  8
0
 10
154.24389860309719
 20
43.000586406281457
 30
0.0
  0
VERTEX
  5
45C8
  8
0
 10
154.02896395501099
 20
42.933701803309901
 30
0.0
  0
VERTEX
  5
45C9
  8
0
 10
153.81050480767081
 20
42.865720426340431
 30
0.0
  0
VERTEX
  5
45CA
  8
0
 10
153.6999030862263
 20
42.831302745000301
 30
0.0
  0
SEQEND
  5
45CB
  8
0
  0
LINE
  5
378D
  8
0
 10
153.9793087485719
 20
42.09780319801154
 30
0.0
 11
153.92808128064439
 21
42.075756639858348
 31
0.0
  0
POLYLINE
  5
378E
  8
0
 66
     1
 10
0.0
 20
0.0
 30
0.0
  0
VERTEX
  5
45CC
  8
0
 10
153.92808128064439
 20
42.075756639858348
 30
0.0
  0
VERTEX
  5
45CD
  8
0
 10
153.8259224288384
 20
42.031790948046449
 30
0.0
  0
VERTEX
  5
45CE
  8
0
 10
153.61915656000821
 20
41.942805957460791
 30
0.0
  0
VERTEX
  5
45CF
  8
0
 10
153.40900014360031
 20
41.852361790629089
 30
0.0
  0
VERTEX
  5
45D0
  8
0
 10
153.30260193729811
 20
41.806571624971212
 30
0.0
  0
SEQEND
  5
45D1
  8
0
  0
LINE
  5
378F
  8
0
 10
153.65714856664499
 20
41.106296109761438
 30
0.0
 11
153.60850622099079
 21
41.079015596461034
 31
0.0
  0
POLYLINE
  5
3790
  8
0
 66
     1
 10
0.0
 20
0.0
 30
0.0
  0
VERTEX
  5
45D2
  8
0
 10
153.60850622099079
 20
41.079015596461034
 30
0.0
  0
VERTEX
  5
45D3
  8
0
 10
153.51150267226549
 20
41.02461224552053
 30
0.0
  0
VERTEX
  5
45D4
  8
0
 10
153.3151709528189
 20
40.914501805498979
 30
0.0
  0
VERTEX
  5
45D5
  8
0
 10
153.1156197850197
 20
40.802585774023633
 30
0.0
  0
VERTEX
  5
45D6
  8
0
 10
153.0145908148732
 20
40.745924810685089
 30
0.0
  0
SEQEND
  5
45D7
  8
0
  0
LINE
  5
3791
  8
0
 10
153.4403939241565
 20
40.086545692341019
 30
0.0
 11
153.39486963649389
 21
40.054330114905952
 31
0.0
  0
POLYLINE
  5
3792
  8
0
 66
     1
 10
0.0
 20
0.0
 30
0.0
  0
VERTEX
  5
45D8
  8
0
 10
153.39486963649389
 20
40.054330114905952
 30
0.0
  0
VERTEX
  5
45D9
  8
0
 10
153.30408418202859
 20
39.990085159334512
 30
0.0
  0
VERTEX
  5
45DA
  8
0
 10
153.12033766336879
 20
39.860055662899931
 30
0.0
  0
VERTEX
  5
45DB
  8
0
 10
152.9335780685312
 20
39.7278939422416
 30
0.0
  0
VERTEX
  5
45DC
  8
0
 10
152.83902522907911
 20
39.660982970593892
 30
0.0
  0
SEQEND
  5
45DD
  8
0
  0
LINE
  5
3793
  8
0
 10
153.3314196303285
 20
39.04972454472005
 30
0.0
 11
153.28951217427959
 21
39.012926863758203
 31
0.0
  0
POLYLINE
  5
3794
  8
0
 66
     1
 10
0.0
 20
0.0
 30
0.0
  0
VERTEX
  5
45DE
  8
0
 10
153.28951217427959
 20
39.012926863758203
 30
0.0
  0
VERTEX
  5
45DF
  8
0
 10
153.20593947851151
 20
38.939544184733137
 30
0.0
  0
VERTEX
  5
45E0
  8
0
 10
153.03679132594829
 20
38.791020262258911
 30
0.0
  0
VERTEX
  5
45E1
  8
0
 10
152.86486948127549
 20
38.640060843885813
 30
0.0
  0
VERTEX
  5
45E2
  8
0
 10
152.7778287132133
 20
38.563632954536303
 30
0.0
  0
SEQEND
  5
45E3
  8
0
  0
LINE
  5
3795
  8
0
 10
153.3314196303285
 20
38.007192296360579
 30
0.0
 11
153.2935881527514
 21
37.966215674965042
 31
0.0
  0
POLYLINE
  5
3796
  8
0
 66
     1
 10
0.0
 20
0.0
 30
0.0
  0
VERTEX
  5
45E4
  8
0
 10
153.2935881527514
 20
37.966215674965007
 30
0.0
  0
VERTEX
  5
45E5
  8
0
 10
153.21814385562411
 20
37.88449926847403
 30
0.0
  0
VERTEX
  5
45E6
  8
0
 10
153.0654472917137
 20
37.719108179135503
 30
0.0
  0
VERTEX
  5
45E7
  8
0
 10
152.91024680891269
 20
37.551005006025612
 30
0.0
  0
VERTEX
  5
45E8
  8
0
 10
152.8316717491096
 20
37.465897558923501
 30
0.0
  0
SEQEND
  5
45E9
  8
0
  0
LINE
  5
3797
  8
0
 10
153.4403939241565
 20
36.97037114873968
 30
0.0
 11
153.4070529146363
 21
36.925664535349263
 31
0.0
  0
POLYLINE
  5
3798
  8
0
 66
     1
 10
0.0
 20
0.0
 30
0.0
  0
VERTEX
  5
45EA
  8
0
 10
153.4070529146363
 20
36.925664535349227
 30
0.0
  0
VERTEX
  5
45EB
  8
0
 10
153.34056359965669
 20
36.836509703442118
 30
0.0
  0
VERTEX
  5
45EC
  8
0
 10
153.20599159990709
 20
36.656063506624378
 30
0.0
  0
VERTEX
  5
45ED
  8
0
 10
153.0692128879455
 20
36.472658352320082
 30
0.0
  0
VERTEX
  5
45EE
  8
0
 10
152.99996442119959
 20
36.379803802465723
 30
0.0
  0
SEQEND
  5
45EF
  8
0
  0
LINE
  5
3799
  8
0
 10
153.65714856664499
 20
35.950620731319248
 30
0.0
 11
153.62866331625901
 21
35.90267394094576
 31
0.0
  0
POLYLINE
  5
379A
  8
0
 66
     1
 10
0.0
 20
0.0
 30
0.0
  0
VERTEX
  5
45F0
  8
0
 10
153.62866331625901
 20
35.90267394094576
 30
0.0
  0
VERTEX
  5
45F1
  8
0
 10
153.571857454276
 20
35.807057482617751
 30
0.0
  0
VERTEX
  5
45F2
  8
0
 10
153.45688441767729
 20
35.6135331846138
 30
0.0
  0
VERTEX
  5
45F3
  8
0
 10
153.34002605274591
 20
35.416835474365683
 30
0.0
  0
VERTEX
  5
45F4
  8
0
 10
153.2808628797502
 20
35.31725115563848
 30
0.0
  0
SEQEND
  5
45F5
  8
0
  0
LINE
  5
379B
  8
0
 10
153.9793087485719
 20
34.959113643069152
 30
0.0
 11
153.95599134768449
 21
34.908451990781487
 31
0.0
  0
POLYLINE
  5
379C
  8
0
 66
     1
 10
0.0
 20
0.0
 30
0.0
  0
VERTEX
  5
45F6
  8
0
 10
153.95599134768449
 20
34.908451990781487
 30
0.0
  0
VERTEX
  5
45F7
  8
0
 10
153.9094913156091
 20
34.807421499958942
 30
0.0
  0
VERTEX
  5
45F8
  8
0
 10
153.8153769108101
 20
34.602939393475417
 30
0.0
  0
VERTEX
  5
45F9
  8
0
 10
153.71971921760939
 20
34.395104188558662
 30
0.0
  0
VERTEX
  5
45FA
  8
0
 10
153.6712895424678
 20
34.289881167593791
 30
0.0
  0
SEQEND
  5
45FB
  8
0
  0
LINE
  5
379D
  8
0
 10
154.40334481556789
 20
34.006713043134482
 30
0.0
 11
154.38545073450251
 21
33.953891588596662
 31
0.0
  0
POLYLINE
  5
379E
  8
0
 66
     1
 10
0.0
 20
0.0
 30
0.0
  0
VERTEX
  5
45FC
  8
0
 10
154.38545073450251
 20
33.953891588596662
 30
0.0
  0
VERTEX
  5
45FD
  8
0
 10
154.34976599641709
 20
33.84855397647911
 30
0.0
  0
VERTEX
  5
45FE
  8
0
 10
154.2775413605313
 20
33.635354410265187
 30
0.0
  0
VERTEX
  5
45FF
  8
0
 10
154.2041323847657
 20
33.418658796677143
 30
0.0
  0
VERTEX
  5
4600
  8
0
 10
154.16696681313371
 20
33.308949918911708
 30
0.0
  0
SEQEND
  5
4601
  8
0
  0
LINE
  5
379F
  8
0
 10
154.92461093974771
 20
33.103853631790692
 30
0.0
 11
154.91233622980101
 21
33.049451097912311
 31
0.0
  0
POLYLINE
  5
37A0
  8
0
 66
     1
 10
0.0
 20
0.0
 30
0.0
  0
VERTEX
  5
4602
  8
0
 10
154.91233622980101
 20
33.049451097912289
 30
0.0
  0
VERTEX
  5
4603
  8
0
 10
154.88785775516351
 20
32.940960465421341
 30
0.0
  0
VERTEX
  5
4604
  8
0
 10
154.83831419641581
 20
32.721379298539553
 30
0.0
  0
VERTEX
  5
4605
  8
0
 10
154.78795822218561
 20
32.498197438769211
 30
0.0
  0
VERTEX
  5
4606
  8
0
 10
154.7624639478432
 20
32.385204697625859
 30
0.0
  0
SEQEND
  5
4607
  8
0
  0
LINE
  5
37A1
  8
0
 10
155.53739602037271
 20
32.26042732568397
 30
0.0
 11
155.5308751658356
 21
32.205039758010628
 31
0.0
  0
POLYLINE
  5
37A2
  8
0
 66
     1
 10
0.0
 20
0.0
 30
0.0
  0
VERTEX
  5
4608
  8
0
 10
155.5308751658356
 20
32.205039758010628
 30
0.0
  0
VERTEX
  5
4609
  8
0
 10
155.51787114593651
 20
32.09458475121906
 30
0.0
  0
VERTEX
  5
460A
  8
0
 10
155.4915514739242
 20
31.871027760883688
 30
0.0
  0
VERTEX
  5
460B
  8
0
 10
155.4648002118206
 20
31.643804882090372
 30
0.0
  0
VERTEX
  5
460C
  8
0
 10
155.45125655537279
 20
31.528766249686729
 30
0.0
  0
SEQEND
  5
460D
  8
0
  0
LINE
  5
37A3
  8
0
 10
156.23498625586609
 20
31.485674879922328
 30
0.0
 11
156.2342907005854
 21
31.42990911623605
 31
0.0
  0
POLYLINE
  5
37A4
  8
0
 66
     1
 10
0.0
 20
0.0
 30
0.0
  0
VERTEX
  5
460E
  8
0
 10
156.2342907005854
 20
31.42990911623605
 30
0.0
  0
VERTEX
  5
460F
  8
0
 10
156.2329036101882
 20
31.318699903312389
 30
0.0
  0
VERTEX
  5
4610
  8
0
 10
156.23009618874551
 20
31.09361642669214
 30
0.0
  0
VERTEX
  5
4611
  8
0
 10
156.22724273119431
 20
30.864842030285448
 30
0.0
  0
VERTEX
  5
4612
  8
0
 10
156.2257980797751
 20
30.749017893951251
 30
0.0
  0
SEQEND
  5
4613
  8
0
  0
LINE
  5
37A5
  8
0
 10
157.0097387016277
 20
30.78808464442892
 30
0.0
 11
157.01487606625281
 21
30.73255166610636
 31
0.0
  0
POLYLINE
  5
37A6
  8
0
 66
     1
 10
0.0
 20
0.0
 30
0.0
  0
VERTEX
  5
4614
  8
0
 10
157.01487606625281
 20
30.73255166610636
 30
0.0
  0
VERTEX
  5
4615
  8
0
 10
157.02512110261
 20
30.62180667845951
 30
0.0
  0
VERTEX
  5
4616
  8
0
 10
157.04585669043371
 20
30.39766277722601
 30
0.0
  0
VERTEX
  5
4617
  8
0
 10
157.06693230051289
 20
30.169843363367079
 30
0.0
  0
VERTEX
  5
4618
  8
0
 10
157.0776024820257
 20
30.054502716577641
 30
0.0
  0
SEQEND
  5
4619
  8
0
  0
LINE
  5
37A7
  8
0
 10
157.85316500773439
 20
30.17529956380395
 30
0.0
 11
157.86407900622331
 21
30.1206078017766
 31
0.0
  0
POLYLINE
  5
37A8
  8
0
 66
     1
 10
0.0
 20
0.0
 30
0.0
  0
VERTEX
  5
461A
  8
0
 10
157.86407900622331
 20
30.120607801776629
 30
0.0
  0
VERTEX
  5
461B
  8
0
 10
157.88584392257269
 20
30.011540384666041
 30
0.0
  0
VERTEX
  5
461C
  8
0
 10
157.9298953362235
 20
29.790791826306162
 30
0.0
  0
VERTEX
  5
461D
  8
0
 10
157.9746691051387
 20
29.566423432167539
 30
0.0
  0
VERTEX
  5
461E
  8
0
 10
157.99733721484191
 20
29.45282997118591
 30
0.0
  0
SEQEND
  5
461F
  8
0
  0
LINE
  5
37A9
  8
0
 10
158.75602441907819
 20
29.65403343962419
 30
0.0
 11
158.77259547537949
 21
29.600782108281919
 31
0.0
  0
POLYLINE
  5
37AA
  8
0
 66
     1
 10
0.0
 20
0.0
 30
0.0
  0
VERTEX
  5
4620
  8
0
 10
158.77259547537949
 20
29.600782108281951
 30
0.0
  0
VERTEX
  5
4621
  8
0
 10
158.805641810743
 20
29.494587227153382
 30
0.0
  0
VERTEX
  5
4622
  8
0
 10
158.8725264137145
 20
29.27965257906726
 30
0.0
  0
VERTEX
  5
4623
  8
0
 10
158.94050779068391
 20
29.06119343172719
 30
0.0
  0
VERTEX
  5
4624
  8
0
 10
158.9749254720241
 20
28.950591710282652
 30
0.0
  0
SEQEND
  5
4625
  8
0
  0
LINE
  5
37AB
  8
0
 10
159.70842501901291
 20
29.229997372628251
 30
0.0
 11
159.7304715771661
 21
29.178769904700751
 31
0.0
  0
POLYLINE
  5
37AC
  8
0
 66
     1
 10
0.0
 20
0.0
 30
0.0
  0
VERTEX
  5
4626
  8
0
 10
159.7304715771661
 20
29.178769904700719
 30
0.0
  0
VERTEX
  5
4627
  8
0
 10
159.77443726897801
 20
29.076611052894549
 30
0.0
  0
VERTEX
  5
4628
  8
0
 10
159.86342225956369
 20
28.86984518406436
 30
0.0
  0
VERTEX
  5
4629
  8
0
 10
159.95386642639531
 20
28.659688767656519
 30
0.0
  0
VERTEX
  5
462A
  8
0
 10
159.99965659205321
 20
28.553290561354402
 30
0.0
  0
SEQEND
  5
462B
  8
0
  0
LINE
  5
37AD
  8
0
 10
160.69993210726301
 20
28.90783719070123
 30
0.0
 11
160.72721262056331
 21
28.85919484504711
 31
0.0
  0
POLYLINE
  5
37AE
  8
0
 66
     1
 10
0.0
 20
0.0
 30
0.0
  0
VERTEX
  5
462C
  8
0
 10
160.72721262056331
 20
28.859194845047139
 30
0.0
  0
VERTEX
  5
462D
  8
0
 10
160.78161597150381
 20
28.762191296321792
 30
0.0
  0
VERTEX
  5
462E
  8
0
 10
160.89172641152541
 20
28.565859576875258
 30
0.0
  0
VERTEX
  5
462F
  8
0
 10
161.0036424430007
 20
28.366308409076058
 30
0.0
  0
VERTEX
  5
4630
  8
0
 10
161.0603034063393
 20
28.2652794389295
 30
0.0
  0
SEQEND
  5
4631
  8
0
  0
LINE
  5
37AF
  8
0
 10
161.71968252468341
 20
28.691082548212758
 30
0.0
 11
161.7518981021185
 21
28.64555826055016
 31
0.0
  0
POLYLINE
  5
37B0
  8
0
 66
     1
 10
0.0
 20
0.0
 30
0.0
  0
VERTEX
  5
4632
  8
0
 10
161.7518981021185
 20
28.64555826055016
 30
0.0
  0
VERTEX
  5
4633
  8
0
 10
161.81614305768991
 20
28.554772806084831
 30
0.0
  0
VERTEX
  5
4634
  8
0
 10
161.94617255412439
 20
28.371026287425082
 30
0.0
  0
VERTEX
  5
4635
  8
0
 10
162.07833427478269
 20
28.184266692587531
 30
0.0
  0
VERTEX
  5
4636
  8
0
 10
162.14524524643051
 20
28.089713853135411
 30
0.0
  0
SEQEND
  5
4637
  8
0
  0
LINE
  5
37B1
  8
0
 10
162.75650367230429
 20
28.582108254384821
 30
0.0
 11
162.7933013532662
 21
28.540200798335832
 31
0.0
  0
POLYLINE
  5
37B2
  8
0
 66
     1
 10
0.0
 20
0.0
 30
0.0
  0
VERTEX
  5
4638
  8
0
 10
162.7933013532662
 20
28.54020079833586
 30
0.0
  0
VERTEX
  5
4639
  8
0
 10
162.8666840322914
 20
28.456628102567642
 30
0.0
  0
VERTEX
  5
463A
  8
0
 10
163.0152079547654
 20
28.28747995000467
 30
0.0
  0
VERTEX
  5
463B
  8
0
 10
163.16616737313839
 20
28.115558105331871
 30
0.0
  0
VERTEX
  5
463C
  8
0
 10
163.24259526248809
 20
28.028517337269509
 30
0.0
  0
SEQEND
  5
463D
  8
0
  0
LINE
  5
37B3
  8
0
 10
163.79903592066381
 20
28.582108254384789
 30
0.0
 11
163.84001254205941
 21
28.54427677680766
 31
0.0
  0
POLYLINE
  5
37B4
  8
0
 66
     1
 10
0.0
 20
0.0
 30
0.0
  0
VERTEX
  5
463E
  8
0
 10
163.84001254205941
 20
28.54427677680766
 30
0.0
  0
VERTEX
  5
463F
  8
0
 10
163.9217289485504
 20
28.468832479680231
 30
0.0
  0
VERTEX
  5
4640
  8
0
 10
164.08712003788889
 20
28.31613591576988
 30
0.0
  0
VERTEX
  5
4641
  8
0
 10
164.25522321099879
 20
28.160935432968991
 30
0.0
  0
VERTEX
  5
4642
  8
0
 10
164.3403306581009
 20
28.082360373165869
 30
0.0
  0
SEQEND
  5
4643
  8
0
  0
LINE
  5
37B5
  8
0
 10
164.83585706828481
 20
28.691082548212741
 30
0.0
 11
164.8805636816752
 21
28.657741538692591
 31
0.0
  0
POLYLINE
  5
37B6
  8
0
 66
     1
 10
0.0
 20
0.0
 30
0.0
  0
VERTEX
  5
4644
  8
0
 10
164.8805636816752
 20
28.657741538692591
 30
0.0
  0
VERTEX
  5
4645
  8
0
 10
164.96971851358239
 20
28.59125222371296
 30
0.0
  0
VERTEX
  5
4646
  8
0
 10
165.15016471040011
 20
28.456680223963328
 30
0.0
  0
VERTEX
  5
4647
  8
0
 10
165.33356986470429
 20
28.319901512001682
 30
0.0
  0
VERTEX
  5
4648
  8
0
 10
165.42642441455871
 20
28.250653045255831
 30
0.0
  0
SEQEND
  5
4649
  8
0
  0
LINE
  5
37B7
  8
0
 10
165.85560748570521
 20
28.907837190701201
 30
0.0
 11
165.90355427607861
 21
28.879351940315331
 31
0.0
  0
POLYLINE
  5
37B8
  8
0
 66
     1
 10
0.0
 20
0.0
 30
0.0
  0
VERTEX
  5
464A
  8
0
 10
165.90355427607861
 20
28.879351940315299
 30
0.0
  0
VERTEX
  5
464B
  8
0
 10
165.9991707344067
 20
28.822546078332181
 30
0.0
  0
VERTEX
  5
464C
  8
0
 10
166.1926950324106
 20
28.707573041733522
 30
0.0
  0
VERTEX
  5
464D
  8
0
 10
166.38939274265871
 20
28.590714676802179
 30
0.0
  0
VERTEX
  5
464E
  8
0
 10
166.48897706138601
 20
28.531551503806469
 30
0.0
  0
SEQEND
  5
464F
  8
0
  0
LINE
  5
37B9
  8
0
 10
166.8471145739552
 20
29.229997372628159
 30
0.0
 11
166.89777622624291
 21
29.20667997174073
 31
0.0
  0
POLYLINE
  5
37BA
  8
0
 66
     1
 10
0.0
 20
0.0
 30
0.0
  0
VERTEX
  5
4650
  8
0
 10
166.89777622624291
 20
29.20667997174073
 30
0.0
  0
VERTEX
  5
4651
  8
0
 10
166.99880671706549
 20
29.16017993966534
 30
0.0
  0
VERTEX
  5
4652
  8
0
 10
167.203288823549
 20
29.06606553486634
 30
0.0
  0
VERTEX
  5
4653
  8
0
 10
167.41112402846559
 20
28.970407841665718
 30
0.0
  0
VERTEX
  5
4654
  8
0
 10
167.51634704943061
 20
28.92197816652407
 30
0.0
  0
SEQEND
  5
4655
  8
0
  0
LINE
  5
37BB
  8
0
 10
167.79951517388989
 20
29.654033439624161
 30
0.0
 11
167.85233662842771
 21
29.636139358558779
 31
0.0
  0
POLYLINE
  5
37BC
  8
0
 66
     1
 10
0.0
 20
0.0
 30
0.0
  0
VERTEX
  5
4656
  8
0
 10
167.85233662842771
 20
29.636139358558751
 30
0.0
  0
VERTEX
  5
4657
  8
0
 10
167.9576742405452
 20
29.600454620473361
 30
0.0
  0
VERTEX
  5
4658
  8
0
 10
168.17087380675909
 20
29.5282299845876
 30
0.0
  0
VERTEX
  5
4659
  8
0
 10
168.38756942034729
 20
29.454821008821941
 30
0.0
  0
VERTEX
  5
465A
  8
0
 10
168.49727829811269
 20
29.417655437189921
 30
0.0
  0
SEQEND
  5
465B
  8
0
  0
LINE
  5
37BD
  8
0
 10
168.7023745852338
 20
30.175299563803922
 30
0.0
 11
168.75677711911209
 21
30.163024853857198
 31
0.0
  0
POLYLINE
  5
37BE
  8
0
 66
     1
 10
0.0
 20
0.0
 30
0.0
  0
VERTEX
  5
465C
  8
0
 10
168.75677711911209
 20
30.16302485385722
 30
0.0
  0
VERTEX
  5
465D
  8
0
 10
168.865267751603
 20
30.138546379219751
 30
0.0
  0
VERTEX
  5
465E
  8
0
 10
169.08484891848491
 20
30.08900282047205
 30
0.0
  0
VERTEX
  5
465F
  8
0
 10
169.3080307782553
 20
30.038646846241789
 30
0.0
  0
VERTEX
  5
4660
  8
0
 10
169.42102351939849
 20
30.01315257189944
 30
0.0
  0
SEQEND
  5
4661
  8
0
  0
LINE
  5
37BF
  8
0
 10
169.54580089134041
 20
30.788084644428888
 30
0.0
 11
169.6011884590138
 21
30.781563789891809
 31
0.0
  0
POLYLINE
  5
37C0
  8
0
 66
     1
 10
0.0
 20
0.0
 30
0.0
  0
VERTEX
  5
4662
  8
0
 10
169.6011884590138
 20
30.781563789891809
 30
0.0
  0
VERTEX
  5
4663
  8
0
 10
169.71164346580531
 20
30.76855976999283
 30
0.0
  0
VERTEX
  5
4664
  8
0
 10
169.93520045614059
 20
30.742240097980439
 30
0.0
  0
VERTEX
  5
4665
  8
0
 10
170.16242333493389
 20
30.715488835876869
 30
0.0
  0
VERTEX
  5
4666
  8
0
 10
170.2774619673377
 20
30.701945179429
 30
0.0
  0
SEQEND
  5
4667
  8
0
  0
LINE
  5
37C1
  8
0
 10
170.32055333710201
 20
31.4856748799223
 30
0.0
 11
170.37631910078841
 21
31.484979324641671
 31
0.0
  0
POLYLINE
  5
37C2
  8
0
 66
     1
 10
0.0
 20
0.0
 30
0.0
  0
VERTEX
  5
4668
  8
0
 10
170.37631910078841
 20
31.484979324641699
 30
0.0
  0
VERTEX
  5
4669
  8
0
 10
170.48752831371201
 20
31.483592234244469
 30
0.0
  0
VERTEX
  5
466A
  8
0
 10
170.71261179033209
 20
31.480784812801769
 30
0.0
  0
VERTEX
  5
466B
  8
0
 10
170.94138618673881
 20
31.477931355250519
 30
0.0
  0
VERTEX
  5
466C
  8
0
 10
171.05721032307321
 20
31.47648670383137
 30
0.0
  0
SEQEND
  5
466D
  8
0
  0
LINE
  5
37C3
  8
0
 10
171.01814357259551
 20
32.260427325683942
 30
0.0
 11
171.07367655091801
 21
32.265564690308992
 31
0.0
  0
POLYLINE
  5
37C4
  8
0
 66
     1
 10
0.0
 20
0.0
 30
0.0
  0
VERTEX
  5
466E
  8
0
 10
171.07367655091801
 20
32.265564690308992
 30
0.0
  0
VERTEX
  5
466F
  8
0
 10
171.18442153856489
 20
32.275809726666239
 30
0.0
  0
VERTEX
  5
4670
  8
0
 10
171.40856543979839
 20
32.296545314489983
 30
0.0
  0
VERTEX
  5
4671
  8
0
 10
171.63638485365729
 20
32.317620924569127
 30
0.0
  0
VERTEX
  5
4672
  8
0
 10
171.75172550044681
 20
32.328291106081927
 30
0.0
  0
SEQEND
  5
4673
  8
0
  0
LINE
  5
37C5
  8
0
 10
171.63092865322051
 20
33.103853631790663
 30
0.0
 11
171.6856204152478
 21
33.114767630279488
 31
0.0
  0
POLYLINE
  5
37C6
  8
0
 66
     1
 10
0.0
 20
0.0
 30
0.0
  0
VERTEX
  5
4674
  8
0
 10
171.6856204152478
 20
33.114767630279488
 30
0.0
  0
VERTEX
  5
4675
  8
0
 10
171.79468783235831
 20
33.136532546628928
 30
0.0
  0
VERTEX
  5
4676
  8
0
 10
172.01543639071809
 20
33.180583960279741
 30
0.0
  0
VERTEX
  5
4677
  8
0
 10
172.2398047848568
 20
33.225357729194911
 30
0.0
  0
VERTEX
  5
4678
  8
0
 10
172.35339824583849
 20
33.248025838898151
 30
0.0
  0
SEQEND
  5
4679
  8
0
  0
LINE
  5
37C7
  8
0
 10
172.15219477740021
 20
34.006713043134447
 30
0.0
 11
172.20544610874251
 21
34.023284099435699
 31
0.0
  0
POLYLINE
  5
37C8
  8
0
 66
     1
 10
0.0
 20
0.0
 30
0.0
  0
VERTEX
  5
467A
  8
0
 10
172.20544610874251
 20
34.023284099435728
 30
0.0
  0
VERTEX
  5
467B
  8
0
 10
172.31164098987091
 20
34.056330434799207
 30
0.0
  0
VERTEX
  5
467C
  8
0
 10
172.52657563795719
 20
34.123215037770791
 30
0.0
  0
VERTEX
  5
467D
  8
0
 10
172.74503478529741
 20
34.19119641474029
 30
0.0
  0
VERTEX
  5
467E
  8
0
 10
172.8556365067418
 20
34.225614096080363
 30
0.0
  0
SEQEND
  5
467F
  8
0
  0
LINE
  5
37C9
  8
0
 10
172.57623084439621
 20
34.959113643069117
 30
0.0
 11
172.62745831232371
 21
34.981160201222309
 31
0.0
  0
POLYLINE
  5
37CA
  8
0
 66
     1
 10
0.0
 20
0.0
 30
0.0
  0
VERTEX
  5
4680
  8
0
 10
172.62745831232371
 20
34.981160201222309
 30
0.0
  0
VERTEX
  5
4681
  8
0
 10
172.72961716412979
 20
35.025125893034208
 30
0.0
  0
VERTEX
  5
4682
  8
0
 10
172.93638303296009
 20
35.114110883619929
 30
0.0
  0
VERTEX
  5
4683
  8
0
 10
173.14653944936799
 20
35.204555050451603
 30
0.0
  0
VERTEX
  5
4684
  8
0
 10
173.25293765567
 20
35.25034521610943
 30
0.0
  0
SEQEND
  5
4685
  8
0
  0
LINE
  5
37CB
  8
0
 10
172.8983910263232
 20
35.950620731319219
 30
0.0
 11
172.9470333719772
 21
35.977901244619567
 31
0.0
  0
POLYLINE
  5
37CC
  8
0
 66
     1
 10
0.0
 20
0.0
 30
0.0
  0
VERTEX
  5
4686
  8
0
 10
172.9470333719772
 20
35.977901244619609
 30
0.0
  0
VERTEX
  5
4687
  8
0
 10
173.04403692070261
 20
36.032304595560113
 30
0.0
  0
VERTEX
  5
4688
  8
0
 10
173.24036864014909
 20
36.142415035581649
 30
0.0
  0
VERTEX
  5
4689
  8
0
 10
173.43991980794831
 20
36.254331067056967
 30
0.0
  0
VERTEX
  5
468A
  8
0
 10
173.5409487780949
 20
36.310992030395568
 30
0.0
  0
SEQEND
  5
468B
  8
0
  0
LINE
  5
37CD
  8
0
 10
173.11514566881161
 20
36.970371148739638
 30
0.0
 11
173.16066995647421
 21
37.002586726174712
 31
0.0
  0
POLYLINE
  5
37CE
  8
0
 66
     1
 10
0.0
 20
0.0
 30
0.0
  0
VERTEX
  5
468C
  8
0
 10
173.16066995647421
 20
37.002586726174712
 30
0.0
  0
VERTEX
  5
468D
  8
0
 10
173.25145541093951
 20
37.066831681746152
 30
0.0
  0
VERTEX
  5
468E
  8
0
 10
173.4352019295994
 20
37.19686117818074
 30
0.0
  0
VERTEX
  5
468F
  8
0
 10
173.62196152443701
 20
37.329022898839071
 30
0.0
  0
VERTEX
  5
4690
  8
0
 10
173.71651436388899
 20
37.395933870486772
 30
0.0
  0
SEQEND
  5
4691
  8
0
  0
LINE
  5
37CF
  8
0
 10
173.22411996263961
 20
38.007192296360621
 30
0.0
 11
173.26602741868851
 21
38.043989977322411
 31
0.0
  0
POLYLINE
  5
37D0
  8
0
 66
     1
 10
0.0
 20
0.0
 30
0.0
  0
VERTEX
  5
4692
  8
0
 10
173.26602741868851
 20
38.04398997732244
 30
0.0
  0
VERTEX
  5
4693
  8
0
 10
173.34960011445659
 20
38.117372656347499
 30
0.0
  0
VERTEX
  5
4694
  8
0
 10
173.5187482670197
 20
38.265896578821668
 30
0.0
  0
VERTEX
  5
4695
  8
0
 10
173.69067011169261
 20
38.41685599719478
 30
0.0
  0
VERTEX
  5
4696
  8
0
 10
173.77771087975489
 20
38.493283886544361
 30
0.0
  0
SEQEND
  5
4697
  8
0
  0
LINE
  5
37D1
  8
0
 10
173.22411996263961
 20
39.049724544720078
 30
0.0
 11
173.26195144021671
 21
39.090701166115622
 31
0.0
  0
POLYLINE
  5
37D2
  8
0
 66
     1
 10
0.0
 20
0.0
 30
0.0
  0
VERTEX
  5
4698
  8
0
 10
173.26195144021671
 20
39.090701166115622
 30
0.0
  0
VERTEX
  5
4699
  8
0
 10
173.3373957373442
 20
39.17241757260669
 30
0.0
  0
VERTEX
  5
469A
  8
0
 10
173.49009230125449
 20
39.337808661945161
 30
0.0
  0
VERTEX
  5
469B
  8
0
 10
173.64529278405541
 20
39.505911835055031
 30
0.0
  0
VERTEX
  5
469C
  8
0
 10
173.7238678438585
 20
39.591019282157163
 30
0.0
  0
SEQEND
  5
469D
  8
0
  0
LINE
  5
37D3
  8
0
 10
173.11514566881161
 20
40.086545692340977
 30
0.0
 11
173.14848667833181
 21
40.131252305731401
 31
0.0
  0
POLYLINE
  5
37D4
  8
0
 66
     1
 10
0.0
 20
0.0
 30
0.0
  0
VERTEX
  5
469E
  8
0
 10
173.14848667833181
 20
40.131252305731401
 30
0.0
  0
VERTEX
  5
469F
  8
0
 10
173.2149759933115
 20
40.220407137638709
 30
0.0
  0
VERTEX
  5
46A0
  8
0
 10
173.34954799306109
 20
40.400853334456343
 30
0.0
  0
VERTEX
  5
46A1
  8
0
 10
173.48632670502261
 20
40.584258488760469
 30
0.0
  0
VERTEX
  5
46A2
  8
0
 10
173.55557517176851
 20
40.67711303861492
 30
0.0
  0
SEQEND
  5
46A3
  8
0
  0
LINE
  5
37D5
  8
0
 10
172.8983910263232
 20
41.106296109761409
 30
0.0
 11
172.92687627670909
 21
41.154242900134903
 31
0.0
  0
POLYLINE
  5
37D6
  8
0
 66
     1
 10
0.0
 20
0.0
 30
0.0
  0
VERTEX
  5
46A4
  8
0
 10
172.92687627670909
 20
41.154242900134868
 30
0.0
  0
VERTEX
  5
46A5
  8
0
 10
172.98368213869219
 20
41.249859358463027
 30
0.0
  0
VERTEX
  5
46A6
  8
0
 10
173.09865517529079
 20
41.443383656466828
 30
0.0
  0
VERTEX
  5
46A7
  8
0
 10
173.2155135402221
 20
41.640081366714831
 30
0.0
  0
VERTEX
  5
46A8
  8
0
 10
173.2746767132179
 20
41.739665685442183
 30
0.0
  0
SEQEND
  5
46A9
  8
0
  0
LINE
  5
37D7
  8
0
 10
172.57623084439621
 20
42.097803198011519
 30
0.0
 11
172.5995482452837
 21
42.148464850299177
 31
0.0
  0
POLYLINE
  5
37D8
  8
0
 66
     1
 10
0.0
 20
0.0
 30
0.0
  0
VERTEX
  5
46AA
  8
0
 10
172.5995482452837
 20
42.148464850299177
 30
0.0
  0
VERTEX
  5
46AB
  8
0
 10
172.646048277359
 20
42.249495341121673
 30
0.0
  0
VERTEX
  5
46AC
  8
0
 10
172.74016268215809
 20
42.45397744760524
 30
0.0
  0
VERTEX
  5
46AD
  8
0
 10
172.83582037535871
 20
42.661812652522023
 30
0.0
  0
VERTEX
  5
46AE
  8
0
 10
172.8842500505003
 20
42.767035673486838
 30
0.0
  0
SEQEND
  5
46AF
  8
0
  0
LINE
  5
37D9
  8
0
 10
172.15219477740021
 20
43.050203797946182
 30
0.0
 11
172.17008885846559
 21
43.103025252484002
 31
0.0
  0
POLYLINE
  5
37DA
  8
0
 66
     1
 10
0.0
 20
0.0
 30
0.0
  0
VERTEX
  5
46B0
  8
0
 10
172.17008885846559
 20
43.103025252483967
 30
0.0
  0
VERTEX
  5
46B1
  8
0
 10
172.20577359655101
 20
43.20836286460144
 30
0.0
  0
VERTEX
  5
46B2
  8
0
 10
172.2779982324368
 20
43.421562430815392
 30
0.0
  0
VERTEX
  5
46B3
  8
0
 10
172.3514072082024
 20
43.638258044403521
 30
0.0
  0
VERTEX
  5
46B4
  8
0
 10
172.3885727798345
 20
43.747966922168921
 30
0.0
  0
SEQEND
  5
46B5
  8
0
  0
LINE
  5
37DB
  8
0
 10
171.63092865322051
 20
43.953063209289972
 30
0.0
 11
171.6432033631672
 21
44.007465743168353
 31
0.0
  0
POLYLINE
  5
37DC
  8
0
 66
     1
 10
0.0
 20
0.0
 30
0.0
  0
VERTEX
  5
46B6
  8
0
 10
171.6432033631672
 20
44.007465743168353
 30
0.0
  0
VERTEX
  5
46B7
  8
0
 10
171.66768183780459
 20
44.115956375659287
 30
0.0
  0
VERTEX
  5
46B8
  8
0
 10
171.71722539655229
 20
44.335537542541118
 30
0.0
  0
VERTEX
  5
46B9
  8
0
 10
171.76758137078261
 20
44.558719402311482
 30
0.0
  0
VERTEX
  5
46BA
  8
0
 10
171.7930756451249
 20
44.671712143454812
 30
0.0
  0
SEQEND
  5
46BB
  8
0
  0
LINE
  5
37DD
  8
0
 10
171.01814357259551
 20
44.796489515396701
 30
0.0
 11
171.02466442713259
 21
44.851877083070029
 31
0.0
  0
POLYLINE
  5
37DE
  8
0
 66
     1
 10
0.0
 20
0.0
 30
0.0
  0
VERTEX
  5
46BC
  8
0
 10
171.02466442713259
 20
44.851877083070029
 30
0.0
  0
VERTEX
  5
46BD
  8
0
 10
171.03766844703159
 20
44.962332089861633
 30
0.0
  0
VERTEX
  5
46BE
  8
0
 10
171.06398811904401
 20
45.185889080196858
 30
0.0
  0
VERTEX
  5
46BF
  8
0
 10
171.0907393811475
 20
45.4131119589901
 30
0.0
  0
VERTEX
  5
46C0
  8
0
 10
171.10428303759539
 20
45.528150591393903
 30
0.0
  0
SEQEND
  5
46C1
  8
0
  0
LINE
  5
37DF
  8
0
 10
170.32055333710201
 20
45.571241961158329
 30
0.0
 11
170.3212488923827
 21
45.62700772484461
 31
0.0
  0
POLYLINE
  5
37E0
  8
0
 66
     1
 10
0.0
 20
0.0
 30
0.0
  0
VERTEX
  5
46C2
  8
0
 10
170.3212488923827
 20
45.62700772484461
 30
0.0
  0
VERTEX
  5
46C3
  8
0
 10
170.3226359827799
 20
45.7382169377683
 30
0.0
  0
VERTEX
  5
46C4
  8
0
 10
170.3254434042226
 20
45.963300414388392
 30
0.0
  0
VERTEX
  5
46C5
  8
0
 10
170.32829686177391
 20
46.192074810794999
 30
0.0
  0
VERTEX
  5
46C6
  8
0
 10
170.329741513193
 20
46.307898947129416
 30
0.0
  0
SEQEND
  5
46C7
  8
0
  0
LINE
  5
37E1
  8
0
 10
169.54580089134049
 20
46.268832196651758
 30
0.0
 11
169.54066352671541
 21
46.324365174974311
 31
0.0
  0
POLYLINE
  5
37E2
  8
0
 66
     1
 10
0.0
 20
0.0
 30
0.0
  0
VERTEX
  5
46C8
  8
0
 10
169.54066352671541
 20
46.324365174974311
 30
0.0
  0
VERTEX
  5
46C9
  8
0
 10
169.5304184903581
 20
46.435110162621228
 30
0.0
  0
VERTEX
  5
46CA
  8
0
 10
169.50968290253439
 20
46.659254063854704
 30
0.0
  0
VERTEX
  5
46CB
  8
0
 10
169.4886072924553
 20
46.887073477713543
 30
0.0
  0
VERTEX
  5
46CC
  8
0
 10
169.47793711094249
 20
47.002414124503026
 30
0.0
  0
SEQEND
  5
46CD
  8
0
  0
LINE
  5
37E3
  8
0
 10
168.7023745852338
 20
46.881617277276732
 30
0.0
 11
168.69146058674491
 21
46.936309039304021
 31
0.0
  0
POLYLINE
  5
37E4
  8
0
 66
     1
 10
0.0
 20
0.0
 30
0.0
  0
VERTEX
  5
46CE
  8
0
 10
168.69146058674491
 20
46.936309039304021
 30
0.0
  0
VERTEX
  5
46CF
  8
0
 10
168.66969567039541
 20
47.045376456414502
 30
0.0
  0
VERTEX
  5
46D0
  8
0
 10
168.62564425674469
 20
47.266125014774317
 30
0.0
  0
VERTEX
  5
46D1
  8
0
 10
168.58087048782949
 20
47.490493408913032
 30
0.0
  0
VERTEX
  5
46D2
  8
0
 10
168.55820237812631
 20
47.604086869894772
 30
0.0
  0
SEQEND
  5
46D3
  8
0
  0
LINE
  5
37E5
  8
0
 10
167.79951517388989
 20
47.402883401456492
 30
0.0
 11
167.78294411758861
 21
47.456134732798759
 31
0.0
  0
POLYLINE
  5
37E6
  8
0
 66
     1
 10
0.0
 20
0.0
 30
0.0
  0
VERTEX
  5
46D4
  8
0
 10
167.78294411758861
 20
47.456134732798731
 30
0.0
  0
VERTEX
  5
46D5
  8
0
 10
167.7498977822251
 20
47.562329613927297
 30
0.0
  0
VERTEX
  5
46D6
  8
0
 10
167.68301317925361
 20
47.777264262013503
 30
0.0
  0
VERTEX
  5
46D7
  8
0
 10
167.61503180228411
 20
47.995723409353602
 30
0.0
  0
VERTEX
  5
46D8
  8
0
 10
167.58061412094401
 20
48.10632513079802
 30
0.0
  0
SEQEND
  5
46D9
  8
0
  0
LINE
  5
37E7
  8
0
 10
166.8471145739552
 20
47.826919468452488
 30
0.0
 11
166.82506801580209
 21
47.878146936379927
 31
0.0
  0
POLYLINE
  5
37E8
  8
0
 66
     1
 10
0.0
 20
0.0
 30
0.0
  0
VERTEX
  5
46DA
  8
0
 10
166.82506801580209
 20
47.878146936379927
 30
0.0
  0
VERTEX
  5
46DB
  8
0
 10
166.7811023239903
 20
47.980305788185873
 30
0.0
  0
VERTEX
  5
46DC
  8
0
 10
166.6921173334045
 20
48.187071657016119
 30
0.0
  0
VERTEX
  5
46DD
  8
0
 10
166.60167316657279
 20
48.397228073424159
 30
0.0
  0
VERTEX
  5
46DE
  8
0
 10
166.55588300091489
 20
48.503626279726248
 30
0.0
  0
SEQEND
  5
46DF
  8
0
  0
LINE
  5
37E9
  8
0
 10
165.85560748570521
 20
48.149079650379448
 30
0.0
 11
165.8283269724048
 21
48.197721996033508
 31
0.0
  0
POLYLINE
  5
37EA
  8
0
 66
     1
 10
0.0
 20
0.0
 30
0.0
  0
VERTEX
  5
46E0
  8
0
 10
165.8283269724048
 20
48.197721996033508
 30
0.0
  0
VERTEX
  5
46E1
  8
0
 10
165.77392362146441
 20
48.294725544758627
 30
0.0
  0
VERTEX
  5
46E2
  8
0
 10
165.66381318144269
 20
48.491057264205452
 30
0.0
  0
VERTEX
  5
46E3
  8
0
 10
165.5518971499672
 20
48.6906084320049
 30
0.0
  0
VERTEX
  5
46E4
  8
0
 10
165.4952361866288
 20
48.79163740215116
 30
0.0
  0
SEQEND
  5
46E5
  8
0
  0
LINE
  5
37EB
  8
0
 10
164.83585706828481
 20
48.365834292867909
 30
0.0
 11
164.80364149084971
 21
48.411358580530518
 31
0.0
  0
POLYLINE
  5
37EC
  8
0
 66
     1
 10
0.0
 20
0.0
 30
0.0
  0
VERTEX
  5
46E6
  8
0
 10
164.80364149084971
 20
48.411358580530518
 30
0.0
  0
VERTEX
  5
46E7
  8
0
 10
164.7393965352783
 20
48.50214403499568
 30
0.0
  0
VERTEX
  5
46E8
  8
0
 10
164.60936703884369
 20
48.685890553655533
 30
0.0
  0
VERTEX
  5
46E9
  8
0
 10
164.4772053181853
 20
48.872650148493207
 30
0.0
  0
VERTEX
  5
46EA
  8
0
 10
164.4102943465376
 20
48.967202987945271
 30
0.0
  0
SEQEND
  5
46EB
  8
0
  0
LINE
  5
37ED
  8
0
 10
163.79903592066381
 20
48.474808586695858
 30
0.0
 11
163.7622382397019
 21
48.516716042744847
 31
0.0
  0
POLYLINE
  5
37EE
  8
0
 66
     1
 10
0.0
 20
0.0
 30
0.0
  0
VERTEX
  5
46EC
  8
0
 10
163.7622382397019
 20
48.516716042744818
 30
0.0
  0
VERTEX
  5
46ED
  8
0
 10
163.68962770734919
 20
48.599409370523212
 30
0.0
  0
VERTEX
  5
46EE
  8
0
 10
163.54268530257639
 20
48.766756393726311
 30
0.0
  0
VERTEX
  5
46EF
  8
0
 10
163.3933598915084
 20
48.936817330658961
 30
0.0
  0
VERTEX
  5
46F0
  8
0
 10
163.31776979648399
 20
49.022903967157909
 30
0.0
  0
SEQEND
  5
46F1
  8
0
  0
LINE
  5
37EF
  8
0
 10
163.31776979648399
 20
49.022903966174489
 30
0.0
 11
163.31776979648399
 21
49.028382229787709
 31
0.0
  0
LINE
  5
37F0
  8
0
 10
162.7933013532662
 20
48.516716042744847
 30
0.0
 11
162.75650367230429
 21
48.474808586695858
 31
0.0
  0
POLYLINE
  5
37F1
  8
0
 66
     1
 10
0.0
 20
0.0
 30
0.0
  0
VERTEX
  5
46F2
  8
0
 10
163.23776979648409
 20
49.022903967157909
 30
0.0
  0
VERTEX
  5
46F3
  8
0
 10
163.16217970145971
 20
48.936817330658997
 30
0.0
  0
VERTEX
  5
46F4
  8
0
 10
163.0128542903918
 20
48.766756393726311
 30
0.0
  0
VERTEX
  5
46F5
  8
0
 10
162.86591188561891
 20
48.599409370523162
 30
0.0
  0
VERTEX
  5
46F6
  8
0
 10
162.7933013532662
 20
48.516716042744818
 30
0.0
  0
SEQEND
  5
46F7
  8
0
  0
LINE
  5
37F2
  8
0
 10
163.23776979648409
 20
49.028382229787709
 30
0.0
 11
163.23776979648409
 21
49.022903966174489
 31
0.0
  0
POLYLINE
  5
37F3
  8
0
 66
     1
 10
0.0
 20
0.0
 30
0.0
  0
VERTEX
  5
46F8
  8
0
 10
162.14524524643051
 20
48.967202987945271
 30
0.0
  0
VERTEX
  5
46F9
  8
0
 10
162.0783342747828
 20
48.872650148493207
 30
0.0
  0
VERTEX
  5
46FA
  8
0
 10
161.94617255412439
 20
48.685890553655568
 30
0.0
  0
VERTEX
  5
46FB
  8
0
 10
161.81614305768991
 20
48.502144034995737
 30
0.0
  0
VERTEX
  5
46FC
  8
0
 10
161.7518981021185
 20
48.411358580530518
 30
0.0
  0
SEQEND
  5
46FD
  8
0
  0
LINE
  5
37F4
  8
0
 10
161.7518981021185
 20
48.411358580530518
 30
0.0
 11
161.71968252468341
 21
48.365834292867859
 31
0.0
  0
POLYLINE
  5
37F5
  8
0
 66
     1
 10
0.0
 20
0.0
 30
0.0
  0
VERTEX
  5
46FE
  8
0
 10
161.0603034063393
 20
48.79163740215116
 30
0.0
  0
VERTEX
  5
46FF
  8
0
 10
161.00364244300081
 20
48.690608432004652
 30
0.0
  0
VERTEX
  5
4700
  8
0
 10
160.89172641152541
 20
48.49105726420543
 30
0.0
  0
VERTEX
  5
4701
  8
0
 10
160.78161597150381
 20
48.29472554475889
 30
0.0
  0
VERTEX
  5
4702
  8
0
 10
160.72721262056339
 20
48.197721996033529
 30
0.0
  0
SEQEND
  5
4703
  8
0
  0
LINE
  5
37F6
  8
0
 10
160.72721262056339
 20
48.197721996033557
 30
0.0
 11
160.69993210726301
 21
48.149079650379448
 31
0.0
  0
POLYLINE
  5
37F7
  8
0
 66
     1
 10
0.0
 20
0.0
 30
0.0
  0
VERTEX
  5
4704
  8
0
 10
159.99965659205321
 20
48.503626279726276
 30
0.0
  0
VERTEX
  5
4705
  8
0
 10
159.95386642639539
 20
48.397228073424181
 30
0.0
  0
VERTEX
  5
4706
  8
0
 10
159.86342225956361
 20
48.18707165701629
 30
0.0
  0
VERTEX
  5
4707
  8
0
 10
159.77443726897789
 20
47.980305788186037
 30
0.0
  0
VERTEX
  5
4708
  8
0
 10
159.7304715771661
 20
47.878146936379963
 30
0.0
  0
SEQEND
  5
4709
  8
0
  0
LINE
  5
37F8
  8
0
 10
159.7304715771661
 20
47.878146936379927
 30
0.0
 11
159.70842501901291
 21
47.826919468452417
 31
0.0
  0
POLYLINE
  5
37F9
  8
0
 66
     1
 10
0.0
 20
0.0
 30
0.0
  0
VERTEX
  5
470A
  8
0
 10
158.9749254720241
 20
48.10632513079802
 30
0.0
  0
VERTEX
  5
470B
  8
0
 10
158.94050779068399
 20
47.99572340935363
 30
0.0
  0
VERTEX
  5
470C
  8
0
 10
158.8725264137145
 20
47.777264262013418
 30
0.0
  0
VERTEX
  5
470D
  8
0
 10
158.805641810743
 20
47.56232961392719
 30
0.0
  0
VERTEX
  5
470E
  8
0
 10
158.77259547537949
 20
47.456134732798731
 30
0.0
  0
SEQEND
  5
470F
  8
0
  0
LINE
  5
37FA
  8
0
 10
158.77259547537949
 20
47.456134732798759
 30
0.0
 11
158.75602441907819
 21
47.402883401456428
 31
0.0
  0
POLYLINE
  5
37FB
  8
0
 66
     1
 10
0.0
 20
0.0
 30
0.0
  0
VERTEX
  5
4710
  8
0
 10
157.99733721484191
 20
47.604086869894772
 30
0.0
  0
VERTEX
  5
4711
  8
0
 10
157.9746691051387
 20
47.490493408913132
 30
0.0
  0
VERTEX
  5
4712
  8
0
 10
157.9298953362235
 20
47.266125014774538
 30
0.0
  0
VERTEX
  5
4713
  8
0
 10
157.88584392257269
 20
47.045376456414637
 30
0.0
  0
VERTEX
  5
4714
  8
0
 10
157.86407900622331
 20
46.936309039304042
 30
0.0
  0
SEQEND
  5
4715
  8
0
  0
LINE
  5
37FC
  8
0
 10
157.86407900622331
 20
46.936309039304071
 30
0.0
 11
157.85316500773439
 21
46.881617277276732
 31
0.0
  0
POLYLINE
  5
37FD
  8
0
 66
     1
 10
0.0
 20
0.0
 30
0.0
  0
VERTEX
  5
4716
  8
0
 10
157.0776024820257
 20
47.002414124503026
 30
0.0
  0
VERTEX
  5
4717
  8
0
 10
157.06693230051289
 20
46.887073477713571
 30
0.0
  0
VERTEX
  5
4718
  8
0
 10
157.04585669043371
 20
46.659254063854682
 30
0.0
  0
VERTEX
  5
4719
  8
0
 10
157.02512110261
 20
46.435110162621172
 30
0.0
  0
VERTEX
  5
471A
  8
0
 10
157.01487606625281
 20
46.324365174974311
 30
0.0
  0
SEQEND
  5
471B
  8
0
  0
LINE
  5
37FE
  8
0
 10
157.01487606625281
 20
46.324365174974311
 30
0.0
 11
157.0097387016277
 21
46.268832196651687
 31
0.0
  0
POLYLINE
  5
37FF
  8
0
 66
     1
 10
0.0
 20
0.0
 30
0.0
  0
VERTEX
  5
471C
  8
0
 10
156.2257980797751
 20
46.307898947129416
 30
0.0
  0
VERTEX
  5
471D
  8
0
 10
156.22724273119431
 20
46.192074810795077
 30
0.0
  0
VERTEX
  5
471E
  8
0
 10
156.23009618874551
 20
45.963300414388407
 30
0.0
  0
VERTEX
  5
471F
  8
0
 10
156.2329036101882
 20
45.738216937768271
 30
0.0
  0
VERTEX
  5
4720
  8
0
 10
156.2342907005854
 20
45.627007724844638
 30
0.0
  0
SEQEND
  5
4721
  8
0
  0
LINE
  5
3800
  8
0
 10
156.2342907005854
 20
45.627007724844638
 30
0.0
 11
156.23498625586609
 21
45.571241961158307
 31
0.0
  0
POLYLINE
  5
3801
  8
0
 66
     1
 10
0.0
 20
0.0
 30
0.0
  0
VERTEX
  5
4722
  8
0
 10
155.45125655537279
 20
45.528150591393967
 30
0.0
  0
VERTEX
  5
4723
  8
0
 10
155.4648002118206
 20
45.413111958990193
 30
0.0
  0
VERTEX
  5
4724
  8
0
 10
155.4915514739242
 20
45.185889080196887
 30
0.0
  0
VERTEX
  5
4725
  8
0
 10
155.51787114593651
 20
44.962332089861661
 30
0.0
  0
VERTEX
  5
4726
  8
0
 10
155.5308751658356
 20
44.851877083070093
 30
0.0
  0
SEQEND
  5
4727
  8
0
  0
LINE
  5
3802
  8
0
 10
155.5308751658356
 20
44.851877083070057
 30
0.0
 11
155.53739602037271
 21
44.796489515396722
 31
0.0
  0
POLYLINE
  5
3803
  8
0
 66
     1
 10
0.0
 20
0.0
 30
0.0
  0
VERTEX
  5
4728
  8
0
 10
154.7747386577899
 20
44.617309609576438
 30
0.0
  0
VERTEX
  5
4729
  8
0
 10
154.80023293213219
 20
44.504316868433278
 30
0.0
  0
VERTEX
  5
472A
  8
0
 10
154.8505889063625
 20
44.281135008662851
 30
0.0
  0
VERTEX
  5
472B
  8
0
 10
154.9001324651102
 20
44.061553841780857
 30
0.0
  0
VERTEX
  5
472C
  8
0
 10
154.92461093974771
 20
43.953063209290008
 30
0.0
  0
SEQEND
  5
472D
  8
0
  0
LINE
  5
3804
  8
0
 10
154.91233622980101
 20
44.007465743168382
 30
0.0
 11
154.92461093974771
 21
43.953063209290008
 31
0.0
  0
POLYLINE
  5
3805
  8
0
 66
     1
 10
0.0
 20
0.0
 30
0.0
  0
VERTEX
  5
472E
  8
0
 10
154.16696681313371
 20
43.747966922168978
 30
0.0
  0
VERTEX
  5
472F
  8
0
 10
154.20413238476581
 20
43.638258044403408
 30
0.0
  0
VERTEX
  5
4730
  8
0
 10
154.27754136053139
 20
43.421562430815349
 30
0.0
  0
VERTEX
  5
4731
  8
0
 10
154.34976599641709
 20
43.208362864601547
 30
0.0
  0
VERTEX
  5
4732
  8
0
 10
154.38545073450251
 20
43.103025252484031
 30
0.0
  0
SEQEND
  5
4733
  8
0
  0
LINE
  5
3806
  8
0
 10
154.38545073450251
 20
43.103025252484031
 30
0.0
 11
154.40334481556789
 21
43.05020379794621
 31
0.0
  0
POLYLINE
  5
3807
  8
0
 66
     1
 10
0.0
 20
0.0
 30
0.0
  0
VERTEX
  5
4734
  8
0
 10
153.6712895424678
 20
42.767035673486902
 30
0.0
  0
VERTEX
  5
4735
  8
0
 10
153.71971921760939
 20
42.661812652522087
 30
0.0
  0
VERTEX
  5
4736
  8
0
 10
153.8153769108101
 20
42.453977447605347
 30
0.0
  0
VERTEX
  5
4737
  8
0
 10
153.9094913156091
 20
42.249495341121758
 30
0.0
  0
VERTEX
  5
4738
  8
0
 10
153.95599134768449
 20
42.148464850299199
 30
0.0
  0
SEQEND
  5
4739
  8
0
  0
LINE
  5
3808
  8
0
 10
153.95599134768449
 20
42.148464850299199
 30
0.0
 11
153.9793087485719
 21
42.09780319801154
 31
0.0
  0
POLYLINE
  5
3809
  8
0
 66
     1
 10
0.0
 20
0.0
 30
0.0
  0
VERTEX
  5
473A
  8
0
 10
153.2808628797502
 20
41.739665685442219
 30
0.0
  0
VERTEX
  5
473B
  8
0
 10
153.340026052746
 20
41.640081366714902
 30
0.0
  0
VERTEX
  5
473C
  8
0
 10
153.45688441767729
 20
41.443383656466892
 30
0.0
  0
VERTEX
  5
473D
  8
0
 10
153.57185745427589
 20
41.249859358463077
 30
0.0
  0
VERTEX
  5
473E
  8
0
 10
153.62866331625901
 20
41.154242900134932
 30
0.0
  0
SEQEND
  5
473F
  8
0
  0
LINE
  5
380A
  8
0
 10
153.62866331625901
 20
41.154242900134932
 30
0.0
 11
153.65714856664499
 21
41.106296109761438
 31
0.0
  0
POLYLINE
  5
380B
  8
0
 66
     1
 10
0.0
 20
0.0
 30
0.0
  0
VERTEX
  5
4740
  8
0
 10
152.99996442119959
 20
40.677113038614969
 30
0.0
  0
VERTEX
  5
4741
  8
0
 10
153.0692128879455
 20
40.584258488760661
 30
0.0
  0
VERTEX
  5
4742
  8
0
 10
153.20599159990709
 20
40.4008533344564
 30
0.0
  0
VERTEX
  5
4743
  8
0
 10
153.34056359965669
 20
40.220407137638631
 30
0.0
  0
VERTEX
  5
4744
  8
0
 10
153.4070529146363
 20
40.131252305731458
 30
0.0
  0
SEQEND
  5
4745
  8
0
  0
LINE
  5
380C
  8
0
 10
153.4070529146363
 20
40.131252305731437
 30
0.0
 11
153.4403939241565
 21
40.086545692341019
 31
0.0
  0
POLYLINE
  5
380D
  8
0
 66
     1
 10
0.0
 20
0.0
 30
0.0
  0
VERTEX
  5
4746
  8
0
 10
152.8316717491096
 20
39.591019282157191
 30
0.0
  0
VERTEX
  5
4747
  8
0
 10
152.9102468089126
 20
39.505911835055201
 30
0.0
  0
VERTEX
  5
4748
  8
0
 10
153.06544729171361
 20
39.337808661945303
 30
0.0
  0
VERTEX
  5
4749
  8
0
 10
153.21814385562399
 20
39.17241757260669
 30
0.0
  0
VERTEX
  5
474A
  8
0
 10
153.2935881527514
 20
39.09070116611565
 30
0.0
  0
SEQEND
  5
474B
  8
0
  0
LINE
  5
380E
  8
0
 10
153.2935881527514
 20
39.09070116611565
 30
0.0
 11
153.3314196303285
 21
39.04972454472005
 31
0.0
  0
POLYLINE
  5
380F
  8
0
 66
     1
 10
0.0
 20
0.0
 30
0.0
  0
VERTEX
  5
474C
  8
0
 10
152.7778287132133
 20
38.49328388654439
 30
0.0
  0
VERTEX
  5
474D
  8
0
 10
152.86486948127549
 20
38.416855997194858
 30
0.0
  0
VERTEX
  5
474E
  8
0
 10
153.0367913259484
 20
38.265896578821703
 30
0.0
  0
VERTEX
  5
474F
  8
0
 10
153.20593947851151
 20
38.117372656347527
 30
0.0
  0
VERTEX
  5
4750
  8
0
 10
153.28951217427959
 20
38.043989977322497
 30
0.0
  0
SEQEND
  5
4751
  8
0
  0
LINE
  5
3810
  8
0
 10
153.28951217427959
 20
38.043989977322497
 30
0.0
 11
153.3314196303285
 21
38.007192296360579
 31
0.0
  0
POLYLINE
  5
3811
  8
0
 66
     1
 10
0.0
 20
0.0
 30
0.0
  0
VERTEX
  5
4752
  8
0
 10
152.83902522907911
 20
37.3959338704868
 30
0.0
  0
VERTEX
  5
4753
  8
0
 10
152.93357806853129
 20
37.32902289883905
 30
0.0
  0
VERTEX
  5
4754
  8
0
 10
153.12033766336879
 20
37.19686117818074
 30
0.0
  0
VERTEX
  5
4755
  8
0
 10
153.30408418202859
 20
37.066831681746208
 30
0.0
  0
VERTEX
  5
4756
  8
0
 10
153.39486963649389
 20
37.002586726174741
 30
0.0
  0
SEQEND
  5
4757
  8
0
  0
LINE
  5
3812
  8
0
 10
153.39486963649389
 20
37.002586726174741
 30
0.0
 11
153.4403939241565
 21
36.97037114873968
 31
0.0
  0
POLYLINE
  5
3813
  8
0
 66
     1
 10
0.0
 20
0.0
 30
0.0
  0
VERTEX
  5
4758
  8
0
 10
153.0145908148732
 20
36.310992030395603
 30
0.0
  0
VERTEX
  5
4759
  8
0
 10
153.1156197850197
 20
36.254331067057031
 30
0.0
  0
VERTEX
  5
475A
  8
0
 10
153.31517095281899
 20
36.142415035581678
 30
0.0
  0
VERTEX
  5
475B
  8
0
 10
153.51150267226561
 20
36.032304595560113
 30
0.0
  0
VERTEX
  5
475C
  8
0
 10
153.60850622099079
 20
35.977901244619659
 30
0.0
  0
SEQEND
  5
475D
  8
0
  0
LINE
  5
3814
  8
0
 10
153.60850622099079
 20
35.977901244619659
 30
0.0
 11
153.65714856664499
 21
35.950620731319248
 31
0.0
  0
POLYLINE
  5
3815
  8
0
 66
     1
 10
0.0
 20
0.0
 30
0.0
  0
VERTEX
  5
475E
  8
0
 10
153.30260193729811
 20
35.25034521610948
 30
0.0
  0
VERTEX
  5
475F
  8
0
 10
153.40900014360039
 20
35.204555050451553
 30
0.0
  0
VERTEX
  5
4760
  8
0
 10
153.61915656000821
 20
35.114110883619901
 30
0.0
  0
VERTEX
  5
4761
  8
0
 10
153.82592242883831
 20
35.025125893034271
 30
0.0
  0
VERTEX
  5
4762
  8
0
 10
153.92808128064439
 20
34.981160201222337
 30
0.0
  0
SEQEND
  5
4763
  8
0
  0
LINE
  5
3816
  8
0
 10
153.92808128064439
 20
34.981160201222337
 30
0.0
 11
153.9793087485719
 21
34.959113643069152
 31
0.0
  0
POLYLINE
  5
3817
  8
0
 66
     1
 10
0.0
 20
0.0
 30
0.0
  0
VERTEX
  5
4764
  8
0
 10
153.6999030862263
 20
34.225614096080392
 30
0.0
  0
VERTEX
  5
4765
  8
0
 10
153.8105048076709
 20
34.191196414740261
 30
0.0
  0
VERTEX
  5
4766
  8
0
 10
154.02896395501099
 20
34.123215037770819
 30
0.0
  0
VERTEX
  5
4767
  8
0
 10
154.24389860309711
 20
34.056330434799293
 30
0.0
  0
VERTEX
  5
4768
  8
0
 10
154.3500934842256
 20
34.023284099435763
 30
0.0
  0
SEQEND
  5
4769
  8
0
  0
LINE
  5
3818
  8
0
 10
154.3500934842256
 20
34.023284099435728
 30
0.0
 11
154.40334481556789
 21
34.006713043134482
 31
0.0
  0
POLYLINE
  5
3819
  8
0
 66
     1
 10
0.0
 20
0.0
 30
0.0
  0
VERTEX
  5
476A
  8
0
 10
154.20214134712961
 20
33.248025838898172
 30
0.0
  0
VERTEX
  5
476B
  8
0
 10
154.3157348081113
 20
33.22535772919494
 30
0.0
  0
VERTEX
  5
476C
  8
0
 10
154.54010320225001
 20
33.180583960279762
 30
0.0
  0
VERTEX
  5
476D
  8
0
 10
154.7608517606098
 20
33.136532546628963
 30
0.0
  0
VERTEX
  5
476E
  8
0
 10
154.86991917772031
 20
33.114767630279538
 30
0.0
  0
SEQEND
  5
476F
  8
0
  0
LINE
  5
381A
  8
0
 10
154.86991917772031
 20
33.114767630279523
 30
0.0
 11
154.92461093974771
 21
33.103853631790692
 31
0.0
  0
POLYLINE
  5
381B
  8
0
 66
     1
 10
0.0
 20
0.0
 30
0.0
  0
VERTEX
  5
4770
  8
0
 10
154.80381409252141
 20
32.328291106081963
 30
0.0
  0
VERTEX
  5
4771
  8
0
 10
154.91915473931081
 20
32.317620924569177
 30
0.0
  0
VERTEX
  5
4772
  8
0
 10
155.14697415316959
 20
32.296545314489997
 30
0.0
  0
VERTEX
  5
4773
  8
0
 10
155.37111805440321
 20
32.275809726666267
 30
0.0
  0
VERTEX
  5
4774
  8
0
 10
155.48186304205009
 20
32.265564690309049
 30
0.0
  0
SEQEND
  5
4775
  8
0
  0
LINE
  5
381C
  8
0
 10
155.48186304205009
 20
32.26556469030902
 30
0.0
 11
155.53739602037271
 21
32.26042732568397
 31
0.0
  0
POLYLINE
  5
381D
  8
0
 66
     1
 10
0.0
 20
0.0
 30
0.0
  0
VERTEX
  5
4776
  8
0
 10
155.49832926989501
 20
31.476486703831402
 30
0.0
  0
VERTEX
  5
4777
  8
0
 10
155.61415340622929
 20
31.477931355250579
 30
0.0
  0
VERTEX
  5
4778
  8
0
 10
155.8429278026359
 20
31.480784812801801
 30
0.0
  0
VERTEX
  5
4779
  8
0
 10
156.0680112792561
 20
31.483592234244501
 30
0.0
  0
VERTEX
  5
477A
  8
0
 10
156.17922049217981
 20
31.484979324641731
 30
0.0
  0
SEQEND
  5
477B
  8
0
  0
LINE
  5
381E
  8
0
 10
156.17922049217981
 20
31.484979324641699
 30
0.0
 11
156.23498625586609
 21
31.485674879922328
 31
0.0
  0
POLYLINE
  5
381F
  8
0
 66
     1
 10
0.0
 20
0.0
 30
0.0
  0
VERTEX
  5
477C
  8
0
 10
156.27807762563049
 20
30.701945179429028
 30
0.0
  0
VERTEX
  5
477D
  8
0
 10
156.3931162580343
 20
30.715488835876901
 30
0.0
  0
VERTEX
  5
477E
  8
0
 10
156.6203391368276
 20
30.742240097980471
 30
0.0
  0
VERTEX
  5
477F
  8
0
 10
156.84389612716279
 20
30.768559769992859
 30
0.0
  0
VERTEX
  5
4780
  8
0
 10
156.9543511339543
 20
30.78156378989183
 30
0.0
  0
SEQEND
  5
4781
  8
0
  0
LINE
  5
3820
  8
0
 10
156.9543511339543
 20
30.78156378989183
 30
0.0
 11
157.0097387016277
 21
30.78808464442892
 31
0.0
  0
POLYLINE
  5
3821
  8
0
 66
     1
 10
0.0
 20
0.0
 30
0.0
  0
VERTEX
  5
4782
  8
0
 10
157.13451607356961
 20
30.013152571899472
 30
0.0
  0
VERTEX
  5
4783
  8
0
 10
157.24750881471269
 20
30.038646846241789
 30
0.0
  0
VERTEX
  5
4784
  8
0
 10
157.47069067448319
 20
30.08900282047205
 30
0.0
  0
VERTEX
  5
4785
  8
0
 10
157.6902718413651
 20
30.138546379219779
 30
0.0
  0
VERTEX
  5
4786
  8
0
 10
157.79876247385599
 20
30.163024853857252
 30
0.0
  0
SEQEND
  5
4787
  8
0
  0
LINE
  5
3822
  8
0
 10
157.79876247385599
 20
30.16302485385722
 30
0.0
 11
157.85316500773439
 21
30.17529956380395
 31
0.0
  0
POLYLINE
  5
3823
  8
0
 66
     1
 10
0.0
 20
0.0
 30
0.0
  0
VERTEX
  5
4788
  8
0
 10
158.05826129485541
 20
29.41765543718995
 30
0.0
  0
VERTEX
  5
4789
  8
0
 10
158.16797017262081
 20
29.45482100882197
 30
0.0
  0
VERTEX
  5
478A
  8
0
 10
158.3846657862089
 20
29.5282299845876
 30
0.0
  0
VERTEX
  5
478B
  8
0
 10
158.5978653524229
 20
29.600454620473389
 30
0.0
  0
VERTEX
  5
478C
  8
0
 10
158.7032029645404
 20
29.636139358558779
 30
0.0
  0
SEQEND
  5
478D
  8
0
  0
LINE
  5
3824
  8
0
 10
158.7032029645404
 20
29.636139358558811
 30
0.0
 11
158.75602441907819
 21
29.65403343962419
 31
0.0
  0
POLYLINE
  5
3825
  8
0
 66
     1
 10
0.0
 20
0.0
 30
0.0
  0
VERTEX
  5
478E
  8
0
 10
159.0391925435375
 20
28.921978166524099
 30
0.0
  0
VERTEX
  5
478F
  8
0
 10
159.14441556450231
 20
28.970407841665661
 30
0.0
  0
VERTEX
  5
4790
  8
0
 10
159.3522507694193
 20
29.066065534866429
 30
0.0
  0
VERTEX
  5
4791
  8
0
 10
159.5567328759029
 20
29.160179939665511
 30
0.0
  0
VERTEX
  5
4792
  8
0
 10
159.65776336672519
 20
29.206679971740758
 30
0.0
  0
SEQEND
  5
4793
  8
0
  0
LINE
  5
3826
  8
0
 10
159.65776336672519
 20
29.206679971740758
 30
0.0
 11
159.70842501901291
 21
29.229997372628251
 31
0.0
  0
POLYLINE
  5
3827
  8
0
 66
     1
 10
0.0
 20
0.0
 30
0.0
  0
VERTEX
  5
4794
  8
0
 10
160.06656253158221
 20
28.531551503806501
 30
0.0
  0
VERTEX
  5
4795
  8
0
 10
160.16614685030939
 20
28.590714676802179
 30
0.0
  0
VERTEX
  5
4796
  8
0
 10
160.36284456055751
 20
28.707573041733561
 30
0.0
  0
VERTEX
  5
4797
  8
0
 10
160.5563688585614
 20
28.822546078332209
 30
0.0
  0
VERTEX
  5
4798
  8
0
 10
160.65198531688949
 20
28.879351940315331
 30
0.0
  0
SEQEND
  5
4799
  8
0
  0
LINE
  5
3828
  8
0
 10
160.65198531688949
 20
28.87935194031536
 30
0.0
 11
160.69993210726301
 21
28.90783719070123
 31
0.0
  0
POLYLINE
  5
3829
  8
0
 66
     1
 10
0.0
 20
0.0
 30
0.0
  0
VERTEX
  5
479A
  8
0
 10
161.12911517840939
 20
28.250653045255859
 30
0.0
  0
VERTEX
  5
479B
  8
0
 10
161.22196972826379
 20
28.31990151200171
 30
0.0
  0
VERTEX
  5
479C
  8
0
 10
161.40537488256811
 20
28.456680223963421
 30
0.0
  0
VERTEX
  5
479D
  8
0
 10
161.58582107938591
 20
28.591252223713042
 30
0.0
  0
VERTEX
  5
479E
  8
0
 10
161.6749759112929
 20
28.657741538692619
 30
0.0
  0
SEQEND
  5
479F
  8
0
  0
LINE
  5
382A
  8
0
 10
161.6749759112929
 20
28.657741538692619
 30
0.0
 11
161.71968252468341
 21
28.691082548212758
 31
0.0
  0
POLYLINE
  5
382B
  8
0
 66
     1
 10
0.0
 20
0.0
 30
0.0
  0
VERTEX
  5
47A0
  8
0
 10
162.21520893486721
 20
28.082360373165901
 30
0.0
  0
VERTEX
  5
47A1
  8
0
 10
162.30031638196931
 20
28.160935432968991
 30
0.0
  0
VERTEX
  5
47A2
  8
0
 10
162.46841955507921
 20
28.316135915769909
 30
0.0
  0
VERTEX
  5
47A3
  8
0
 10
162.63381064441779
 20
28.468832479680319
 30
0.0
  0
VERTEX
  5
47A4
  8
0
 10
162.71552705090869
 20
28.544276776807688
 30
0.0
  0
SEQEND
  5
47A5
  8
0
  0
LINE
  5
382C
  8
0
 10
162.7155270509088
 20
28.544276776807688
 30
0.0
 11
162.75650367230429
 21
28.582108254384821
 31
0.0
  0
POLYLINE
  5
382D
  8
0
 66
     1
 10
0.0
 20
0.0
 30
0.0
  0
VERTEX
  5
47A6
  8
0
 10
163.31294433048001
 20
28.028517337269509
 30
0.0
  0
VERTEX
  5
47A7
  8
0
 10
163.3893722198296
 20
28.115558105331779
 30
0.0
  0
VERTEX
  5
47A8
  8
0
 10
163.54033163820259
 20
28.287479950004499
 30
0.0
  0
VERTEX
  5
47A9
  8
0
 10
163.6888555606767
 20
28.456628102567581
 30
0.0
  0
VERTEX
  5
47AA
  8
0
 10
163.7622382397019
 20
28.540200798335832
 30
0.0
  0
SEQEND
  5
47AB
  8
0
  0
LINE
  5
382E
  8
0
 10
163.7622382397019
 20
28.5402007983358
 30
0.0
 11
163.79903592066381
 21
28.582108254384789
 31
0.0
  0
POLYLINE
  5
382F
  8
0
 66
     1
 10
0.0
 20
0.0
 30
0.0
  0
VERTEX
  5
47AC
  8
0
 10
164.4102943465376
 20
28.089713853135379
 30
0.0
  0
VERTEX
  5
47AD
  8
0
 10
164.47720531818541
 20
28.184266692587531
 30
0.0
  0
VERTEX
  5
47AE
  8
0
 10
164.6093670388436
 20
28.37102628742505
 30
0.0
  0
VERTEX
  5
47AF
  8
0
 10
164.73939653527819
 20
28.554772806084799
 30
0.0
  0
VERTEX
  5
47B0
  8
0
 10
164.80364149084971
 20
28.645558260550128
 30
0.0
  0
SEQEND
  5
47B1
  8
0
  0
LINE
  5
3830
  8
0
 10
164.80364149084971
 20
28.645558260550128
 30
0.0
 11
164.83585706828481
 21
28.691082548212741
 31
0.0
  0
POLYLINE
  5
3831
  8
0
 66
     1
 10
0.0
 20
0.0
 30
0.0
  0
VERTEX
  5
47B2
  8
0
 10
165.4952361866288
 20
28.265279438929468
 30
0.0
  0
VERTEX
  5
47B3
  8
0
 10
165.55189714996729
 20
28.366308409075859
 30
0.0
  0
VERTEX
  5
47B4
  8
0
 10
165.66381318144269
 20
28.565859576875141
 30
0.0
  0
VERTEX
  5
47B5
  8
0
 10
165.77392362146429
 20
28.762191296321848
 30
0.0
  0
VERTEX
  5
47B6
  8
0
 10
165.8283269724048
 20
28.859194845047139
 30
0.0
  0
SEQEND
  5
47B7
  8
0
  0
LINE
  5
3832
  8
0
 10
165.8283269724048
 20
28.859194845047089
 30
0.0
 11
165.85560748570521
 21
28.907837190701201
 31
0.0
  0
POLYLINE
  5
3833
  8
0
 66
     1
 10
0.0
 20
0.0
 30
0.0
  0
VERTEX
  5
47B8
  8
0
 10
166.55588300091489
 20
28.553290561354402
 30
0.0
  0
VERTEX
  5
47B9
  8
0
 10
166.60167316657291
 20
28.659688767656629
 30
0.0
  0
VERTEX
  5
47BA
  8
0
 10
166.6921173334045
 20
28.869845184064499
 30
0.0
  0
VERTEX
  5
47BB
  8
0
 10
166.78110232399021
 20
29.076611052894609
 30
0.0
  0
VERTEX
  5
47BC
  8
0
 10
166.82506801580209
 20
29.178769904700719
 30
0.0
  0
SEQEND
  5
47BD
  8
0
  0
LINE
  5
3834
  8
0
 10
166.82506801580209
 20
29.178769904700719
 30
0.0
 11
166.8471145739552
 21
29.229997372628159
 31
0.0
  0
POLYLINE
  5
3835
  8
0
 66
     1
 10
0.0
 20
0.0
 30
0.0
  0
VERTEX
  5
47BE
  8
0
 10
167.58061412094401
 20
28.95059171028263
 30
0.0
  0
VERTEX
  5
47BF
  8
0
 10
167.61503180228419
 20
29.061193431727158
 30
0.0
  0
VERTEX
  5
47C0
  8
0
 10
167.68301317925361
 20
29.27965257906726
 30
0.0
  0
VERTEX
  5
47C1
  8
0
 10
167.7498977822251
 20
29.494587227153382
 30
0.0
  0
VERTEX
  5
47C2
  8
0
 10
167.78294411758861
 20
29.600782108281919
 30
0.0
  0
SEQEND
  5
47C3
  8
0
  0
LINE
  5
3836
  8
0
 10
167.78294411758861
 20
29.600782108281891
 30
0.0
 11
167.79951517388989
 21
29.654033439624161
 31
0.0
  0
POLYLINE
  5
3837
  8
0
 66
     1
 10
0.0
 20
0.0
 30
0.0
  0
VERTEX
  5
47C4
  8
0
 10
168.55820237812631
 20
29.452829971185881
 30
0.0
  0
VERTEX
  5
47C5
  8
0
 10
168.58087048782949
 20
29.566423432167539
 30
0.0
  0
VERTEX
  5
47C6
  8
0
 10
168.62564425674469
 20
29.790791826306219
 30
0.0
  0
VERTEX
  5
47C7
  8
0
 10
168.66969567039541
 20
30.011540384666091
 30
0.0
  0
VERTEX
  5
47C8
  8
0
 10
168.69146058674491
 20
30.120607801776629
 30
0.0
  0
SEQEND
  5
47C9
  8
0
  0
LINE
  5
3838
  8
0
 10
168.69146058674491
 20
30.120607801776629
 30
0.0
 11
168.7023745852338
 21
30.175299563803922
 31
0.0
  0
POLYLINE
  5
3839
  8
0
 66
     1
 10
0.0
 20
0.0
 30
0.0
  0
VERTEX
  5
47CA
  8
0
 10
169.47793711094249
 20
30.05450271657762
 30
0.0
  0
VERTEX
  5
47CB
  8
0
 10
169.48860729245521
 20
30.169843363367001
 30
0.0
  0
VERTEX
  5
47CC
  8
0
 10
169.50968290253439
 20
30.39766277722601
 30
0.0
  0
VERTEX
  5
47CD
  8
0
 10
169.5304184903581
 20
30.621806678459588
 30
0.0
  0
VERTEX
  5
47CE
  8
0
 10
169.54066352671529
 20
30.732551666106328
 30
0.0
  0
SEQEND
  5
47CF
  8
0
  0
LINE
  5
383A
  8
0
 10
169.54066352671529
 20
30.732551666106328
 30
0.0
 11
169.54580089134041
 21
30.788084644428888
 31
0.0
  0
POLYLINE
  5
383B
  8
0
 66
     1
 10
0.0
 20
0.0
 30
0.0
  0
VERTEX
  5
47D0
  8
0
 10
170.329741513193
 20
30.749017893951219
 30
0.0
  0
VERTEX
  5
47D1
  8
0
 10
170.32829686177391
 20
30.864842030285391
 30
0.0
  0
VERTEX
  5
47D2
  8
0
 10
170.3254434042226
 20
31.09361642669219
 30
0.0
  0
VERTEX
  5
47D3
  8
0
 10
170.3226359827799
 20
31.31869990331251
 30
0.0
  0
VERTEX
  5
47D4
  8
0
 10
170.3212488923827
 20
31.429909116236018
 30
0.0
  0
SEQEND
  5
47D5
  8
0
  0
LINE
  5
383C
  8
0
 10
170.3212488923827
 20
31.429909116236018
 30
0.0
 11
170.32055333710201
 21
31.4856748799223
 31
0.0
  0
POLYLINE
  5
383D
  8
0
 66
     1
 10
0.0
 20
0.0
 30
0.0
  0
VERTEX
  5
47D6
  8
0
 10
171.10428303759539
 20
31.528766249686701
 30
0.0
  0
VERTEX
  5
47D7
  8
0
 10
171.0907393811475
 20
31.643804882090649
 30
0.0
  0
VERTEX
  5
47D8
  8
0
 10
171.06398811904401
 20
31.871027760883781
 30
0.0
  0
VERTEX
  5
47D9
  8
0
 10
171.03766844703159
 20
32.094584751218889
 30
0.0
  0
VERTEX
  5
47DA
  8
0
 10
171.02466442713259
 20
32.205039758010599
 30
0.0
  0
SEQEND
  5
47DB
  8
0
  0
LINE
  5
383E
  8
0
 10
171.02466442713259
 20
32.205039758010599
 30
0.0
 11
171.01814357259551
 21
32.260427325683942
 31
0.0
  0
POLYLINE
  5
383F
  8
0
 66
     1
 10
0.0
 20
0.0
 30
0.0
  0
VERTEX
  5
47DC
  8
0
 10
171.7930756451249
 20
32.385204697625817
 30
0.0
  0
VERTEX
  5
47DD
  8
0
 10
171.76758137078261
 20
32.498197438769182
 30
0.0
  0
VERTEX
  5
47DE
  8
0
 10
171.71722539655229
 20
32.721379298539517
 30
0.0
  0
VERTEX
  5
47DF
  8
0
 10
171.66768183780459
 20
32.94096046542132
 30
0.0
  0
VERTEX
  5
47E0
  8
0
 10
171.6432033631672
 20
33.049451097912289
 30
0.0
  0
SEQEND
  5
47E1
  8
0
  0
LINE
  5
3840
  8
0
 10
171.6432033631672
 20
33.049451097912289
 30
0.0
 11
171.63092865322051
 21
33.103853631790663
 31
0.0
  0
POLYLINE
  5
3841
  8
0
 66
     1
 10
0.0
 20
0.0
 30
0.0
  0
VERTEX
  5
47E2
  8
0
 10
172.3885727798345
 20
33.308949918911679
 30
0.0
  0
VERTEX
  5
47E3
  8
0
 10
172.35140720820229
 20
33.418658796677313
 30
0.0
  0
VERTEX
  5
47E4
  8
0
 10
172.2779982324368
 20
33.635354410265251
 30
0.0
  0
VERTEX
  5
47E5
  8
0
 10
172.2057735965511
 20
33.848553976479003
 30
0.0
  0
VERTEX
  5
47E6
  8
0
 10
172.17008885846559
 20
33.953891588596662
 30
0.0
  0
SEQEND
  5
47E7
  8
0
  0
LINE
  5
3842
  8
0
 10
172.17008885846559
 20
33.953891588596633
 30
0.0
 11
172.15219477740021
 21
34.006713043134447
 31
0.0
  0
POLYLINE
  5
3843
  8
0
 66
     1
 10
0.0
 20
0.0
 30
0.0
  0
VERTEX
  5
47E8
  8
0
 10
172.8842500505003
 20
34.289881167593791
 30
0.0
  0
VERTEX
  5
47E9
  8
0
 10
172.83582037535871
 20
34.395104188558719
 30
0.0
  0
VERTEX
  5
47EA
  8
0
 10
172.740162682158
 20
34.602939393475538
 30
0.0
  0
VERTEX
  5
47EB
  8
0
 10
172.646048277359
 20
34.80742149995902
 30
0.0
  0
VERTEX
  5
47EC
  8
0
 10
172.5995482452837
 20
34.908451990781458
 30
0.0
  0
SEQEND
  5
47ED
  8
0
  0
LINE
  5
3844
  8
0
 10
172.5995482452837
 20
34.908451990781458
 30
0.0
 11
172.57623084439621
 21
34.959113643069117
 31
0.0
  0
POLYLINE
  5
3845
  8
0
 66
     1
 10
0.0
 20
0.0
 30
0.0
  0
VERTEX
  5
47EE
  8
0
 10
173.2746767132179
 20
35.317251155638438
 30
0.0
  0
VERTEX
  5
47EF
  8
0
 10
173.2155135402221
 20
35.416835474365797
 30
0.0
  0
VERTEX
  5
47F0
  8
0
 10
173.09865517529079
 20
35.6135331846138
 30
0.0
  0
VERTEX
  5
47F1
  8
0
 10
172.98368213869219
 20
35.807057482617608
 30
0.0
  0
VERTEX
  5
47F2
  8
0
 10
172.92687627670909
 20
35.90267394094576
 30
0.0
  0
SEQEND
  5
47F3
  8
0
  0
LINE
  5
3846
  8
0
 10
172.92687627670909
 20
35.902673940945732
 30
0.0
 11
172.8983910263232
 21
35.950620731319219
 31
0.0
  0
POLYLINE
  5
3847
  8
0
 66
     1
 10
0.0
 20
0.0
 30
0.0
  0
VERTEX
  5
47F4
  8
0
 10
173.55557517176851
 20
36.379803802465723
 30
0.0
  0
VERTEX
  5
47F5
  8
0
 10
173.48632670502269
 20
36.472658352320082
 30
0.0
  0
VERTEX
  5
47F6
  8
0
 10
173.34954799306109
 20
36.656063506624292
 30
0.0
  0
VERTEX
  5
47F7
  8
0
 10
173.21497599331141
 20
36.836509703442033
 30
0.0
  0
VERTEX
  5
47F8
  8
0
 10
173.14848667833181
 20
36.925664535349227
 30
0.0
  0
SEQEND
  5
47F9
  8
0
  0
LINE
  5
3848
  8
0
 10
173.14848667833181
 20
36.925664535349227
 30
0.0
 11
173.11514566881161
 21
36.970371148739638
 31
0.0
  0
POLYLINE
  5
3849
  8
0
 66
     1
 10
0.0
 20
0.0
 30
0.0
  0
VERTEX
  5
47FA
  8
0
 10
173.7238678438585
 20
37.465897558923473
 30
0.0
  0
VERTEX
  5
47FB
  8
0
 10
173.6452927840555
 20
37.55100500602547
 30
0.0
  0
VERTEX
  5
47FC
  8
0
 10
173.49009230125461
 20
37.719108179135361
 30
0.0
  0
VERTEX
  5
47FD
  8
0
 10
173.33739573734411
 20
37.884499268474009
 30
0.0
  0
VERTEX
  5
47FE
  8
0
 10
173.26195144021671
 20
37.966215674965007
 30
0.0
  0
SEQEND
  5
47FF
  8
0
  0
LINE
  5
384A
  8
0
 10
173.26195144021671
 20
37.966215674965007
 30
0.0
 11
173.22411996263961
 21
38.007192296360621
 31
0.0
  0
POLYLINE
  5
384B
  8
0
 66
     1
 10
0.0
 20
0.0
 30
0.0
  0
VERTEX
  5
4800
  8
0
 10
173.77771087975489
 20
38.563632954536303
 30
0.0
  0
VERTEX
  5
4801
  8
0
 10
173.6906701116925
 20
38.640060843885919
 30
0.0
  0
VERTEX
  5
4802
  8
0
 10
173.51874826701979
 20
38.791020262258911
 30
0.0
  0
VERTEX
  5
4803
  8
0
 10
173.34960011445679
 20
38.939544184732988
 30
0.0
  0
VERTEX
  5
4804
  8
0
 10
173.26602741868851
 20
39.012926863758203
 30
0.0
  0
SEQEND
  5
4805
  8
0
  0
LINE
  5
384C
  8
0
 10
173.26602741868851
 20
39.012926863758231
 30
0.0
 11
173.22411996263961
 21
39.049724544720078
 31
0.0
  0
POLYLINE
  5
384D
  8
0
 66
     1
 10
0.0
 20
0.0
 30
0.0
  0
VERTEX
  5
4806
  8
0
 10
173.71651436388899
 20
39.660982970593892
 30
0.0
  0
VERTEX
  5
4807
  8
0
 10
173.62196152443681
 20
39.727893942241707
 30
0.0
  0
VERTEX
  5
4808
  8
0
 10
173.4352019295992
 20
39.860055662899981
 30
0.0
  0
VERTEX
  5
4809
  8
0
 10
173.2514554109396
 20
39.990085159334463
 30
0.0
  0
VERTEX
  5
480A
  8
0
 10
173.16066995647421
 20
40.054330114905923
 30
0.0
  0
SEQEND
  5
480B
  8
0
  0
LINE
  5
384E
  8
0
 10
173.16066995647421
 20
40.054330114905923
 30
0.0
 11
173.11514566881161
 21
40.086545692340977
 31
0.0
  0
POLYLINE
  5
384F
  8
0
 66
     1
 10
0.0
 20
0.0
 30
0.0
  0
VERTEX
  5
480C
  8
0
 10
173.5409487780949
 20
40.745924810685089
 30
0.0
  0
VERTEX
  5
480D
  8
0
 10
173.4399198079484
 20
40.802585774023633
 30
0.0
  0
VERTEX
  5
480E
  8
0
 10
173.24036864014909
 20
40.914501805499008
 30
0.0
  0
VERTEX
  5
480F
  8
0
 10
173.0440369207025
 20
41.024612245520579
 30
0.0
  0
VERTEX
  5
4810
  8
0
 10
172.9470333719772
 20
41.079015596461034
 30
0.0
  0
SEQEND
  5
4811
  8
0
  0
LINE
  5
3850
  8
0
 10
172.9470333719772
 20
41.079015596461062
 30
0.0
 11
172.8983910263232
 21
41.106296109761409
 31
0.0
  0
POLYLINE
  5
3851
  8
0
 66
     1
 10
0.0
 20
0.0
 30
0.0
  0
VERTEX
  5
4812
  8
0
 10
173.25293765567
 20
41.806571624971212
 30
0.0
  0
VERTEX
  5
4813
  8
0
 10
173.14653944936779
 20
41.852361790629089
 30
0.0
  0
VERTEX
  5
4814
  8
0
 10
172.93638303296001
 20
41.942805957460727
 30
0.0
  0
VERTEX
  5
4815
  8
0
 10
172.72961716412991
 20
42.031790948046392
 30
0.0
  0
VERTEX
  5
4816
  8
0
 10
172.62745831232371
 20
42.075756639858319
 30
0.0
  0
SEQEND
  5
4817
  8
0
  0
LINE
  5
3852
  8
0
 10
172.62745831232371
 20
42.075756639858319
 30
0.0
 11
172.57623084439621
 21
42.097803198011519
 31
0.0
  0
POLYLINE
  5
3853
  8
0
 66
     1
 10
0.0
 20
0.0
 30
0.0
  0
VERTEX
  5
4818
  8
0
 10
172.8556365067418
 20
42.831302745000272
 30
0.0
  0
VERTEX
  5
4819
  8
0
 10
172.74503478529721
 20
42.865720426340431
 30
0.0
  0
VERTEX
  5
481A
  8
0
 10
172.526575637957
 20
42.933701803309901
 30
0.0
  0
VERTEX
  5
481B
  8
0
 10
172.31164098987091
 20
43.000586406281428
 30
0.0
  0
VERTEX
  5
481C
  8
0
 10
172.20544610874251
 20
43.033632741644908
 30
0.0
  0
SEQEND
  5
481D
  8
0
  0
LINE
  5
3854
  8
0
 10
172.20544610874251
 20
43.033632741644929
 30
0.0
 11
172.15219477740021
 21
43.050203797946182
 31
0.0
  0
POLYLINE
  5
3855
  8
0
 66
     1
 10
0.0
 20
0.0
 30
0.0
  0
VERTEX
  5
481E
  8
0
 10
172.35339824583849
 20
43.80889100218252
 30
0.0
  0
VERTEX
  5
481F
  8
0
 10
172.2398047848568
 20
43.831559111885717
 30
0.0
  0
VERTEX
  5
4820
  8
0
 10
172.01543639071821
 20
43.876332880800902
 30
0.0
  0
VERTEX
  5
4821
  8
0
 10
171.79468783235839
 20
43.920384294451708
 30
0.0
  0
VERTEX
  5
4822
  8
0
 10
171.6856204152478
 20
43.942149210801148
 30
0.0
  0
SEQEND
  5
4823
  8
0
  0
LINE
  5
3856
  8
0
 10
171.6856204152478
 20
43.942149210801148
 30
0.0
 11
171.63092865322051
 21
43.953063209289972
 31
0.0
  0
POLYLINE
  5
3857
  8
0
 66
     1
 10
0.0
 20
0.0
 30
0.0
  0
VERTEX
  5
4824
  8
0
 10
171.7517255004467
 20
44.728625734998687
 30
0.0
  0
VERTEX
  5
4825
  8
0
 10
171.63638485365749
 20
44.739295916511509
 30
0.0
  0
VERTEX
  5
4826
  8
0
 10
171.40856543979851
 20
44.76037152659066
 30
0.0
  0
VERTEX
  5
4827
  8
0
 10
171.18442153856489
 20
44.781107114414397
 30
0.0
  0
VERTEX
  5
4828
  8
0
 10
171.07367655091801
 20
44.791352150771637
 30
0.0
  0
SEQEND
  5
4829
  8
0
  0
LINE
  5
3858
  8
0
 10
171.07367655091801
 20
44.791352150771637
 30
0.0
 11
171.01814357259551
 21
44.796489515396701
 31
0.0
  0
POLYLINE
  5
3859
  8
0
 66
     1
 10
0.0
 20
0.0
 30
0.0
  0
VERTEX
  5
482A
  8
0
 10
171.05721032307321
 20
45.580430137249287
 30
0.0
  0
VERTEX
  5
482B
  8
0
 10
170.9413861867389
 20
45.57898548583011
 30
0.0
  0
VERTEX
  5
482C
  8
0
 10
170.71261179033209
 20
45.576132028278892
 30
0.0
  0
VERTEX
  5
482D
  8
0
 10
170.48752831371189
 20
45.573324606836167
 30
0.0
  0
VERTEX
  5
482E
  8
0
 10
170.37631910078841
 20
45.571937516438958
 30
0.0
  0
SEQEND
  5
482F
  8
0
  0
LINE
  5
385A
  8
0
 10
170.37631910078829
 20
45.571937516438958
 30
0.0
 11
170.32055333710201
 21
45.571241961158329
 31
0.0
  0
POLYLINE
  5
385B
  8
0
 66
     1
 10
0.0
 20
0.0
 30
0.0
  0
VERTEX
  5
4830
  8
0
 10
170.2774619673377
 20
46.354971661651653
 30
0.0
  0
VERTEX
  5
4831
  8
0
 10
170.16242333493381
 20
46.341428005203781
 30
0.0
  0
VERTEX
  5
4832
  8
0
 10
169.93520045614051
 20
46.3146767431002
 30
0.0
  0
VERTEX
  5
4833
  8
0
 10
169.71164346580531
 20
46.288357071087809
 30
0.0
  0
VERTEX
  5
4834
  8
0
 10
169.6011884590138
 20
46.275353051188837
 30
0.0
  0
SEQEND
  5
4835
  8
0
  0
LINE
  5
385C
  8
0
 10
169.6011884590138
 20
46.275353051188837
 30
0.0
 11
169.54580089134049
 21
46.268832196651758
 31
0.0
  0
POLYLINE
  5
385D
  8
0
 66
     1
 10
0.0
 20
0.0
 30
0.0
  0
VERTEX
  5
4836
  8
0
 10
169.42102351939849
 20
47.04376426918121
 30
0.0
  0
VERTEX
  5
4837
  8
0
 10
169.3080307782553
 20
47.01826999483886
 30
0.0
  0
VERTEX
  5
4838
  8
0
 10
169.08484891848491
 20
46.967914020608617
 30
0.0
  0
VERTEX
  5
4839
  8
0
 10
168.865267751603
 20
46.918370461860931
 30
0.0
  0
VERTEX
  5
483A
  8
0
 10
168.75677711911209
 20
46.893891987223419
 30
0.0
  0
SEQEND
  5
483B
  8
0
  0
LINE
  5
385E
  8
0
 10
168.75677711911209
 20
46.893891987223448
 30
0.0
 11
168.7023745852338
 21
46.881617277276732
 31
0.0
  0
POLYLINE
  5
385F
  8
0
 66
     1
 10
0.0
 20
0.0
 30
0.0
  0
VERTEX
  5
483C
  8
0
 10
168.49727829811269
 20
47.639261403890728
 30
0.0
  0
VERTEX
  5
483D
  8
0
 10
168.38756942034701
 20
47.602095832258598
 30
0.0
  0
VERTEX
  5
483E
  8
0
 10
168.17087380675909
 20
47.528686856493053
 30
0.0
  0
VERTEX
  5
483F
  8
0
 10
167.95767424054549
 20
47.456462220607371
 30
0.0
  0
VERTEX
  5
4840
  8
0
 10
167.85233662842771
 20
47.42077748252192
 30
0.0
  0
SEQEND
  5
4841
  8
0
  0
LINE
  5
3860
  8
0
 10
167.85233662842771
 20
47.420777482521871
 30
0.0
 11
167.79951517388989
 21
47.402883401456492
 31
0.0
  0
POLYLINE
  5
3861
  8
0
 66
     1
 10
0.0
 20
0.0
 30
0.0
  0
VERTEX
  5
4842
  8
0
 10
167.51634704943061
 20
48.134938674556579
 30
0.0
  0
VERTEX
  5
4843
  8
0
 10
167.41112402846571
 20
48.086508999414988
 30
0.0
  0
VERTEX
  5
4844
  8
0
 10
167.20328882354909
 20
47.990851306214367
 30
0.0
  0
VERTEX
  5
4845
  8
0
 10
166.99880671706561
 20
47.896736901415331
 30
0.0
  0
VERTEX
  5
4846
  8
0
 10
166.89777622624291
 20
47.850236869339923
 30
0.0
  0
SEQEND
  5
4847
  8
0
  0
LINE
  5
3862
  8
0
 10
166.89777622624291
 20
47.850236869339923
 30
0.0
 11
166.8471145739552
 21
47.826919468452488
 31
0.0
  0
POLYLINE
  5
3863
  8
0
 66
     1
 10
0.0
 20
0.0
 30
0.0
  0
VERTEX
  5
4848
  8
0
 10
166.4889770613859
 20
48.525365337274209
 30
0.0
  0
VERTEX
  5
4849
  8
0
 10
166.3893927426586
 20
48.466202164278442
 30
0.0
  0
VERTEX
  5
484A
  8
0
 10
166.19269503241051
 20
48.349343799347089
 30
0.0
  0
VERTEX
  5
484B
  8
0
 10
165.9991707344067
 20
48.234370762748469
 30
0.0
  0
VERTEX
  5
484C
  8
0
 10
165.90355427607861
 20
48.177564900765347
 30
0.0
  0
SEQEND
  5
484D
  8
0
  0
LINE
  5
3864
  8
0
 10
165.90355427607861
 20
48.177564900765319
 30
0.0
 11
165.85560748570521
 21
48.149079650379448
 31
0.0
  0
POLYLINE
  5
3865
  8
0
 66
     1
 10
0.0
 20
0.0
 30
0.0
  0
VERTEX
  5
484E
  8
0
 10
165.42642441455871
 20
48.806263795824819
 30
0.0
  0
VERTEX
  5
484F
  8
0
 10
165.3335698647042
 20
48.737015329078908
 30
0.0
  0
VERTEX
  5
4850
  8
0
 10
165.15016471039999
 20
48.600236617117318
 30
0.0
  0
VERTEX
  5
4851
  8
0
 10
164.96971851358239
 20
48.46566461736775
 30
0.0
  0
VERTEX
  5
4852
  8
0
 10
164.8805636816752
 20
48.399175302388059
 30
0.0
  0
SEQEND
  5
4853
  8
0
  0
LINE
  5
3866
  8
0
 10
164.8805636816752
 20
48.399175302388059
 30
0.0
 11
164.83585706828481
 21
48.365834292867909
 31
0.0
  0
POLYLINE
  5
3867
  8
0
 66
     1
 10
0.0
 20
0.0
 30
0.0
  0
VERTEX
  5
4854
  8
0
 10
164.3403306581009
 20
48.97455646791478
 30
0.0
  0
VERTEX
  5
4855
  8
0
 10
164.25522321099879
 20
48.895981408111702
 30
0.0
  0
VERTEX
  5
4856
  8
0
 10
164.08712003788881
 20
48.740780925310659
 30
0.0
  0
VERTEX
  5
4857
  8
0
 10
163.92172894855031
 20
48.58808436140027
 30
0.0
  0
VERTEX
  5
4858
  8
0
 10
163.84001254205941
 20
48.512640064272993
 30
0.0
  0
SEQEND
  5
4859
  8
0
  0
LINE
  5
3868
  8
0
 10
163.84001254205941
 20
48.512640064272993
 30
0.0
 11
163.79903592066381
 21
48.474808586695858
 31
0.0
  0
LINE
  5
3869
  8
1
 10
163.27776979648411
 20
51.558068252093562
 30
0.0
 11
163.27776979648411
 21
25.498848588987101
 31
0.0
  0
LINE
  5
386A
  8
1
 10
150.24815996493089
 20
38.528458420540353
 30
0.0
 11
176.3073796280373
 21
38.528458420540318
 31
0.0
  0
CIRCLE
  5
386B
  8
0
 10
163.2777697964988
 20
38.528458420681531
 30
0.0
 40
10.49999999985805
  0
CIRCLE
  5
386C
  8
0
 10
38.693069939420361
 20
38.528458420681531
 30
0.0
 40
10.49999999985805
  0
LINE
  5
386D
  8
1
 10
25.663460107852419
 20
38.528458420540353
 30
0.0
 11
51.722679770958841
 21
38.528458420540318
 31
0.0
  0
LINE
  5
386E
  8
1
 10
38.693069939405632
 20
51.558068252093562
 30
0.0
 11
38.693069939405632
 21
25.498848588987101
 31
0.0
  0
CIRCLE
  5
386F
  8
0
 10
38.693069939405603
 20
38.528458420540332
 30
0.0
 40
2.3613519343264131
  0
LINE
  5
3870
  8
0
 10
39.255312684980943
 20
48.512640064272993
 30
0.0
 11
39.214336063585328
 21
48.474808586695858
 31
0.0
  0
POLYLINE
  5
3871
  8
0
 66
     1
 10
0.0
 20
0.0
 30
0.0
  0
VERTEX
  5
485A
  8
0
 10
39.755630801022448
 20
48.97455646791478
 30
0.0
  0
VERTEX
  5
485B
  8
0
 10
39.67052335392038
 20
48.895981408111702
 30
0.0
  0
VERTEX
  5
485C
  8
0
 10
39.502420180810361
 20
48.740780925310659
 30
0.0
  0
VERTEX
  5
485D
  8
0
 10
39.337029091471841
 20
48.58808436140027
 30
0.0
  0
VERTEX
  5
485E
  8
0
 10
39.255312684980943
 20
48.512640064272993
 30
0.0
  0
SEQEND
  5
485F
  8
0
  0
LINE
  5
3872
  8
0
 10
40.295863824596722
 20
48.399175302388059
 30
0.0
 11
40.251157211206298
 21
48.365834292867909
 31
0.0
  0
POLYLINE
  5
3873
  8
0
 66
     1
 10
0.0
 20
0.0
 30
0.0
  0
VERTEX
  5
4860
  8
0
 10
40.841724557480227
 20
48.806263795824819
 30
0.0
  0
VERTEX
  5
4861
  8
0
 10
40.748870007625783
 20
48.737015329078908
 30
0.0
  0
VERTEX
  5
4862
  8
0
 10
40.5654648533216
 20
48.600236617117318
 30
0.0
  0
VERTEX
  5
4863
  8
0
 10
40.385018656503973
 20
48.46566461736775
 30
0.0
  0
VERTEX
  5
4864
  8
0
 10
40.295863824596722
 20
48.399175302388059
 30
0.0
  0
SEQEND
  5
4865
  8
0
  0
LINE
  5
3874
  8
0
 10
41.318854419000161
 20
48.177564900765319
 30
0.0
 11
41.27090762862673
 21
48.149079650379448
 31
0.0
  0
POLYLINE
  5
3875
  8
0
 66
     1
 10
0.0
 20
0.0
 30
0.0
  0
VERTEX
  5
4866
  8
0
 10
41.904277204307441
 20
48.525365337274209
 30
0.0
  0
VERTEX
  5
4867
  8
0
 10
41.804692885580153
 20
48.466202164278442
 30
0.0
  0
VERTEX
  5
4868
  8
0
 10
41.607995175332057
 20
48.349343799347089
 30
0.0
  0
VERTEX
  5
4869
  8
0
 10
41.414470877328249
 20
48.234370762748469
 30
0.0
  0
VERTEX
  5
486A
  8
0
 10
41.318854419000161
 20
48.177564900765347
 30
0.0
  0
SEQEND
  5
486B
  8
0
  0
LINE
  5
3876
  8
0
 10
42.313076369164428
 20
47.850236869339923
 30
0.0
 11
42.262414716876783
 21
47.826919468452488
 31
0.0
  0
POLYLINE
  5
3877
  8
0
 66
     1
 10
0.0
 20
0.0
 30
0.0
  0
VERTEX
  5
486C
  8
0
 10
42.931647192352159
 20
48.134938674556579
 30
0.0
  0
VERTEX
  5
486D
  8
0
 10
42.826424171387259
 20
48.086508999414988
 30
0.0
  0
VERTEX
  5
486E
  8
0
 10
42.618588966470611
 20
47.990851306214367
 30
0.0
  0
VERTEX
  5
486F
  8
0
 10
42.41410685998715
 20
47.896736901415331
 30
0.0
  0
VERTEX
  5
4870
  8
0
 10
42.313076369164428
 20
47.850236869339923
 30
0.0
  0
SEQEND
  5
4871
  8
0
  0
LINE
  5
3878
  8
0
 10
43.26763677134926
 20
47.420777482521871
 30
0.0
 11
43.214815316811503
 21
47.402883401456492
 31
0.0
  0
POLYLINE
  5
3879
  8
0
 66
     1
 10
0.0
 20
0.0
 30
0.0
  0
VERTEX
  5
4872
  8
0
 10
43.912578441034213
 20
47.639261403890728
 30
0.0
  0
VERTEX
  5
4873
  8
0
 10
43.80286956326853
 20
47.602095832258598
 30
0.0
  0
VERTEX
  5
4874
  8
0
 10
43.586173949680642
 20
47.528686856493053
 30
0.0
  0
VERTEX
  5
4875
  8
0
 10
43.37297438346701
 20
47.456462220607371
 30
0.0
  0
VERTEX
  5
4876
  8
0
 10
43.26763677134926
 20
47.42077748252192
 30
0.0
  0
SEQEND
  5
4877
  8
0
  0
LINE
  5
387A
  8
0
 10
44.172077262033667
 20
46.893891987223448
 30
0.0
 11
44.117674728155293
 21
46.881617277276732
 31
0.0
  0
POLYLINE
  5
387B
  8
0
 66
     1
 10
0.0
 20
0.0
 30
0.0
  0
VERTEX
  5
4878
  8
0
 10
44.836323662320069
 20
47.04376426918121
 30
0.0
  0
VERTEX
  5
4879
  8
0
 10
44.723330921176853
 20
47.01826999483886
 30
0.0
  0
VERTEX
  5
487A
  8
0
 10
44.500149061406432
 20
46.967914020608617
 30
0.0
  0
VERTEX
  5
487B
  8
0
 10
44.280567894524552
 20
46.918370461860931
 30
0.0
  0
VERTEX
  5
487C
  8
0
 10
44.172077262033667
 20
46.893891987223419
 30
0.0
  0
SEQEND
  5
487D
  8
0
  0
LINE
  5
387C
  8
0
 10
45.01648860193535
 20
46.275353051188837
 30
0.0
 11
44.961101034262008
 21
46.268832196651758
 31
0.0
  0
POLYLINE
  5
387D
  8
0
 66
     1
 10
0.0
 20
0.0
 30
0.0
  0
VERTEX
  5
487E
  8
0
 10
45.692762110259189
 20
46.354971661651653
 30
0.0
  0
VERTEX
  5
487F
  8
0
 10
45.577723477855379
 20
46.341428005203781
 30
0.0
  0
VERTEX
  5
4880
  8
0
 10
45.350500599062059
 20
46.3146767431002
 30
0.0
  0
VERTEX
  5
4881
  8
0
 10
45.126943608726833
 20
46.288357071087809
 30
0.0
  0
VERTEX
  5
4882
  8
0
 10
45.01648860193535
 20
46.275353051188837
 30
0.0
  0
SEQEND
  5
4883
  8
0
  0
LINE
  5
387E
  8
0
 10
45.791619243709867
 20
45.571937516438958
 30
0.0
 11
45.735853480023593
 21
45.571241961158329
 31
0.0
  0
POLYLINE
  5
387F
  8
0
 66
     1
 10
0.0
 20
0.0
 30
0.0
  0
VERTEX
  5
4884
  8
0
 10
46.472510465994731
 20
45.580430137249287
 30
0.0
  0
VERTEX
  5
4885
  8
0
 10
46.35668632966042
 20
45.57898548583011
 30
0.0
  0
VERTEX
  5
4886
  8
0
 10
46.127911933253642
 20
45.576132028278892
 30
0.0
  0
VERTEX
  5
4887
  8
0
 10
45.902828456633472
 20
45.573324606836167
 30
0.0
  0
VERTEX
  5
4888
  8
0
 10
45.791619243709931
 20
45.571937516438958
 30
0.0
  0
SEQEND
  5
4889
  8
0
  0
LINE
  5
3880
  8
0
 10
46.488976693839561
 20
44.791352150771637
 30
0.0
 11
46.433443715517051
 21
44.796489515396701
 31
0.0
  0
POLYLINE
  5
3881
  8
0
 66
     1
 10
0.0
 20
0.0
 30
0.0
  0
VERTEX
  5
488A
  8
0
 10
47.16702564336827
 20
44.728625734998687
 30
0.0
  0
VERTEX
  5
488B
  8
0
 10
47.051684996579013
 20
44.739295916511509
 30
0.0
  0
VERTEX
  5
488C
  8
0
 10
46.823865582720089
 20
44.76037152659066
 30
0.0
  0
VERTEX
  5
488D
  8
0
 10
46.599721681486471
 20
44.781107114414397
 30
0.0
  0
VERTEX
  5
488E
  8
0
 10
46.488976693839561
 20
44.791352150771637
 30
0.0
  0
SEQEND
  5
488F
  8
0
  0
LINE
  5
3882
  8
0
 10
47.100920558169307
 20
43.942149210801148
 30
0.0
 11
47.046228796142032
 21
43.953063209289972
 31
0.0
  0
POLYLINE
  5
3883
  8
0
 66
     1
 10
0.0
 20
0.0
 30
0.0
  0
VERTEX
  5
4890
  8
0
 10
47.768698388760022
 20
43.80889100218252
 30
0.0
  0
VERTEX
  5
4891
  8
0
 10
47.655104927778382
 20
43.831559111885717
 30
0.0
  0
VERTEX
  5
4892
  8
0
 10
47.430736533639781
 20
43.876332880800902
 30
0.0
  0
VERTEX
  5
4893
  8
0
 10
47.209987975279937
 20
43.920384294451708
 30
0.0
  0
VERTEX
  5
4894
  8
0
 10
47.100920558169307
 20
43.942149210801148
 30
0.0
  0
SEQEND
  5
4895
  8
0
  0
LINE
  5
3884
  8
0
 10
47.620746251664002
 20
43.033632741644929
 30
0.0
 11
47.567494920321728
 21
43.050203797946182
 31
0.0
  0
POLYLINE
  5
3885
  8
0
 66
     1
 10
0.0
 20
0.0
 30
0.0
  0
VERTEX
  5
4896
  8
0
 10
48.270936649663327
 20
42.831302745000272
 30
0.0
  0
VERTEX
  5
4897
  8
0
 10
48.160334928218788
 20
42.865720426340431
 30
0.0
  0
VERTEX
  5
4898
  8
0
 10
47.941875780878597
 20
42.933701803309901
 30
0.0
  0
VERTEX
  5
4899
  8
0
 10
47.72694113279249
 20
43.000586406281428
 30
0.0
  0
VERTEX
  5
489A
  8
0
 10
47.620746251664002
 20
43.033632741644908
 30
0.0
  0
SEQEND
  5
489B
  8
0
  0
LINE
  5
3886
  8
0
 10
48.042758455245227
 20
42.075756639858319
 30
0.0
 11
47.991530987317731
 21
42.097803198011519
 31
0.0
  0
POLYLINE
  5
3887
  8
0
 66
     1
 10
0.0
 20
0.0
 30
0.0
  0
VERTEX
  5
489C
  8
0
 10
48.66823779859152
 20
41.806571624971212
 30
0.0
  0
VERTEX
  5
489D
  8
0
 10
48.561839592289353
 20
41.852361790629089
 30
0.0
  0
VERTEX
  5
489E
  8
0
 10
48.351683175881533
 20
41.942805957460727
 30
0.0
  0
VERTEX
  5
489F
  8
0
 10
48.144917307051401
 20
42.031790948046392
 30
0.0
  0
VERTEX
  5
48A0
  8
0
 10
48.042758455245227
 20
42.075756639858319
 30
0.0
  0
SEQEND
  5
48A1
  8
0
  0
LINE
  5
3888
  8
0
 10
48.362333514898801
 20
41.079015596461062
 30
0.0
 11
48.313691169244748
 21
41.106296109761409
 31
0.0
  0
POLYLINE
  5
3889
  8
0
 66
     1
 10
0.0
 20
0.0
 30
0.0
  0
VERTEX
  5
48A2
  8
0
 10
48.956248921016417
 20
40.745924810685089
 30
0.0
  0
VERTEX
  5
48A3
  8
0
 10
48.85521995086998
 20
40.802585774023633
 30
0.0
  0
VERTEX
  5
48A4
  8
0
 10
48.655668783070666
 20
40.914501805499008
 30
0.0
  0
VERTEX
  5
48A5
  8
0
 10
48.459337063624048
 20
41.024612245520579
 30
0.0
  0
VERTEX
  5
48A6
  8
0
 10
48.362333514898801
 20
41.079015596461034
 30
0.0
  0
SEQEND
  5
48A7
  8
0
  0
LINE
  5
388A
  8
0
 10
48.575970099395761
 20
40.054330114905923
 30
0.0
 11
48.530445811733159
 21
40.086545692340977
 31
0.0
  0
POLYLINE
  5
388B
  8
0
 66
     1
 10
0.0
 20
0.0
 30
0.0
  0
VERTEX
  5
48A8
  8
0
 10
49.131814506810542
 20
39.660982970593892
 30
0.0
  0
VERTEX
  5
48A9
  8
0
 10
49.037261667358329
 20
39.727893942241707
 30
0.0
  0
VERTEX
  5
48AA
  8
0
 10
48.850502072520783
 20
39.860055662899981
 30
0.0
  0
VERTEX
  5
48AB
  8
0
 10
48.666755553861151
 20
39.990085159334463
 30
0.0
  0
VERTEX
  5
48AC
  8
0
 10
48.575970099395761
 20
40.054330114905923
 30
0.0
  0
SEQEND
  5
48AD
  8
0
  0
LINE
  5
388C
  8
0
 10
48.68132756161009
 20
39.012926863758231
 30
0.0
 11
48.63942010556115
 21
39.049724544720078
 31
0.0
  0
POLYLINE
  5
388D
  8
0
 66
     1
 10
0.0
 20
0.0
 30
0.0
  0
VERTEX
  5
48AE
  8
0
 10
49.193011022676437
 20
38.563632954536303
 30
0.0
  0
VERTEX
  5
48AF
  8
0
 10
49.105970254614078
 20
38.640060843885919
 30
0.0
  0
VERTEX
  5
48B0
  8
0
 10
48.93404840994134
 20
38.791020262258911
 30
0.0
  0
VERTEX
  5
48B1
  8
0
 10
48.764900257378308
 20
38.939544184732988
 30
0.0
  0
VERTEX
  5
48B2
  8
0
 10
48.68132756161009
 20
39.012926863758203
 30
0.0
  0
SEQEND
  5
48B3
  8
0
  0
LINE
  5
388E
  8
0
 10
48.677251583138229
 20
37.966215674965007
 30
0.0
 11
48.63942010556115
 21
38.007192296360621
 31
0.0
  0
POLYLINE
  5
388F
  8
0
 66
     1
 10
0.0
 20
0.0
 30
0.0
  0
VERTEX
  5
48B4
  8
0
 10
49.139167986780024
 20
37.465897558923473
 30
0.0
  0
VERTEX
  5
48B5
  8
0
 10
49.060592926977051
 20
37.55100500602547
 30
0.0
  0
VERTEX
  5
48B6
  8
0
 10
48.90539244417613
 20
37.719108179135361
 30
0.0
  0
VERTEX
  5
48B7
  8
0
 10
48.752695880265662
 20
37.884499268474009
 30
0.0
  0
VERTEX
  5
48B8
  8
0
 10
48.677251583138229
 20
37.966215674965007
 30
0.0
  0
SEQEND
  5
48B9
  8
0
  0
LINE
  5
3890
  8
0
 10
48.563786821253359
 20
36.925664535349227
 30
0.0
 11
48.530445811733159
 21
36.970371148739638
 31
0.0
  0
POLYLINE
  5
3891
  8
0
 66
     1
 10
0.0
 20
0.0
 30
0.0
  0
VERTEX
  5
48BA
  8
0
 10
48.97087531469009
 20
36.379803802465723
 30
0.0
  0
VERTEX
  5
48BB
  8
0
 10
48.901626847944222
 20
36.472658352320082
 30
0.0
  0
VERTEX
  5
48BC
  8
0
 10
48.764848135982618
 20
36.656063506624292
 30
0.0
  0
VERTEX
  5
48BD
  8
0
 10
48.630276136232958
 20
36.836509703442033
 30
0.0
  0
VERTEX
  5
48BE
  8
0
 10
48.563786821253359
 20
36.925664535349227
 30
0.0
  0
SEQEND
  5
48BF
  8
0
  0
LINE
  5
3892
  8
0
 10
48.342176419630619
 20
35.902673940945732
 30
0.0
 11
48.313691169244748
 21
35.950620731319219
 31
0.0
  0
POLYLINE
  5
3893
  8
0
 66
     1
 10
0.0
 20
0.0
 30
0.0
  0
VERTEX
  5
48C0
  8
0
 10
48.689976856139481
 20
35.317251155638438
 30
0.0
  0
VERTEX
  5
48C1
  8
0
 10
48.630813683143678
 20
35.416835474365797
 30
0.0
  0
VERTEX
  5
48C2
  8
0
 10
48.513955318212361
 20
35.6135331846138
 30
0.0
  0
VERTEX
  5
48C3
  8
0
 10
48.398982281613769
 20
35.807057482617608
 30
0.0
  0
VERTEX
  5
48C4
  8
0
 10
48.342176419630619
 20
35.90267394094576
 30
0.0
  0
SEQEND
  5
48C5
  8
0
  0
LINE
  5
3894
  8
0
 10
48.014848388205223
 20
34.908451990781458
 30
0.0
 11
47.991530987317731
 21
34.959113643069117
 31
0.0
  0
POLYLINE
  5
3895
  8
0
 66
     1
 10
0.0
 20
0.0
 30
0.0
  0
VERTEX
  5
48C6
  8
0
 10
48.299550193421851
 20
34.289881167593791
 30
0.0
  0
VERTEX
  5
48C7
  8
0
 10
48.251120518280231
 20
34.395104188558719
 30
0.0
  0
VERTEX
  5
48C8
  8
0
 10
48.15546282507956
 20
34.602939393475538
 30
0.0
  0
VERTEX
  5
48C9
  8
0
 10
48.061348420280517
 20
34.80742149995902
 30
0.0
  0
VERTEX
  5
48CA
  8
0
 10
48.014848388205223
 20
34.908451990781458
 30
0.0
  0
SEQEND
  5
48CB
  8
0
  0
LINE
  5
3896
  8
0
 10
47.585389001387171
 20
33.953891588596633
 30
0.0
 11
47.567494920321728
 21
34.006713043134447
 31
0.0
  0
POLYLINE
  5
3897
  8
0
 66
     1
 10
0.0
 20
0.0
 30
0.0
  0
VERTEX
  5
48CC
  8
0
 10
47.803872922756
 20
33.308949918911679
 30
0.0
  0
VERTEX
  5
48CD
  8
0
 10
47.766707351123891
 20
33.418658796677313
 30
0.0
  0
VERTEX
  5
48CE
  8
0
 10
47.693298375358317
 20
33.635354410265251
 30
0.0
  0
VERTEX
  5
48CF
  8
0
 10
47.621073739472649
 20
33.848553976479003
 30
0.0
  0
VERTEX
  5
48D0
  8
0
 10
47.585389001387171
 20
33.953891588596662
 30
0.0
  0
SEQEND
  5
48D1
  8
0
  0
LINE
  5
3898
  8
0
 10
47.058503506088691
 20
33.049451097912289
 30
0.0
 11
47.046228796142032
 21
33.103853631790663
 31
0.0
  0
POLYLINE
  5
3899
  8
0
 66
     1
 10
0.0
 20
0.0
 30
0.0
  0
VERTEX
  5
48D2
  8
0
 10
47.208375788046453
 20
32.385204697625817
 30
0.0
  0
VERTEX
  5
48D3
  8
0
 10
47.182881513704103
 20
32.498197438769182
 30
0.0
  0
VERTEX
  5
48D4
  8
0
 10
47.132525539473868
 20
32.721379298539517
 30
0.0
  0
VERTEX
  5
48D5
  8
0
 10
47.082981980726167
 20
32.94096046542132
 30
0.0
  0
VERTEX
  5
48D6
  8
0
 10
47.058503506088691
 20
33.049451097912289
 30
0.0
  0
SEQEND
  5
48D7
  8
0
  0
LINE
  5
389A
  8
0
 10
46.439964570054137
 20
32.205039758010599
 30
0.0
 11
46.433443715517051
 21
32.260427325683942
 31
0.0
  0
POLYLINE
  5
389B
  8
0
 66
     1
 10
0.0
 20
0.0
 30
0.0
  0
VERTEX
  5
48D8
  8
0
 10
46.519583180516918
 20
31.528766249686701
 30
0.0
  0
VERTEX
  5
48D9
  8
0
 10
46.506039524069017
 20
31.643804882090649
 30
0.0
  0
VERTEX
  5
48DA
  8
0
 10
46.4792882619655
 20
31.871027760883781
 30
0.0
  0
VERTEX
  5
48DB
  8
0
 10
46.452968589953109
 20
32.094584751218889
 30
0.0
  0
VERTEX
  5
48DC
  8
0
 10
46.439964570054137
 20
32.205039758010599
 30
0.0
  0
SEQEND
  5
48DD
  8
0
  0
LINE
  5
389C
  8
0
 10
45.736549035304222
 20
31.429909116236018
 30
0.0
 11
45.735853480023593
 21
31.4856748799223
 31
0.0
  0
POLYLINE
  5
389D
  8
0
 66
     1
 10
0.0
 20
0.0
 30
0.0
  0
VERTEX
  5
48DE
  8
0
 10
45.745041656114552
 20
30.749017893951219
 30
0.0
  0
VERTEX
  5
48DF
  8
0
 10
45.743597004695403
 20
30.864842030285391
 30
0.0
  0
VERTEX
  5
48E0
  8
0
 10
45.740743547144177
 20
31.09361642669219
 30
0.0
  0
VERTEX
  5
48E1
  8
0
 10
45.737936125701417
 20
31.31869990331251
 30
0.0
  0
VERTEX
  5
48E2
  8
0
 10
45.736549035304222
 20
31.429909116236018
 30
0.0
  0
SEQEND
  5
48E3
  8
0
  0
LINE
  5
389E
  8
0
 10
44.955963669636901
 20
30.732551666106328
 30
0.0
 11
44.961101034261958
 21
30.788084644428888
 31
0.0
  0
POLYLINE
  5
389F
  8
0
 66
     1
 10
0.0
 20
0.0
 30
0.0
  0
VERTEX
  5
48E4
  8
0
 10
44.893237253864008
 20
30.05450271657762
 30
0.0
  0
VERTEX
  5
48E5
  8
0
 10
44.903907435376759
 20
30.169843363367001
 30
0.0
  0
VERTEX
  5
48E6
  8
0
 10
44.924983045455967
 20
30.39766277722601
 30
0.0
  0
VERTEX
  5
48E7
  8
0
 10
44.945718633279682
 20
30.621806678459588
 30
0.0
  0
VERTEX
  5
48E8
  8
0
 10
44.955963669636901
 20
30.732551666106328
 30
0.0
  0
SEQEND
  5
48E9
  8
0
  0
LINE
  5
38A0
  8
0
 10
44.106760729666398
 20
30.120607801776629
 30
0.0
 11
44.117674728155293
 21
30.175299563803922
 31
0.0
  0
POLYLINE
  5
38A1
  8
0
 66
     1
 10
0.0
 20
0.0
 30
0.0
  0
VERTEX
  5
48EA
  8
0
 10
43.973502521047799
 20
29.452829971185881
 30
0.0
  0
VERTEX
  5
48EB
  8
0
 10
43.996170630751003
 20
29.566423432167539
 30
0.0
  0
VERTEX
  5
48EC
  8
0
 10
44.040944399666209
 20
29.790791826306219
 30
0.0
  0
VERTEX
  5
48ED
  8
0
 10
44.084995813316993
 20
30.011540384666091
 30
0.0
  0
VERTEX
  5
48EE
  8
0
 10
44.106760729666398
 20
30.120607801776629
 30
0.0
  0
SEQEND
  5
48EF
  8
0
  0
LINE
  5
38A2
  8
0
 10
43.198244260510187
 20
29.600782108281891
 30
0.0
 11
43.214815316811503
 21
29.654033439624161
 31
0.0
  0
POLYLINE
  5
38A3
  8
0
 66
     1
 10
0.0
 20
0.0
 30
0.0
  0
VERTEX
  5
48F0
  8
0
 10
42.995914263865579
 20
28.95059171028263
 30
0.0
  0
VERTEX
  5
48F1
  8
0
 10
43.030331945205717
 20
29.061193431727158
 30
0.0
  0
VERTEX
  5
48F2
  8
0
 10
43.098313322175152
 20
29.27965257906726
 30
0.0
  0
VERTEX
  5
48F3
  8
0
 10
43.165197925146678
 20
29.494587227153382
 30
0.0
  0
VERTEX
  5
48F4
  8
0
 10
43.198244260510187
 20
29.600782108281919
 30
0.0
  0
SEQEND
  5
48F5
  8
0
  0
LINE
  5
38A4
  8
0
 10
42.240368158723641
 20
29.178769904700719
 30
0.0
 11
42.262414716876783
 21
29.229997372628159
 31
0.0
  0
POLYLINE
  5
38A5
  8
0
 66
     1
 10
0.0
 20
0.0
 30
0.0
  0
VERTEX
  5
48F6
  8
0
 10
41.971183143836463
 20
28.553290561354402
 30
0.0
  0
VERTEX
  5
48F7
  8
0
 10
42.016973309494396
 20
28.659688767656629
 30
0.0
  0
VERTEX
  5
48F8
  8
0
 10
42.10741747632607
 20
28.869845184064499
 30
0.0
  0
VERTEX
  5
48F9
  8
0
 10
42.196402466911699
 20
29.076611052894609
 30
0.0
  0
VERTEX
  5
48FA
  8
0
 10
42.240368158723641
 20
29.178769904700719
 30
0.0
  0
SEQEND
  5
48FB
  8
0
  0
LINE
  5
38A6
  8
0
 10
41.243627115326319
 20
28.859194845047089
 30
0.0
 11
41.27090762862673
 21
28.907837190701201
 31
0.0
  0
POLYLINE
  5
38A7
  8
0
 66
     1
 10
0.0
 20
0.0
 30
0.0
  0
VERTEX
  5
48FC
  8
0
 10
40.910536329550382
 20
28.265279438929468
 30
0.0
  0
VERTEX
  5
48FD
  8
0
 10
40.967197292888841
 20
28.366308409075859
 30
0.0
  0
VERTEX
  5
48FE
  8
0
 10
41.079113324364243
 20
28.565859576875141
 30
0.0
  0
VERTEX
  5
48FF
  8
0
 10
41.189223764385872
 20
28.762191296321848
 30
0.0
  0
VERTEX
  5
4900
  8
0
 10
41.243627115326319
 20
28.859194845047139
 30
0.0
  0
SEQEND
  5
4901
  8
0
  0
LINE
  5
38A8
  8
0
 10
40.21894163377123
 20
28.645558260550128
 30
0.0
 11
40.251157211206298
 21
28.691082548212741
 31
0.0
  0
POLYLINE
  5
38A9
  8
0
 66
     1
 10
0.0
 20
0.0
 30
0.0
  0
VERTEX
  5
4902
  8
0
 10
39.825594489459149
 20
28.089713853135379
 30
0.0
  0
VERTEX
  5
4903
  8
0
 10
39.892505461106907
 20
28.184266692587531
 30
0.0
  0
VERTEX
  5
4904
  8
0
 10
40.024667181765203
 20
28.37102628742505
 30
0.0
  0
VERTEX
  5
4905
  8
0
 10
40.154696678199727
 20
28.554772806084799
 30
0.0
  0
VERTEX
  5
4906
  8
0
 10
40.21894163377123
 20
28.645558260550128
 30
0.0
  0
SEQEND
  5
4907
  8
0
  0
LINE
  5
38AA
  8
0
 10
39.177538382623482
 20
28.5402007983358
 30
0.0
 11
39.214336063585328
 21
28.582108254384789
 31
0.0
  0
POLYLINE
  5
38AB
  8
0
 66
     1
 10
0.0
 20
0.0
 30
0.0
  0
VERTEX
  5
4908
  8
0
 10
38.72824447340156
 20
28.028517337269509
 30
0.0
  0
VERTEX
  5
4909
  8
0
 10
38.804672362751148
 20
28.115558105331779
 30
0.0
  0
VERTEX
  5
490A
  8
0
 10
38.955631781124112
 20
28.287479950004499
 30
0.0
  0
VERTEX
  5
490B
  8
0
 10
39.104155703598281
 20
28.456628102567581
 30
0.0
  0
VERTEX
  5
490C
  8
0
 10
39.177538382623482
 20
28.540200798335832
 30
0.0
  0
SEQEND
  5
490D
  8
0
  0
LINE
  5
38AC
  8
0
 10
38.130827193830328
 20
28.544276776807688
 30
0.0
 11
38.171803815225871
 21
28.582108254384821
 31
0.0
  0
POLYLINE
  5
38AD
  8
0
 66
     1
 10
0.0
 20
0.0
 30
0.0
  0
VERTEX
  5
490E
  8
0
 10
37.630509077788759
 20
28.082360373165901
 30
0.0
  0
VERTEX
  5
490F
  8
0
 10
37.715616524890827
 20
28.160935432968991
 30
0.0
  0
VERTEX
  5
4910
  8
0
 10
37.883719698000732
 20
28.316135915769909
 30
0.0
  0
VERTEX
  5
4911
  8
0
 10
38.049110787339323
 20
28.468832479680319
 30
0.0
  0
VERTEX
  5
4912
  8
0
 10
38.130827193830271
 20
28.544276776807688
 30
0.0
  0
SEQEND
  5
4913
  8
0
  0
LINE
  5
38AE
  8
0
 10
37.090276054214492
 20
28.657741538692619
 30
0.0
 11
37.134982667604902
 21
28.691082548212758
 31
0.0
  0
POLYLINE
  5
38AF
  8
0
 66
     1
 10
0.0
 20
0.0
 30
0.0
  0
VERTEX
  5
4914
  8
0
 10
36.544415321330973
 20
28.250653045255859
 30
0.0
  0
VERTEX
  5
4915
  8
0
 10
36.637269871185367
 20
28.31990151200171
 30
0.0
  0
VERTEX
  5
4916
  8
0
 10
36.820675025489663
 20
28.456680223963421
 30
0.0
  0
VERTEX
  5
4917
  8
0
 10
37.001121222307397
 20
28.591252223713042
 30
0.0
  0
VERTEX
  5
4918
  8
0
 10
37.090276054214492
 20
28.657741538692619
 30
0.0
  0
SEQEND
  5
4919
  8
0
  0
LINE
  5
38B0
  8
0
 10
36.067285459811053
 20
28.87935194031536
 30
0.0
 11
36.11523225018454
 21
28.90783719070123
 31
0.0
  0
POLYLINE
  5
38B1
  8
0
 66
     1
 10
0.0
 20
0.0
 30
0.0
  0
VERTEX
  5
491A
  8
0
 10
35.481862674503759
 20
28.531551503806501
 30
0.0
  0
VERTEX
  5
491B
  8
0
 10
35.581446993230998
 20
28.590714676802179
 30
0.0
  0
VERTEX
  5
491C
  8
0
 10
35.778144703479029
 20
28.707573041733561
 30
0.0
  0
VERTEX
  5
491D
  8
0
 10
35.971669001482951
 20
28.822546078332209
 30
0.0
  0
VERTEX
  5
491E
  8
0
 10
36.067285459811053
 20
28.879351940315331
 30
0.0
  0
SEQEND
  5
491F
  8
0
  0
LINE
  5
38B2
  8
0
 10
35.073063509646779
 20
29.206679971740758
 30
0.0
 11
35.123725161934431
 21
29.229997372628251
 31
0.0
  0
POLYLINE
  5
38B3
  8
0
 66
     1
 10
0.0
 20
0.0
 30
0.0
  0
VERTEX
  5
4920
  8
0
 10
34.454492686459048
 20
28.921978166524099
 30
0.0
  0
VERTEX
  5
4921
  8
0
 10
34.559715707423827
 20
28.970407841665661
 30
0.0
  0
VERTEX
  5
4922
  8
0
 10
34.767550912340823
 20
29.066065534866429
 30
0.0
  0
VERTEX
  5
4923
  8
0
 10
34.972033018824447
 20
29.160179939665511
 30
0.0
  0
VERTEX
  5
4924
  8
0
 10
35.073063509646722
 20
29.206679971740758
 30
0.0
  0
SEQEND
  5
4925
  8
0
  0
LINE
  5
38B4
  8
0
 10
34.118503107461947
 20
29.636139358558811
 30
0.0
 11
34.171324561999711
 21
29.65403343962419
 31
0.0
  0
POLYLINE
  5
38B5
  8
0
 66
     1
 10
0.0
 20
0.0
 30
0.0
  0
VERTEX
  5
4926
  8
0
 10
33.473561437776993
 20
29.41765543718995
 30
0.0
  0
VERTEX
  5
4927
  8
0
 10
33.583270315542343
 20
29.45482100882197
 30
0.0
  0
VERTEX
  5
4928
  8
0
 10
33.799965929130451
 20
29.5282299845876
 30
0.0
  0
VERTEX
  5
4929
  8
0
 10
34.013165495344417
 20
29.600454620473389
 30
0.0
  0
VERTEX
  5
492A
  8
0
 10
34.118503107461947
 20
29.636139358558779
 30
0.0
  0
SEQEND
  5
492B
  8
0
  0
LINE
  5
38B6
  8
0
 10
33.214062616777539
 20
30.16302485385722
 30
0.0
 11
33.26846515065597
 21
30.17529956380395
 31
0.0
  0
POLYLINE
  5
38B7
  8
0
 66
     1
 10
0.0
 20
0.0
 30
0.0
  0
VERTEX
  5
492C
  8
0
 10
32.549816216491138
 20
30.013152571899472
 30
0.0
  0
VERTEX
  5
492D
  8
0
 10
32.662808957634297
 20
30.038646846241789
 30
0.0
  0
VERTEX
  5
492E
  8
0
 10
32.885990817404718
 20
30.08900282047205
 30
0.0
  0
VERTEX
  5
492F
  8
0
 10
33.105571984286662
 20
30.138546379219779
 30
0.0
  0
VERTEX
  5
4930
  8
0
 10
33.214062616777539
 20
30.163024853857252
 30
0.0
  0
SEQEND
  5
4931
  8
0
  0
LINE
  5
38B8
  8
0
 10
32.369651276875857
 20
30.78156378989183
 30
0.0
 11
32.425038844549249
 21
30.78808464442892
 31
0.0
  0
POLYLINE
  5
38B9
  8
0
 66
     1
 10
0.0
 20
0.0
 30
0.0
  0
VERTEX
  5
4932
  8
0
 10
31.693377768552011
 20
30.701945179429028
 30
0.0
  0
VERTEX
  5
4933
  8
0
 10
31.808416400955821
 20
30.715488835876901
 30
0.0
  0
VERTEX
  5
4934
  8
0
 10
32.035639279749148
 20
30.742240097980471
 30
0.0
  0
VERTEX
  5
4935
  8
0
 10
32.259196270084367
 20
30.768559769992859
 30
0.0
  0
VERTEX
  5
4936
  8
0
 10
32.369651276875857
 20
30.78156378989183
 30
0.0
  0
SEQEND
  5
4937
  8
0
  0
LINE
  5
38BA
  8
0
 10
31.594520635101329
 20
31.484979324641699
 30
0.0
 11
31.65028639878761
 21
31.485674879922328
 31
0.0
  0
POLYLINE
  5
38BB
  8
0
 66
     1
 10
0.0
 20
0.0
 30
0.0
  0
VERTEX
  5
4938
  8
0
 10
30.91362941281654
 20
31.476486703831402
 30
0.0
  0
VERTEX
  5
4939
  8
0
 10
31.029453549150841
 20
31.477931355250579
 30
0.0
  0
VERTEX
  5
493A
  8
0
 10
31.258227945557451
 20
31.480784812801801
 30
0.0
  0
VERTEX
  5
493B
  8
0
 10
31.483311422177621
 20
31.483592234244501
 30
0.0
  0
VERTEX
  5
493C
  8
0
 10
31.594520635101329
 20
31.484979324641731
 30
0.0
  0
SEQEND
  5
493D
  8
0
  0
LINE
  5
38BC
  8
0
 10
30.897163184971649
 20
32.26556469030902
 30
0.0
 11
30.95269616329421
 21
32.26042732568397
 31
0.0
  0
POLYLINE
  5
38BD
  8
0
 66
     1
 10
0.0
 20
0.0
 30
0.0
  0
VERTEX
  5
493E
  8
0
 10
30.21911423544293
 20
32.328291106081963
 30
0.0
  0
VERTEX
  5
493F
  8
0
 10
30.334454882232311
 20
32.317620924569177
 30
0.0
  0
VERTEX
  5
4940
  8
0
 10
30.562274296091179
 20
32.296545314489997
 30
0.0
  0
VERTEX
  5
4941
  8
0
 10
30.786418197324739
 20
32.275809726666267
 30
0.0
  0
VERTEX
  5
4942
  8
0
 10
30.897163184971649
 20
32.265564690309049
 30
0.0
  0
SEQEND
  5
4943
  8
0
  0
LINE
  5
38BE
  8
0
 10
30.28521932064189
 20
33.114767630279523
 30
0.0
 11
30.339911082669229
 21
33.103853631790692
 31
0.0
  0
POLYLINE
  5
38BF
  8
0
 66
     1
 10
0.0
 20
0.0
 30
0.0
  0
VERTEX
  5
4944
  8
0
 10
29.617441490051188
 20
33.248025838898172
 30
0.0
  0
VERTEX
  5
4945
  8
0
 10
29.731034951032878
 20
33.22535772919494
 30
0.0
  0
VERTEX
  5
4946
  8
0
 10
29.95540334517159
 20
33.180583960279762
 30
0.0
  0
VERTEX
  5
4947
  8
0
 10
30.17615190353138
 20
33.136532546628963
 30
0.0
  0
VERTEX
  5
4948
  8
0
 10
30.28521932064189
 20
33.114767630279538
 30
0.0
  0
SEQEND
  5
4949
  8
0
  0
LINE
  5
38C0
  8
0
 10
29.765393627147208
 20
34.023284099435728
 30
0.0
 11
29.818644958489472
 21
34.006713043134482
 31
0.0
  0
POLYLINE
  5
38C1
  8
0
 66
     1
 10
0.0
 20
0.0
 30
0.0
  0
VERTEX
  5
494A
  8
0
 10
29.11520322914788
 20
34.225614096080392
 30
0.0
  0
VERTEX
  5
494B
  8
0
 10
29.225804950592419
 20
34.191196414740261
 30
0.0
  0
VERTEX
  5
494C
  8
0
 10
29.444264097932489
 20
34.123215037770819
 30
0.0
  0
VERTEX
  5
494D
  8
0
 10
29.65919874601861
 20
34.056330434799293
 30
0.0
  0
VERTEX
  5
494E
  8
0
 10
29.765393627147208
 20
34.023284099435763
 30
0.0
  0
SEQEND
  5
494F
  8
0
  0
LINE
  5
38C2
  8
0
 10
29.343381423565969
 20
34.981160201222337
 30
0.0
 11
29.39460889149348
 21
34.959113643069152
 31
0.0
  0
POLYLINE
  5
38C3
  8
0
 66
     1
 10
0.0
 20
0.0
 30
0.0
  0
VERTEX
  5
4950
  8
0
 10
28.717902080219691
 20
35.25034521610948
 30
0.0
  0
VERTEX
  5
4951
  8
0
 10
28.824300286521979
 20
35.204555050451553
 30
0.0
  0
VERTEX
  5
4952
  8
0
 10
29.034456702929731
 20
35.114110883619901
 30
0.0
  0
VERTEX
  5
4953
  8
0
 10
29.241222571759799
 20
35.025125893034271
 30
0.0
  0
VERTEX
  5
4954
  8
0
 10
29.343381423565969
 20
34.981160201222337
 30
0.0
  0
SEQEND
  5
4955
  8
0
  0
LINE
  5
38C4
  8
0
 10
29.023806363912399
 20
35.977901244619659
 30
0.0
 11
29.072448709566519
 21
35.950620731319248
 31
0.0
  0
POLYLINE
  5
38C5
  8
0
 66
     1
 10
0.0
 20
0.0
 30
0.0
  0
VERTEX
  5
4956
  8
0
 10
28.429890957794779
 20
36.310992030395603
 30
0.0
  0
VERTEX
  5
4957
  8
0
 10
28.530919927941291
 20
36.254331067057031
 30
0.0
  0
VERTEX
  5
4958
  8
0
 10
28.73047109574054
 20
36.142415035581678
 30
0.0
  0
VERTEX
  5
4959
  8
0
 10
28.926802815187099
 20
36.032304595560113
 30
0.0
  0
VERTEX
  5
495A
  8
0
 10
29.023806363912399
 20
35.977901244619659
 30
0.0
  0
SEQEND
  5
495B
  8
0
  0
LINE
  5
38C6
  8
0
 10
28.81016977941545
 20
37.002586726174741
 30
0.0
 11
28.855694067078051
 21
36.97037114873968
 31
0.0
  0
POLYLINE
  5
38C7
  8
0
 66
     1
 10
0.0
 20
0.0
 30
0.0
  0
VERTEX
  5
495C
  8
0
 10
28.254325372000672
 20
37.3959338704868
 30
0.0
  0
VERTEX
  5
495D
  8
0
 10
28.348878211452821
 20
37.32902289883905
 30
0.0
  0
VERTEX
  5
495E
  8
0
 10
28.535637806290371
 20
37.19686117818074
 30
0.0
  0
VERTEX
  5
495F
  8
0
 10
28.719384324950109
 20
37.066831681746208
 30
0.0
  0
VERTEX
  5
4960
  8
0
 10
28.81016977941545
 20
37.002586726174741
 30
0.0
  0
SEQEND
  5
4961
  8
0
  0
LINE
  5
38C8
  8
0
 10
28.704812317201121
 20
38.043989977322497
 30
0.0
 11
28.746719773250049
 21
38.007192296360579
 31
0.0
  0
POLYLINE
  5
38C9
  8
0
 66
     1
 10
0.0
 20
0.0
 30
0.0
  0
VERTEX
  5
4962
  8
0
 10
28.19312885613482
 20
38.49328388654439
 30
0.0
  0
VERTEX
  5
4963
  8
0
 10
28.280169624197072
 20
38.416855997194858
 30
0.0
  0
VERTEX
  5
4964
  8
0
 10
28.45209146886998
 20
38.265896578821703
 30
0.0
  0
VERTEX
  5
4965
  8
0
 10
28.621239621433059
 20
38.117372656347527
 30
0.0
  0
VERTEX
  5
4966
  8
0
 10
28.704812317201121
 20
38.043989977322497
 30
0.0
  0
SEQEND
  5
4967
  8
0
  0
LINE
  5
38CA
  8
0
 10
28.708888295672981
 20
39.09070116611565
 30
0.0
 11
28.746719773250049
 21
39.04972454472005
 31
0.0
  0
POLYLINE
  5
38CB
  8
0
 66
     1
 10
0.0
 20
0.0
 30
0.0
  0
VERTEX
  5
4968
  8
0
 10
28.246971892031191
 20
39.591019282157191
 30
0.0
  0
VERTEX
  5
4969
  8
0
 10
28.325546951834159
 20
39.505911835055201
 30
0.0
  0
VERTEX
  5
496A
  8
0
 10
28.480747434635131
 20
39.337808661945303
 30
0.0
  0
VERTEX
  5
496B
  8
0
 10
28.633443998545541
 20
39.17241757260669
 30
0.0
  0
VERTEX
  5
496C
  8
0
 10
28.708888295672981
 20
39.09070116611565
 30
0.0
  0
SEQEND
  5
496D
  8
0
  0
LINE
  5
38CC
  8
0
 10
28.822353057557851
 20
40.131252305731437
 30
0.0
 11
28.855694067078051
 21
40.086545692341019
 31
0.0
  0
POLYLINE
  5
38CD
  8
0
 66
     1
 10
0.0
 20
0.0
 30
0.0
  0
VERTEX
  5
496E
  8
0
 10
28.41526456412112
 20
40.677113038614969
 30
0.0
  0
VERTEX
  5
496F
  8
0
 10
28.484513030866989
 20
40.584258488760661
 30
0.0
  0
VERTEX
  5
4970
  8
0
 10
28.62129174282865
 20
40.4008533344564
 30
0.0
  0
VERTEX
  5
4971
  8
0
 10
28.755863742578239
 20
40.220407137638631
 30
0.0
  0
VERTEX
  5
4972
  8
0
 10
28.822353057557851
 20
40.131252305731458
 30
0.0
  0
SEQEND
  5
4973
  8
0
  0
LINE
  5
38CE
  8
0
 10
29.043963459180588
 20
41.154242900134932
 30
0.0
 11
29.072448709566519
 21
41.106296109761438
 31
0.0
  0
POLYLINE
  5
38CF
  8
0
 66
     1
 10
0.0
 20
0.0
 30
0.0
  0
VERTEX
  5
4974
  8
0
 10
28.69616302267173
 20
41.739665685442219
 30
0.0
  0
VERTEX
  5
4975
  8
0
 10
28.755326195667521
 20
41.640081366714902
 30
0.0
  0
VERTEX
  5
4976
  8
0
 10
28.872184560598839
 20
41.443383656466892
 30
0.0
  0
VERTEX
  5
4977
  8
0
 10
28.987157597197442
 20
41.249859358463077
 30
0.0
  0
VERTEX
  5
4978
  8
0
 10
29.043963459180588
 20
41.154242900134932
 30
0.0
  0
SEQEND
  5
4979
  8
0
  0
LINE
  5
38D0
  8
0
 10
29.37129149060604
 20
42.148464850299199
 30
0.0
 11
29.39460889149348
 21
42.09780319801154
 31
0.0
  0
POLYLINE
  5
38D1
  8
0
 66
     1
 10
0.0
 20
0.0
 30
0.0
  0
VERTEX
  5
497A
  8
0
 10
29.08658968538936
 20
42.767035673486902
 30
0.0
  0
VERTEX
  5
497B
  8
0
 10
29.135019360530919
 20
42.661812652522087
 30
0.0
  0
VERTEX
  5
497C
  8
0
 10
29.230677053731601
 20
42.453977447605347
 30
0.0
  0
VERTEX
  5
497D
  8
0
 10
29.32479145853069
 20
42.249495341121758
 30
0.0
  0
VERTEX
  5
497E
  8
0
 10
29.37129149060604
 20
42.148464850299199
 30
0.0
  0
SEQEND
  5
497F
  8
0
  0
LINE
  5
38D2
  8
0
 10
29.80075087742404
 20
43.103025252484031
 30
0.0
 11
29.818644958489472
 21
43.05020379794621
 31
0.0
  0
POLYLINE
  5
38D3
  8
0
 66
     1
 10
0.0
 20
0.0
 30
0.0
  0
VERTEX
  5
4980
  8
0
 10
29.582266956055211
 20
43.747966922168978
 30
0.0
  0
VERTEX
  5
4981
  8
0
 10
29.619432527687309
 20
43.638258044403408
 30
0.0
  0
VERTEX
  5
4982
  8
0
 10
29.692841503452939
 20
43.421562430815349
 30
0.0
  0
VERTEX
  5
4983
  8
0
 10
29.765066139338671
 20
43.208362864601547
 30
0.0
  0
VERTEX
  5
4984
  8
0
 10
29.80075087742404
 20
43.103025252484031
 30
0.0
  0
SEQEND
  5
4985
  8
0
  0
LINE
  5
38D4
  8
0
 10
30.327636372722509
 20
44.007465743168382
 30
0.0
 11
30.339911082669229
 21
43.953063209290008
 31
0.0
  0
POLYLINE
  5
38D5
  8
0
 66
     1
 10
0.0
 20
0.0
 30
0.0
  0
VERTEX
  5
4986
  8
0
 10
30.190038800711481
 20
44.617309609576438
 30
0.0
  0
VERTEX
  5
4987
  8
0
 10
30.21553307505377
 20
44.504316868433278
 30
0.0
  0
VERTEX
  5
4988
  8
0
 10
30.265889049284059
 20
44.281135008662851
 30
0.0
  0
VERTEX
  5
4989
  8
0
 10
30.31543260803176
 20
44.061553841780857
 30
0.0
  0
VERTEX
  5
498A
  8
0
 10
30.339911082669229
 20
43.953063209290008
 30
0.0
  0
SEQEND
  5
498B
  8
0
  0
LINE
  5
38D6
  8
0
 10
30.94617530875712
 20
44.851877083070057
 30
0.0
 11
30.95269616329421
 21
44.796489515396722
 31
0.0
  0
POLYLINE
  5
38D7
  8
0
 66
     1
 10
0.0
 20
0.0
 30
0.0
  0
VERTEX
  5
498C
  8
0
 10
30.866556698294289
 20
45.528150591393967
 30
0.0
  0
VERTEX
  5
498D
  8
0
 10
30.880100354742179
 20
45.413111958990193
 30
0.0
  0
VERTEX
  5
498E
  8
0
 10
30.90685161684576
 20
45.185889080196887
 30
0.0
  0
VERTEX
  5
498F
  8
0
 10
30.933171288858091
 20
44.962332089861661
 30
0.0
  0
VERTEX
  5
4990
  8
0
 10
30.94617530875712
 20
44.851877083070093
 30
0.0
  0
SEQEND
  5
4991
  8
0
  0
LINE
  5
38D8
  8
0
 10
31.649590843506981
 20
45.627007724844638
 30
0.0
 11
31.65028639878761
 21
45.571241961158307
 31
0.0
  0
POLYLINE
  5
38D9
  8
0
 66
     1
 10
0.0
 20
0.0
 30
0.0
  0
VERTEX
  5
4992
  8
0
 10
31.641098222696652
 20
46.307898947129416
 30
0.0
  0
VERTEX
  5
4993
  8
0
 10
31.642542874115801
 20
46.192074810795077
 30
0.0
  0
VERTEX
  5
4994
  8
0
 10
31.64539633166709
 20
45.963300414388407
 30
0.0
  0
VERTEX
  5
4995
  8
0
 10
31.64820375310978
 20
45.738216937768271
 30
0.0
  0
VERTEX
  5
4996
  8
0
 10
31.649590843506981
 20
45.627007724844638
 30
0.0
  0
SEQEND
  5
4997
  8
0
  0
LINE
  5
38DA
  8
0
 10
32.430176209174313
 20
46.324365174974311
 30
0.0
 11
32.425038844549249
 21
46.268832196651687
 31
0.0
  0
POLYLINE
  5
38DB
  8
0
 66
     1
 10
0.0
 20
0.0
 30
0.0
  0
VERTEX
  5
4998
  8
0
 10
32.492902624947249
 20
47.002414124503026
 30
0.0
  0
VERTEX
  5
4999
  8
0
 10
32.482232443434441
 20
46.887073477713571
 30
0.0
  0
VERTEX
  5
499A
  8
0
 10
32.46115683335529
 20
46.659254063854682
 30
0.0
  0
VERTEX
  5
499B
  8
0
 10
32.440421245531518
 20
46.435110162621172
 30
0.0
  0
VERTEX
  5
499C
  8
0
 10
32.430176209174313
 20
46.324365174974311
 30
0.0
  0
SEQEND
  5
499D
  8
0
  0
LINE
  5
38DC
  8
0
 10
33.279379149144802
 20
46.936309039304071
 30
0.0
 11
33.26846515065597
 21
46.881617277276732
 31
0.0
  0
POLYLINE
  5
38DD
  8
0
 66
     1
 10
0.0
 20
0.0
 30
0.0
  0
VERTEX
  5
499E
  8
0
 10
33.412637357763458
 20
47.604086869894772
 30
0.0
  0
VERTEX
  5
499F
  8
0
 10
33.389969248060247
 20
47.490493408913132
 30
0.0
  0
VERTEX
  5
49A0
  8
0
 10
33.345195479145048
 20
47.266125014774538
 30
0.0
  0
VERTEX
  5
49A1
  8
0
 10
33.30114406549427
 20
47.045376456414637
 30
0.0
  0
VERTEX
  5
49A2
  8
0
 10
33.279379149144802
 20
46.936309039304042
 30
0.0
  0
SEQEND
  5
49A3
  8
0
  0
LINE
  5
38DE
  8
0
 10
34.187895618301013
 20
47.456134732798759
 30
0.0
 11
34.171324561999711
 21
47.402883401456428
 31
0.0
  0
POLYLINE
  5
38DF
  8
0
 66
     1
 10
0.0
 20
0.0
 30
0.0
  0
VERTEX
  5
49A4
  8
0
 10
34.390225614945678
 20
48.10632513079802
 30
0.0
  0
VERTEX
  5
49A5
  8
0
 10
34.355807933605547
 20
47.99572340935363
 30
0.0
  0
VERTEX
  5
49A6
  8
0
 10
34.287826556636048
 20
47.777264262013418
 30
0.0
  0
VERTEX
  5
49A7
  8
0
 10
34.220941953664521
 20
47.56232961392719
 30
0.0
  0
VERTEX
  5
49A8
  8
0
 10
34.187895618301013
 20
47.456134732798731
 30
0.0
  0
SEQEND
  5
49A9
  8
0
  0
LINE
  5
38E0
  8
0
 10
35.145771720087623
 20
47.878146936379927
 30
0.0
 11
35.123725161934431
 21
47.826919468452417
 31
0.0
  0
POLYLINE
  5
38E1
  8
0
 66
     1
 10
0.0
 20
0.0
 30
0.0
  0
VERTEX
  5
49AA
  8
0
 10
35.414956734974737
 20
48.503626279726276
 30
0.0
  0
VERTEX
  5
49AB
  8
0
 10
35.369166569316917
 20
48.397228073424181
 30
0.0
  0
VERTEX
  5
49AC
  8
0
 10
35.278722402485187
 20
48.18707165701629
 30
0.0
  0
VERTEX
  5
49AD
  8
0
 10
35.1897374118995
 20
47.980305788186037
 30
0.0
  0
VERTEX
  5
49AE
  8
0
 10
35.145771720087623
 20
47.878146936379963
 30
0.0
  0
SEQEND
  5
49AF
  8
0
  0
LINE
  5
38E2
  8
0
 10
36.142512763484952
 20
48.197721996033557
 30
0.0
 11
36.11523225018454
 21
48.149079650379448
 31
0.0
  0
POLYLINE
  5
38E3
  8
0
 66
     1
 10
0.0
 20
0.0
 30
0.0
  0
VERTEX
  5
49B0
  8
0
 10
36.475603549260882
 20
48.79163740215116
 30
0.0
  0
VERTEX
  5
49B1
  8
0
 10
36.418942585922309
 20
48.690608432004652
 30
0.0
  0
VERTEX
  5
49B2
  8
0
 10
36.307026554446971
 20
48.49105726420543
 30
0.0
  0
VERTEX
  5
49B3
  8
0
 10
36.196916114425392
 20
48.29472554475889
 30
0.0
  0
VERTEX
  5
49B4
  8
0
 10
36.142512763484952
 20
48.197721996033529
 30
0.0
  0
SEQEND
  5
49B5
  8
0
  0
LINE
  5
38E4
  8
0
 10
37.167198245040026
 20
48.411358580530518
 30
0.0
 11
37.134982667604902
 21
48.365834292867859
 31
0.0
  0
POLYLINE
  5
38E5
  8
0
 66
     1
 10
0.0
 20
0.0
 30
0.0
  0
VERTEX
  5
49B6
  8
0
 10
37.560545389352058
 20
48.967202987945271
 30
0.0
  0
VERTEX
  5
49B7
  8
0
 10
37.493634417704357
 20
48.872650148493207
 30
0.0
  0
VERTEX
  5
49B8
  8
0
 10
37.361472697045997
 20
48.685890553655568
 30
0.0
  0
VERTEX
  5
49B9
  8
0
 10
37.231443200611409
 20
48.502144034995737
 30
0.0
  0
VERTEX
  5
49BA
  8
0
 10
37.167198245040026
 20
48.411358580530518
 30
0.0
  0
SEQEND
  5
49BB
  8
0
  0
LINE
  5
38E6
  8
0
 10
38.653069939405611
 20
49.028382229787709
 30
0.0
 11
38.653069939405611
 21
49.022903966174489
 31
0.0
  0
POLYLINE
  5
38E7
  8
0
 66
     1
 10
0.0
 20
0.0
 30
0.0
  0
VERTEX
  5
49BC
  8
0
 10
38.653069939405611
 20
49.022903967157909
 30
0.0
  0
VERTEX
  5
49BD
  8
0
 10
38.577479844381287
 20
48.936817330658997
 30
0.0
  0
VERTEX
  5
49BE
  8
0
 10
38.428154433313303
 20
48.766756393726311
 30
0.0
  0
VERTEX
  5
49BF
  8
0
 10
38.281212028540438
 20
48.599409370523162
 30
0.0
  0
VERTEX
  5
49C0
  8
0
 10
38.208601496187732
 20
48.516716042744818
 30
0.0
  0
SEQEND
  5
49C1
  8
0
  0
LINE
  5
38E8
  8
0
 10
38.208601496187732
 20
48.516716042744847
 30
0.0
 11
38.171803815225871
 21
48.474808586695858
 31
0.0
  0
LINE
  5
38E9
  8
0
 10
38.733069939405588
 20
49.022903966174489
 30
0.0
 11
38.733069939405588
 21
49.028382229787709
 31
0.0
  0
POLYLINE
  5
38EA
  8
0
 66
     1
 10
0.0
 20
0.0
 30
0.0
  0
VERTEX
  5
49C2
  8
0
 10
39.177538382623482
 20
48.516716042744818
 30
0.0
  0
VERTEX
  5
49C3
  8
0
 10
39.104927850270712
 20
48.599409370523212
 30
0.0
  0
VERTEX
  5
49C4
  8
0
 10
38.957985445497911
 20
48.766756393726311
 30
0.0
  0
VERTEX
  5
49C5
  8
0
 10
38.80866003442992
 20
48.936817330658961
 30
0.0
  0
VERTEX
  5
49C6
  8
0
 10
38.733069939405588
 20
49.022903967157909
 30
0.0
  0
SEQEND
  5
49C7
  8
0
  0
LINE
  5
38EB
  8
0
 10
39.214336063585328
 20
48.474808586695858
 30
0.0
 11
39.177538382623482
 21
48.516716042744847
 31
0.0
  0
POLYLINE
  5
38EC
  8
0
 66
     1
 10
0.0
 20
0.0
 30
0.0
  0
VERTEX
  5
49C8
  8
0
 10
40.21894163377123
 20
48.411358580530518
 30
0.0
  0
VERTEX
  5
49C9
  8
0
 10
40.154696678199848
 20
48.50214403499568
 30
0.0
  0
VERTEX
  5
49CA
  8
0
 10
40.024667181765267
 20
48.685890553655533
 30
0.0
  0
VERTEX
  5
49CB
  8
0
 10
39.89250546110685
 20
48.872650148493207
 30
0.0
  0
VERTEX
  5
49CC
  8
0
 10
39.825594489459149
 20
48.967202987945271
 30
0.0
  0
SEQEND
  5
49CD
  8
0
  0
LINE
  5
38ED
  8
0
 10
40.251157211206298
 20
48.365834292867909
 30
0.0
 11
40.21894163377123
 21
48.411358580530518
 31
0.0
  0
POLYLINE
  5
38EE
  8
0
 66
     1
 10
0.0
 20
0.0
 30
0.0
  0
VERTEX
  5
49CE
  8
0
 10
41.243627115326319
 20
48.197721996033508
 30
0.0
  0
VERTEX
  5
49CF
  8
0
 10
41.189223764385979
 20
48.294725544758627
 30
0.0
  0
VERTEX
  5
49D0
  8
0
 10
41.079113324364243
 20
48.491057264205452
 30
0.0
  0
VERTEX
  5
49D1
  8
0
 10
40.967197292888777
 20
48.6906084320049
 30
0.0
  0
VERTEX
  5
49D2
  8
0
 10
40.910536329550382
 20
48.79163740215116
 30
0.0
  0
SEQEND
  5
49D3
  8
0
  0
LINE
  5
38EF
  8
0
 10
41.27090762862673
 20
48.149079650379448
 30
0.0
 11
41.243627115326319
 21
48.197721996033508
 31
0.0
  0
POLYLINE
  5
38F0
  8
0
 66
     1
 10
0.0
 20
0.0
 30
0.0
  0
VERTEX
  5
49D4
  8
0
 10
42.240368158723641
 20
47.878146936379927
 30
0.0
  0
VERTEX
  5
49D5
  8
0
 10
42.19640246691182
 20
47.980305788185873
 30
0.0
  0
VERTEX
  5
49D6
  8
0
 10
42.10741747632607
 20
48.187071657016119
 30
0.0
  0
VERTEX
  5
49D7
  8
0
 10
42.016973309494347
 20
48.397228073424159
 30
0.0
  0
VERTEX
  5
49D8
  8
0
 10
41.971183143836463
 20
48.503626279726248
 30
0.0
  0
SEQEND
  5
49D9
  8
0
  0
LINE
  5
38F1
  8
0
 10
42.262414716876783
 20
47.826919468452488
 30
0.0
 11
42.240368158723641
 21
47.878146936379927
 31
0.0
  0
POLYLINE
  5
38F2
  8
0
 66
     1
 10
0.0
 20
0.0
 30
0.0
  0
VERTEX
  5
49DA
  8
0
 10
43.198244260510187
 20
47.456134732798731
 30
0.0
  0
VERTEX
  5
49DB
  8
0
 10
43.165197925146678
 20
47.562329613927297
 30
0.0
  0
VERTEX
  5
49DC
  8
0
 10
43.098313322175152
 20
47.777264262013503
 30
0.0
  0
VERTEX
  5
49DD
  8
0
 10
43.030331945205653
 20
47.995723409353602
 30
0.0
  0
VERTEX
  5
49DE
  8
0
 10
42.995914263865579
 20
48.10632513079802
 30
0.0
  0
SEQEND
  5
49DF
  8
0
  0
LINE
  5
38F3
  8
0
 10
43.214815316811503
 20
47.402883401456492
 30
0.0
 11
43.198244260510187
 21
47.456134732798759
 31
0.0
  0
POLYLINE
  5
38F4
  8
0
 66
     1
 10
0.0
 20
0.0
 30
0.0
  0
VERTEX
  5
49E0
  8
0
 10
44.106760729666462
 20
46.936309039304021
 30
0.0
  0
VERTEX
  5
49E1
  8
0
 10
44.084995813316993
 20
47.045376456414502
 30
0.0
  0
VERTEX
  5
49E2
  8
0
 10
44.040944399666209
 20
47.266125014774317
 30
0.0
  0
VERTEX
  5
49E3
  8
0
 10
43.996170630751003
 20
47.490493408913032
 30
0.0
  0
VERTEX
  5
49E4
  8
0
 10
43.973502521047799
 20
47.604086869894772
 30
0.0
  0
SEQEND
  5
49E5
  8
0
  0
LINE
  5
38F5
  8
0
 10
44.117674728155293
 20
46.881617277276732
 30
0.0
 11
44.106760729666462
 21
46.936309039304021
 31
0.0
  0
POLYLINE
  5
38F6
  8
0
 66
     1
 10
0.0
 20
0.0
 30
0.0
  0
VERTEX
  5
49E6
  8
0
 10
44.955963669636951
 20
46.324365174974311
 30
0.0
  0
VERTEX
  5
49E7
  8
0
 10
44.945718633279682
 20
46.435110162621228
 30
0.0
  0
VERTEX
  5
49E8
  8
0
 10
44.924983045455967
 20
46.659254063854704
 30
0.0
  0
VERTEX
  5
49E9
  8
0
 10
44.903907435376823
 20
46.887073477713543
 30
0.0
  0
VERTEX
  5
49EA
  8
0
 10
44.893237253864008
 20
47.002414124503026
 30
0.0
  0
SEQEND
  5
49EB
  8
0
  0
LINE
  5
38F7
  8
0
 10
44.961101034262008
 20
46.268832196651758
 30
0.0
 11
44.955963669636951
 21
46.324365174974311
 31
0.0
  0
POLYLINE
  5
38F8
  8
0
 66
     1
 10
0.0
 20
0.0
 30
0.0
  0
VERTEX
  5
49EC
  8
0
 10
45.736549035304222
 20
45.62700772484461
 30
0.0
  0
VERTEX
  5
49ED
  8
0
 10
45.737936125701417
 20
45.7382169377683
 30
0.0
  0
VERTEX
  5
49EE
  8
0
 10
45.740743547144177
 20
45.963300414388392
 30
0.0
  0
VERTEX
  5
49EF
  8
0
 10
45.743597004695403
 20
46.192074810794999
 30
0.0
  0
VERTEX
  5
49F0
  8
0
 10
45.745041656114552
 20
46.307898947129416
 30
0.0
  0
SEQEND
  5
49F1
  8
0
  0
LINE
  5
38F9
  8
0
 10
45.735853480023593
 20
45.571241961158329
 30
0.0
 11
45.736549035304222
 21
45.62700772484461
 31
0.0
  0
POLYLINE
  5
38FA
  8
0
 66
     1
 10
0.0
 20
0.0
 30
0.0
  0
VERTEX
  5
49F2
  8
0
 10
46.439964570054137
 20
44.851877083070029
 30
0.0
  0
VERTEX
  5
49F3
  8
0
 10
46.452968589953109
 20
44.962332089861633
 30
0.0
  0
VERTEX
  5
49F4
  8
0
 10
46.4792882619655
 20
45.185889080196858
 30
0.0
  0
VERTEX
  5
49F5
  8
0
 10
46.506039524069081
 20
45.4131119589901
 30
0.0
  0
VERTEX
  5
49F6
  8
0
 10
46.519583180516918
 20
45.528150591393903
 30
0.0
  0
SEQEND
  5
49F7
  8
0
  0
LINE
  5
38FB
  8
0
 10
46.433443715517051
 20
44.796489515396701
 30
0.0
 11
46.439964570054137
 21
44.851877083070029
 31
0.0
  0
POLYLINE
  5
38FC
  8
0
 66
     1
 10
0.0
 20
0.0
 30
0.0
  0
VERTEX
  5
49F8
  8
0
 10
47.058503506088691
 20
44.007465743168353
 30
0.0
  0
VERTEX
  5
49F9
  8
0
 10
47.082981980726167
 20
44.115956375659287
 30
0.0
  0
VERTEX
  5
49FA
  8
0
 10
47.132525539473868
 20
44.335537542541118
 30
0.0
  0
VERTEX
  5
49FB
  8
0
 10
47.18288151370416
 20
44.558719402311482
 30
0.0
  0
VERTEX
  5
49FC
  8
0
 10
47.208375788046453
 20
44.671712143454812
 30
0.0
  0
SEQEND
  5
49FD
  8
0
  0
LINE
  5
38FD
  8
0
 10
47.046228796142032
 20
43.953063209289972
 30
0.0
 11
47.058503506088691
 21
44.007465743168353
 31
0.0
  0
POLYLINE
  5
38FE
  8
0
 66
     1
 10
0.0
 20
0.0
 30
0.0
  0
VERTEX
  5
49FE
  8
0
 10
47.585389001387171
 20
43.103025252483967
 30
0.0
  0
VERTEX
  5
49FF
  8
0
 10
47.621073739472529
 20
43.20836286460144
 30
0.0
  0
VERTEX
  5
4A00
  8
0
 10
47.693298375358317
 20
43.421562430815392
 30
0.0
  0
VERTEX
  5
4A01
  8
0
 10
47.766707351123962
 20
43.638258044403521
 30
0.0
  0
VERTEX
  5
4A02
  8
0
 10
47.803872922756
 20
43.747966922168921
 30
0.0
  0
SEQEND
  5
4A03
  8
0
  0
LINE
  5
38FF
  8
0
 10
47.567494920321728
 20
43.050203797946182
 30
0.0
 11
47.585389001387171
 21
43.103025252484002
 31
0.0
  0
POLYLINE
  5
3900
  8
0
 66
     1
 10
0.0
 20
0.0
 30
0.0
  0
VERTEX
  5
4A04
  8
0
 10
48.014848388205223
 20
42.148464850299177
 30
0.0
  0
VERTEX
  5
4A05
  8
0
 10
48.061348420280517
 20
42.249495341121673
 30
0.0
  0
VERTEX
  5
4A06
  8
0
 10
48.15546282507961
 20
42.45397744760524
 30
0.0
  0
VERTEX
  5
4A07
  8
0
 10
48.251120518280281
 20
42.661812652522023
 30
0.0
  0
VERTEX
  5
4A08
  8
0
 10
48.299550193421851
 20
42.767035673486838
 30
0.0
  0
SEQEND
  5
4A09
  8
0
  0
LINE
  5
3901
  8
0
 10
47.991530987317731
 20
42.097803198011519
 30
0.0
 11
48.014848388205223
 21
42.148464850299177
 31
0.0
  0
POLYLINE
  5
3902
  8
0
 66
     1
 10
0.0
 20
0.0
 30
0.0
  0
VERTEX
  5
4A0A
  8
0
 10
48.342176419630619
 20
41.154242900134868
 30
0.0
  0
VERTEX
  5
4A0B
  8
0
 10
48.398982281613769
 20
41.249859358463027
 30
0.0
  0
VERTEX
  5
4A0C
  8
0
 10
48.513955318212361
 20
41.443383656466828
 30
0.0
  0
VERTEX
  5
4A0D
  8
0
 10
48.630813683143678
 20
41.640081366714831
 30
0.0
  0
VERTEX
  5
4A0E
  8
0
 10
48.689976856139481
 20
41.739665685442183
 30
0.0
  0
SEQEND
  5
4A0F
  8
0
  0
LINE
  5
3903
  8
0
 10
48.313691169244748
 20
41.106296109761409
 30
0.0
 11
48.342176419630619
 21
41.154242900134903
 31
0.0
  0
POLYLINE
  5
3904
  8
0
 66
     1
 10
0.0
 20
0.0
 30
0.0
  0
VERTEX
  5
4A10
  8
0
 10
48.563786821253359
 20
40.131252305731401
 30
0.0
  0
VERTEX
  5
4A11
  8
0
 10
48.630276136233078
 20
40.220407137638709
 30
0.0
  0
VERTEX
  5
4A12
  8
0
 10
48.764848135982618
 20
40.400853334456343
 30
0.0
  0
VERTEX
  5
4A13
  8
0
 10
48.901626847944151
 20
40.584258488760469
 30
0.0
  0
VERTEX
  5
4A14
  8
0
 10
48.97087531469009
 20
40.67711303861492
 30
0.0
  0
SEQEND
  5
4A15
  8
0
  0
LINE
  5
3905
  8
0
 10
48.530445811733159
 20
40.086545692340977
 30
0.0
 11
48.563786821253359
 21
40.131252305731401
 31
0.0
  0
POLYLINE
  5
3906
  8
0
 66
     1
 10
0.0
 20
0.0
 30
0.0
  0
VERTEX
  5
4A16
  8
0
 10
48.677251583138229
 20
39.090701166115622
 30
0.0
  0
VERTEX
  5
4A17
  8
0
 10
48.752695880265719
 20
39.17241757260669
 30
0.0
  0
VERTEX
  5
4A18
  8
0
 10
48.905392444176023
 20
39.337808661945161
 30
0.0
  0
VERTEX
  5
4A19
  8
0
 10
49.060592926976938
 20
39.505911835055031
 30
0.0
  0
VERTEX
  5
4A1A
  8
0
 10
49.139167986780024
 20
39.591019282157163
 30
0.0
  0
SEQEND
  5
4A1B
  8
0
  0
LINE
  5
3907
  8
0
 10
48.63942010556115
 20
39.049724544720078
 30
0.0
 11
48.677251583138229
 21
39.090701166115622
 31
0.0
  0
POLYLINE
  5
3908
  8
0
 66
     1
 10
0.0
 20
0.0
 30
0.0
  0
VERTEX
  5
4A1C
  8
0
 10
48.68132756161009
 20
38.04398997732244
 30
0.0
  0
VERTEX
  5
4A1D
  8
0
 10
48.764900257378201
 20
38.117372656347499
 30
0.0
  0
VERTEX
  5
4A1E
  8
0
 10
48.934048409941219
 20
38.265896578821668
 30
0.0
  0
VERTEX
  5
4A1F
  8
0
 10
49.105970254614128
 20
38.41685599719478
 30
0.0
  0
VERTEX
  5
4A20
  8
0
 10
49.193011022676437
 20
38.493283886544361
 30
0.0
  0
SEQEND
  5
4A21
  8
0
  0
LINE
  5
3909
  8
0
 10
48.63942010556115
 20
38.007192296360621
 30
0.0
 11
48.68132756161009
 21
38.043989977322411
 31
0.0
  0
POLYLINE
  5
390A
  8
0
 66
     1
 10
0.0
 20
0.0
 30
0.0
  0
VERTEX
  5
4A22
  8
0
 10
48.575970099395761
 20
37.002586726174712
 30
0.0
  0
VERTEX
  5
4A23
  8
0
 10
48.666755553861087
 20
37.066831681746152
 30
0.0
  0
VERTEX
  5
4A24
  8
0
 10
48.850502072520889
 20
37.19686117818074
 30
0.0
  0
VERTEX
  5
4A25
  8
0
 10
49.0372616673585
 20
37.329022898839071
 30
0.0
  0
VERTEX
  5
4A26
  8
0
 10
49.131814506810542
 20
37.395933870486772
 30
0.0
  0
SEQEND
  5
4A27
  8
0
  0
LINE
  5
390B
  8
0
 10
48.530445811733159
 20
36.970371148739638
 30
0.0
 11
48.575970099395761
 21
37.002586726174712
 31
0.0
  0
POLYLINE
  5
390C
  8
0
 66
     1
 10
0.0
 20
0.0
 30
0.0
  0
VERTEX
  5
4A28
  8
0
 10
48.362333514898801
 20
35.977901244619609
 30
0.0
  0
VERTEX
  5
4A29
  8
0
 10
48.459337063624162
 20
36.032304595560113
 30
0.0
  0
VERTEX
  5
4A2A
  8
0
 10
48.655668783070666
 20
36.142415035581649
 30
0.0
  0
VERTEX
  5
4A2B
  8
0
 10
48.855219950869859
 20
36.254331067056967
 30
0.0
  0
VERTEX
  5
4A2C
  8
0
 10
48.956248921016417
 20
36.310992030395568
 30
0.0
  0
SEQEND
  5
4A2D
  8
0
  0
LINE
  5
390D
  8
0
 10
48.313691169244748
 20
35.950620731319219
 30
0.0
 11
48.362333514898801
 21
35.977901244619567
 31
0.0
  0
POLYLINE
  5
390E
  8
0
 66
     1
 10
0.0
 20
0.0
 30
0.0
  0
VERTEX
  5
4A2E
  8
0
 10
48.042758455245227
 20
34.981160201222309
 30
0.0
  0
VERTEX
  5
4A2F
  8
0
 10
48.144917307051337
 20
35.025125893034208
 30
0.0
  0
VERTEX
  5
4A30
  8
0
 10
48.351683175881647
 20
35.114110883619929
 30
0.0
  0
VERTEX
  5
4A31
  8
0
 10
48.561839592289509
 20
35.204555050451603
 30
0.0
  0
VERTEX
  5
4A32
  8
0
 10
48.66823779859152
 20
35.25034521610943
 30
0.0
  0
SEQEND
  5
4A33
  8
0
  0
LINE
  5
390F
  8
0
 10
47.991530987317731
 20
34.959113643069117
 30
0.0
 11
48.042758455245227
 21
34.981160201222309
 31
0.0
  0
POLYLINE
  5
3910
  8
0
 66
     1
 10
0.0
 20
0.0
 30
0.0
  0
VERTEX
  5
4A34
  8
0
 10
47.620746251664002
 20
34.023284099435728
 30
0.0
  0
VERTEX
  5
4A35
  8
0
 10
47.726941132792433
 20
34.056330434799207
 30
0.0
  0
VERTEX
  5
4A36
  8
0
 10
47.941875780878711
 20
34.123215037770791
 30
0.0
  0
VERTEX
  5
4A37
  8
0
 10
48.160334928218958
 20
34.19119641474029
 30
0.0
  0
VERTEX
  5
4A38
  8
0
 10
48.270936649663327
 20
34.225614096080363
 30
0.0
  0
SEQEND
  5
4A39
  8
0
  0
LINE
  5
3911
  8
0
 10
47.567494920321728
 20
34.006713043134447
 30
0.0
 11
47.620746251664002
 21
34.023284099435699
 31
0.0
  0
POLYLINE
  5
3912
  8
0
 66
     1
 10
0.0
 20
0.0
 30
0.0
  0
VERTEX
  5
4A3A
  8
0
 10
47.100920558169307
 20
33.114767630279488
 30
0.0
  0
VERTEX
  5
4A3B
  8
0
 10
47.20998797527983
 20
33.136532546628928
 30
0.0
  0
VERTEX
  5
4A3C
  8
0
 10
47.430736533639667
 20
33.180583960279741
 30
0.0
  0
VERTEX
  5
4A3D
  8
0
 10
47.655104927778382
 20
33.225357729194911
 30
0.0
  0
VERTEX
  5
4A3E
  8
0
 10
47.768698388760072
 20
33.248025838898151
 30
0.0
  0
SEQEND
  5
4A3F
  8
0
  0
LINE
  5
3913
  8
0
 10
47.046228796142032
 20
33.103853631790663
 30
0.0
 11
47.100920558169307
 21
33.114767630279488
 31
0.0
  0
POLYLINE
  5
3914
  8
0
 66
     1
 10
0.0
 20
0.0
 30
0.0
  0
VERTEX
  5
4A40
  8
0
 10
46.488976693839561
 20
32.265564690308992
 30
0.0
  0
VERTEX
  5
4A41
  8
0
 10
46.599721681486407
 20
32.275809726666239
 30
0.0
  0
VERTEX
  5
4A42
  8
0
 10
46.823865582719968
 20
32.296545314489983
 30
0.0
  0
VERTEX
  5
4A43
  8
0
 10
47.051684996578892
 20
32.317620924569127
 30
0.0
  0
VERTEX
  5
4A44
  8
0
 10
47.167025643368333
 20
32.328291106081927
 30
0.0
  0
SEQEND
  5
4A45
  8
0
  0
LINE
  5
3915
  8
0
 10
46.433443715517051
 20
32.260427325683942
 30
0.0
 11
46.488976693839561
 21
32.265564690308992
 31
0.0
  0
POLYLINE
  5
3916
  8
0
 66
     1
 10
0.0
 20
0.0
 30
0.0
  0
VERTEX
  5
4A46
  8
0
 10
45.791619243709931
 20
31.484979324641699
 30
0.0
  0
VERTEX
  5
4A47
  8
0
 10
45.902828456633522
 20
31.483592234244469
 30
0.0
  0
VERTEX
  5
4A48
  8
0
 10
46.127911933253699
 20
31.480784812801769
 30
0.0
  0
VERTEX
  5
4A49
  8
0
 10
46.356686329660363
 20
31.477931355250519
 30
0.0
  0
VERTEX
  5
4A4A
  8
0
 10
46.472510465994731
 20
31.47648670383137
 30
0.0
  0
SEQEND
  5
4A4B
  8
0
  0
LINE
  5
3917
  8
0
 10
45.735853480023593
 20
31.4856748799223
 30
0.0
 11
45.791619243709931
 21
31.484979324641671
 31
0.0
  0
POLYLINE
  5
3918
  8
0
 66
     1
 10
0.0
 20
0.0
 30
0.0
  0
VERTEX
  5
4A4C
  8
0
 10
45.01648860193535
 20
30.781563789891809
 30
0.0
  0
VERTEX
  5
4A4D
  8
0
 10
45.126943608726883
 20
30.76855976999283
 30
0.0
  0
VERTEX
  5
4A4E
  8
0
 10
45.350500599062109
 20
30.742240097980439
 30
0.0
  0
VERTEX
  5
4A4F
  8
0
 10
45.577723477855443
 20
30.715488835876869
 30
0.0
  0
VERTEX
  5
4A50
  8
0
 10
45.692762110259189
 20
30.701945179429
 30
0.0
  0
SEQEND
  5
4A51
  8
0
  0
LINE
  5
3919
  8
0
 10
44.961101034261958
 20
30.788084644428888
 30
0.0
 11
45.01648860193535
 21
30.781563789891809
 31
0.0
  0
POLYLINE
  5
391A
  8
0
 66
     1
 10
0.0
 20
0.0
 30
0.0
  0
VERTEX
  5
4A52
  8
0
 10
44.172077262033667
 20
30.16302485385722
 30
0.0
  0
VERTEX
  5
4A53
  8
0
 10
44.280567894524552
 20
30.138546379219751
 30
0.0
  0
VERTEX
  5
4A54
  8
0
 10
44.500149061406432
 20
30.08900282047205
 30
0.0
  0
VERTEX
  5
4A55
  8
0
 10
44.723330921176853
 20
30.038646846241789
 30
0.0
  0
VERTEX
  5
4A56
  8
0
 10
44.836323662320069
 20
30.01315257189944
 30
0.0
  0
SEQEND
  5
4A57
  8
0
  0
LINE
  5
391B
  8
0
 10
44.117674728155293
 20
30.175299563803922
 30
0.0
 11
44.172077262033667
 21
30.163024853857198
 31
0.0
  0
POLYLINE
  5
391C
  8
0
 66
     1
 10
0.0
 20
0.0
 30
0.0
  0
VERTEX
  5
4A58
  8
0
 10
43.26763677134926
 20
29.636139358558751
 30
0.0
  0
VERTEX
  5
4A59
  8
0
 10
43.372974383466783
 20
29.600454620473361
 30
0.0
  0
VERTEX
  5
4A5A
  8
0
 10
43.586173949680699
 20
29.5282299845876
 30
0.0
  0
VERTEX
  5
4A5B
  8
0
 10
43.802869563268807
 20
29.454821008821941
 30
0.0
  0
VERTEX
  5
4A5C
  8
0
 10
43.912578441034213
 20
29.417655437189921
 30
0.0
  0
SEQEND
  5
4A5D
  8
0
  0
LINE
  5
391D
  8
0
 10
43.214815316811503
 20
29.654033439624161
 30
0.0
 11
43.26763677134926
 21
29.636139358558779
 31
0.0
  0
POLYLINE
  5
391E
  8
0
 66
     1
 10
0.0
 20
0.0
 30
0.0
  0
VERTEX
  5
4A5E
  8
0
 10
42.313076369164492
 20
29.20667997174073
 30
0.0
  0
VERTEX
  5
4A5F
  8
0
 10
42.414106859987101
 20
29.16017993966534
 30
0.0
  0
VERTEX
  5
4A60
  8
0
 10
42.618588966470497
 20
29.06606553486634
 30
0.0
  0
VERTEX
  5
4A61
  8
0
 10
42.826424171387202
 20
28.970407841665718
 30
0.0
  0
VERTEX
  5
4A62
  8
0
 10
42.931647192352159
 20
28.92197816652407
 30
0.0
  0
SEQEND
  5
4A63
  8
0
  0
LINE
  5
391F
  8
0
 10
42.262414716876783
 20
29.229997372628159
 30
0.0
 11
42.313076369164492
 21
29.20667997174073
 31
0.0
  0
POLYLINE
  5
3920
  8
0
 66
     1
 10
0.0
 20
0.0
 30
0.0
  0
VERTEX
  5
4A64
  8
0
 10
41.318854419000161
 20
28.879351940315299
 30
0.0
  0
VERTEX
  5
4A65
  8
0
 10
41.414470877328249
 20
28.822546078332181
 30
0.0
  0
VERTEX
  5
4A66
  8
0
 10
41.607995175332171
 20
28.707573041733522
 30
0.0
  0
VERTEX
  5
4A67
  8
0
 10
41.804692885580209
 20
28.590714676802179
 30
0.0
  0
VERTEX
  5
4A68
  8
0
 10
41.904277204307498
 20
28.531551503806469
 30
0.0
  0
SEQEND
  5
4A69
  8
0
  0
LINE
  5
3921
  8
0
 10
41.27090762862673
 20
28.907837190701201
 30
0.0
 11
41.318854419000161
 21
28.879351940315331
 31
0.0
  0
POLYLINE
  5
3922
  8
0
 66
     1
 10
0.0
 20
0.0
 30
0.0
  0
VERTEX
  5
4A6A
  8
0
 10
40.295863824596722
 20
28.657741538692591
 30
0.0
  0
VERTEX
  5
4A6B
  8
0
 10
40.38501865650391
 20
28.59125222371296
 30
0.0
  0
VERTEX
  5
4A6C
  8
0
 10
40.56546485332165
 20
28.456680223963328
 30
0.0
  0
VERTEX
  5
4A6D
  8
0
 10
40.748870007625889
 20
28.319901512001682
 30
0.0
  0
VERTEX
  5
4A6E
  8
0
 10
40.841724557480227
 20
28.250653045255831
 30
0.0
  0
SEQEND
  5
4A6F
  8
0
  0
LINE
  5
3923
  8
0
 10
40.251157211206298
 20
28.691082548212741
 30
0.0
 11
40.295863824596722
 21
28.657741538692591
 31
0.0
  0
POLYLINE
  5
3924
  8
0
 66
     1
 10
0.0
 20
0.0
 30
0.0
  0
VERTEX
  5
4A70
  8
0
 10
39.255312684980943
 20
28.54427677680766
 30
0.0
  0
VERTEX
  5
4A71
  8
0
 10
39.337029091471948
 20
28.468832479680231
 30
0.0
  0
VERTEX
  5
4A72
  8
0
 10
39.502420180810482
 20
28.31613591576988
 30
0.0
  0
VERTEX
  5
4A73
  8
0
 10
39.67052335392038
 20
28.160935432968991
 30
0.0
  0
VERTEX
  5
4A74
  8
0
 10
39.755630801022448
 20
28.082360373165869
 30
0.0
  0
SEQEND
  5
4A75
  8
0
  0
LINE
  5
3925
  8
0
 10
39.214336063585328
 20
28.582108254384789
 30
0.0
 11
39.255312684980943
 21
28.54427677680766
 31
0.0
  0
POLYLINE
  5
3926
  8
0
 66
     1
 10
0.0
 20
0.0
 30
0.0
  0
VERTEX
  5
4A76
  8
0
 10
38.208601496187732
 20
28.54020079833586
 30
0.0
  0
VERTEX
  5
4A77
  8
0
 10
38.281984175212919
 20
28.456628102567642
 30
0.0
  0
VERTEX
  5
4A78
  8
0
 10
38.430508097686982
 20
28.28747995000467
 30
0.0
  0
VERTEX
  5
4A79
  8
0
 10
38.581467516060002
 20
28.115558105331871
 30
0.0
  0
VERTEX
  5
4A7A
  8
0
 10
38.657895405409647
 20
28.028517337269509
 30
0.0
  0
SEQEND
  5
4A7B
  8
0
  0
LINE
  5
3927
  8
0
 10
38.171803815225871
 20
28.582108254384821
 30
0.0
 11
38.208601496187732
 21
28.540200798335832
 31
0.0
  0
POLYLINE
  5
3928
  8
0
 66
     1
 10
0.0
 20
0.0
 30
0.0
  0
VERTEX
  5
4A7C
  8
0
 10
37.167198245040026
 20
28.64555826055016
 30
0.0
  0
VERTEX
  5
4A7D
  8
0
 10
37.231443200611473
 20
28.554772806084831
 30
0.0
  0
VERTEX
  5
4A7E
  8
0
 10
37.361472697045997
 20
28.371026287425082
 30
0.0
  0
VERTEX
  5
4A7F
  8
0
 10
37.4936344177043
 20
28.184266692587531
 30
0.0
  0
VERTEX
  5
4A80
  8
0
 10
37.560545389352058
 20
28.089713853135411
 30
0.0
  0
SEQEND
  5
4A81
  8
0
  0
LINE
  5
3929
  8
0
 10
37.134982667604902
 20
28.691082548212758
 30
0.0
 11
37.167198245040026
 21
28.64555826055016
 31
0.0
  0
POLYLINE
  5
392A
  8
0
 66
     1
 10
0.0
 20
0.0
 30
0.0
  0
VERTEX
  5
4A82
  8
0
 10
36.142512763484888
 20
28.859194845047139
 30
0.0
  0
VERTEX
  5
4A83
  8
0
 10
36.196916114425392
 20
28.762191296321792
 30
0.0
  0
VERTEX
  5
4A84
  8
0
 10
36.307026554446971
 20
28.565859576875258
 30
0.0
  0
VERTEX
  5
4A85
  8
0
 10
36.41894258592226
 20
28.366308409076058
 30
0.0
  0
VERTEX
  5
4A86
  8
0
 10
36.475603549260832
 20
28.2652794389295
 30
0.0
  0
SEQEND
  5
4A87
  8
0
  0
LINE
  5
392B
  8
0
 10
36.11523225018454
 20
28.90783719070123
 30
0.0
 11
36.142512763484888
 21
28.85919484504711
 31
0.0
  0
POLYLINE
  5
392C
  8
0
 66
     1
 10
0.0
 20
0.0
 30
0.0
  0
VERTEX
  5
4A88
  8
0
 10
35.145771720087623
 20
29.178769904700719
 30
0.0
  0
VERTEX
  5
4A89
  8
0
 10
35.189737411899557
 20
29.076611052894549
 30
0.0
  0
VERTEX
  5
4A8A
  8
0
 10
35.278722402485243
 20
28.86984518406436
 30
0.0
  0
VERTEX
  5
4A8B
  8
0
 10
35.36916656931686
 20
28.659688767656519
 30
0.0
  0
VERTEX
  5
4A8C
  8
0
 10
35.414956734974737
 20
28.553290561354402
 30
0.0
  0
SEQEND
  5
4A8D
  8
0
  0
LINE
  5
392D
  8
0
 10
35.123725161934431
 20
29.229997372628251
 30
0.0
 11
35.145771720087623
 21
29.178769904700751
 31
0.0
  0
POLYLINE
  5
392E
  8
0
 66
     1
 10
0.0
 20
0.0
 30
0.0
  0
VERTEX
  5
4A8E
  8
0
 10
34.187895618301013
 20
29.600782108281951
 30
0.0
  0
VERTEX
  5
4A8F
  8
0
 10
34.220941953664521
 20
29.494587227153382
 30
0.0
  0
VERTEX
  5
4A90
  8
0
 10
34.287826556636048
 20
29.27965257906726
 30
0.0
  0
VERTEX
  5
4A91
  8
0
 10
34.35580793360549
 20
29.06119343172719
 30
0.0
  0
VERTEX
  5
4A92
  8
0
 10
34.390225614945678
 20
28.950591710282652
 30
0.0
  0
SEQEND
  5
4A93
  8
0
  0
LINE
  5
392F
  8
0
 10
34.171324561999711
 20
29.65403343962419
 30
0.0
 11
34.187895618301013
 21
29.600782108281919
 31
0.0
  0
POLYLINE
  5
3930
  8
0
 66
     1
 10
0.0
 20
0.0
 30
0.0
  0
VERTEX
  5
4A94
  8
0
 10
33.279379149144802
 20
30.120607801776629
 30
0.0
  0
VERTEX
  5
4A95
  8
0
 10
33.30114406549427
 20
30.011540384666041
 30
0.0
  0
VERTEX
  5
4A96
  8
0
 10
33.345195479145048
 20
29.790791826306162
 30
0.0
  0
VERTEX
  5
4A97
  8
0
 10
33.389969248060197
 20
29.566423432167539
 30
0.0
  0
VERTEX
  5
4A98
  8
0
 10
33.412637357763458
 20
29.45282997118591
 30
0.0
  0
SEQEND
  5
4A99
  8
0
  0
LINE
  5
3931
  8
0
 10
33.26846515065597
 20
30.17529956380395
 30
0.0
 11
33.279379149144802
 21
30.1206078017766
 31
0.0
  0
POLYLINE
  5
3932
  8
0
 66
     1
 10
0.0
 20
0.0
 30
0.0
  0
VERTEX
  5
4A9A
  8
0
 10
32.430176209174313
 20
30.73255166610636
 30
0.0
  0
VERTEX
  5
4A9B
  8
0
 10
32.440421245531518
 20
30.62180667845951
 30
0.0
  0
VERTEX
  5
4A9C
  8
0
 10
32.46115683335529
 20
30.39766277722601
 30
0.0
  0
VERTEX
  5
4A9D
  8
0
 10
32.482232443434441
 20
30.169843363367079
 30
0.0
  0
VERTEX
  5
4A9E
  8
0
 10
32.492902624947249
 20
30.054502716577641
 30
0.0
  0
SEQEND
  5
4A9F
  8
0
  0
LINE
  5
3933
  8
0
 10
32.425038844549249
 20
30.78808464442892
 30
0.0
 11
32.430176209174313
 21
30.73255166610636
 31
0.0
  0
POLYLINE
  5
3934
  8
0
 66
     1
 10
0.0
 20
0.0
 30
0.0
  0
VERTEX
  5
4AA0
  8
0
 10
31.649590843506981
 20
31.42990911623605
 30
0.0
  0
VERTEX
  5
4AA1
  8
0
 10
31.64820375310978
 20
31.318699903312389
 30
0.0
  0
VERTEX
  5
4AA2
  8
0
 10
31.64539633166703
 20
31.09361642669214
 30
0.0
  0
VERTEX
  5
4AA3
  8
0
 10
31.642542874115801
 20
30.864842030285448
 30
0.0
  0
VERTEX
  5
4AA4
  8
0
 10
31.641098222696652
 20
30.749017893951251
 30
0.0
  0
SEQEND
  5
4AA5
  8
0
  0
LINE
  5
3935
  8
0
 10
31.65028639878761
 20
31.485674879922328
 30
0.0
 11
31.649590843506981
 21
31.42990911623605
 31
0.0
  0
POLYLINE
  5
3936
  8
0
 66
     1
 10
0.0
 20
0.0
 30
0.0
  0
VERTEX
  5
4AA6
  8
0
 10
30.94617530875712
 20
32.205039758010628
 30
0.0
  0
VERTEX
  5
4AA7
  8
0
 10
30.933171288858091
 20
32.09458475121906
 30
0.0
  0
VERTEX
  5
4AA8
  8
0
 10
30.90685161684576
 20
31.871027760883688
 30
0.0
  0
VERTEX
  5
4AA9
  8
0
 10
30.88010035474213
 20
31.643804882090372
 30
0.0
  0
VERTEX
  5
4AAA
  8
0
 10
30.866556698294289
 20
31.528766249686729
 30
0.0
  0
SEQEND
  5
4AAB
  8
0
  0
LINE
  5
3937
  8
0
 10
30.95269616329421
 20
32.26042732568397
 30
0.0
 11
30.94617530875712
 21
32.205039758010628
 31
0.0
  0
POLYLINE
  5
3938
  8
0
 66
     1
 10
0.0
 20
0.0
 30
0.0
  0
VERTEX
  5
4AAC
  8
0
 10
30.327636372722509
 20
33.049451097912289
 30
0.0
  0
VERTEX
  5
4AAD
  8
0
 10
30.303157898085029
 20
32.940960465421341
 30
0.0
  0
VERTEX
  5
4AAE
  8
0
 10
30.253614339337339
 20
32.721379298539553
 30
0.0
  0
VERTEX
  5
4AAF
  8
0
 10
30.203258365107111
 20
32.498197438769211
 30
0.0
  0
VERTEX
  5
4AB0
  8
0
 10
30.17776409076475
 20
32.385204697625859
 30
0.0
  0
SEQEND
  5
4AB1
  8
0
  0
LINE
  5
3939
  8
0
 10
30.339911082669229
 20
33.103853631790692
 30
0.0
 11
30.327636372722509
 21
33.049451097912311
 31
0.0
  0
POLYLINE
  5
393A
  8
0
 66
     1
 10
0.0
 20
0.0
 30
0.0
  0
VERTEX
  5
4AB2
  8
0
 10
29.80075087742404
 20
33.953891588596662
 30
0.0
  0
VERTEX
  5
4AB3
  8
0
 10
29.765066139338622
 20
33.84855397647911
 30
0.0
  0
VERTEX
  5
4AB4
  8
0
 10
29.692841503452879
 20
33.635354410265187
 30
0.0
  0
VERTEX
  5
4AB5
  8
0
 10
29.619432527687248
 20
33.418658796677143
 30
0.0
  0
VERTEX
  5
4AB6
  8
0
 10
29.582266956055211
 20
33.308949918911708
 30
0.0
  0
SEQEND
  5
4AB7
  8
0
  0
LINE
  5
393B
  8
0
 10
29.818644958489472
 20
34.006713043134482
 30
0.0
 11
29.80075087742404
 21
33.953891588596662
 31
0.0
  0
POLYLINE
  5
393C
  8
0
 66
     1
 10
0.0
 20
0.0
 30
0.0
  0
VERTEX
  5
4AB8
  8
0
 10
29.37129149060604
 20
34.908451990781487
 30
0.0
  0
VERTEX
  5
4AB9
  8
0
 10
29.32479145853069
 20
34.807421499958942
 30
0.0
  0
VERTEX
  5
4ABA
  8
0
 10
29.230677053731661
 20
34.602939393475417
 30
0.0
  0
VERTEX
  5
4ABB
  8
0
 10
29.135019360530979
 20
34.395104188558662
 30
0.0
  0
VERTEX
  5
4ABC
  8
0
 10
29.08658968538936
 20
34.289881167593791
 30
0.0
  0
SEQEND
  5
4ABD
  8
0
  0
LINE
  5
393D
  8
0
 10
29.39460889149348
 20
34.959113643069152
 30
0.0
 11
29.37129149060604
 21
34.908451990781487
 31
0.0
  0
POLYLINE
  5
393E
  8
0
 66
     1
 10
0.0
 20
0.0
 30
0.0
  0
VERTEX
  5
4ABE
  8
0
 10
29.043963459180588
 20
35.90267394094576
 30
0.0
  0
VERTEX
  5
4ABF
  8
0
 10
28.987157597197552
 20
35.807057482617751
 30
0.0
  0
VERTEX
  5
4AC0
  8
0
 10
28.872184560598839
 20
35.6135331846138
 30
0.0
  0
VERTEX
  5
4AC1
  8
0
 10
28.755326195667461
 20
35.416835474365683
 30
0.0
  0
VERTEX
  5
4AC2
  8
0
 10
28.69616302267173
 20
35.31725115563848
 30
0.0
  0
SEQEND
  5
4AC3
  8
0
  0
LINE
  5
393F
  8
0
 10
29.072448709566519
 20
35.950620731319248
 30
0.0
 11
29.043963459180588
 21
35.90267394094576
 31
0.0
  0
POLYLINE
  5
3940
  8
0
 66
     1
 10
0.0
 20
0.0
 30
0.0
  0
VERTEX
  5
4AC4
  8
0
 10
28.822353057557851
 20
36.925664535349227
 30
0.0
  0
VERTEX
  5
4AC5
  8
0
 10
28.755863742578299
 20
36.836509703442118
 30
0.0
  0
VERTEX
  5
4AC6
  8
0
 10
28.621291742828699
 20
36.656063506624378
 30
0.0
  0
VERTEX
  5
4AC7
  8
0
 10
28.484513030866989
 20
36.472658352320082
 30
0.0
  0
VERTEX
  5
4AC8
  8
0
 10
28.41526456412112
 20
36.379803802465723
 30
0.0
  0
SEQEND
  5
4AC9
  8
0
  0
LINE
  5
3941
  8
0
 10
28.855694067078051
 20
36.97037114873968
 30
0.0
 11
28.822353057557851
 21
36.925664535349263
 31
0.0
  0
POLYLINE
  5
3942
  8
0
 66
     1
 10
0.0
 20
0.0
 30
0.0
  0
VERTEX
  5
4ACA
  8
0
 10
28.708888295672981
 20
37.966215674965007
 30
0.0
  0
VERTEX
  5
4ACB
  8
0
 10
28.633443998545602
 20
37.88449926847403
 30
0.0
  0
VERTEX
  5
4ACC
  8
0
 10
28.480747434635251
 20
37.719108179135503
 30
0.0
  0
VERTEX
  5
4ACD
  8
0
 10
28.325546951834269
 20
37.551005006025612
 30
0.0
  0
VERTEX
  5
4ACE
  8
0
 10
28.246971892031191
 20
37.465897558923501
 30
0.0
  0
SEQEND
  5
4ACF
  8
0
  0
LINE
  5
3943
  8
0
 10
28.746719773250049
 20
38.007192296360579
 30
0.0
 11
28.708888295672981
 21
37.966215674965042
 31
0.0
  0
POLYLINE
  5
3944
  8
0
 66
     1
 10
0.0
 20
0.0
 30
0.0
  0
VERTEX
  5
4AD0
  8
0
 10
28.704812317201121
 20
39.012926863758203
 30
0.0
  0
VERTEX
  5
4AD1
  8
0
 10
28.621239621432998
 20
38.939544184733137
 30
0.0
  0
VERTEX
  5
4AD2
  8
0
 10
28.45209146886987
 20
38.791020262258911
 30
0.0
  0
VERTEX
  5
4AD3
  8
0
 10
28.280169624197018
 20
38.640060843885813
 30
0.0
  0
VERTEX
  5
4AD4
  8
0
 10
28.19312885613482
 20
38.563632954536303
 30
0.0
  0
SEQEND
  5
4AD5
  8
0
  0
LINE
  5
3945
  8
0
 10
28.746719773250049
 20
39.04972454472005
 30
0.0
 11
28.704812317201121
 21
39.012926863758203
 31
0.0
  0
POLYLINE
  5
3946
  8
0
 66
     1
 10
0.0
 20
0.0
 30
0.0
  0
VERTEX
  5
4AD6
  8
0
 10
28.81016977941545
 20
40.054330114905952
 30
0.0
  0
VERTEX
  5
4AD7
  8
0
 10
28.71938432495017
 20
39.990085159334512
 30
0.0
  0
VERTEX
  5
4AD8
  8
0
 10
28.535637806290371
 20
39.860055662899931
 30
0.0
  0
VERTEX
  5
4AD9
  8
0
 10
28.34887821145276
 20
39.7278939422416
 30
0.0
  0
VERTEX
  5
4ADA
  8
0
 10
28.254325372000672
 20
39.660982970593892
 30
0.0
  0
SEQEND
  5
4ADB
  8
0
  0
LINE
  5
3947
  8
0
 10
28.855694067078051
 20
40.086545692341019
 30
0.0
 11
28.81016977941545
 21
40.054330114905952
 31
0.0
  0
POLYLINE
  5
3948
  8
0
 66
     1
 10
0.0
 20
0.0
 30
0.0
  0
VERTEX
  5
4ADC
  8
0
 10
29.023806363912399
 20
41.079015596461034
 30
0.0
  0
VERTEX
  5
4ADD
  8
0
 10
28.926802815187049
 20
41.02461224552053
 30
0.0
  0
VERTEX
  5
4ADE
  8
0
 10
28.730471095740491
 20
40.914501805498979
 30
0.0
  0
VERTEX
  5
4ADF
  8
0
 10
28.53091992794123
 20
40.802585774023633
 30
0.0
  0
VERTEX
  5
4AE0
  8
0
 10
28.429890957794779
 20
40.745924810685089
 30
0.0
  0
SEQEND
  5
4AE1
  8
0
  0
LINE
  5
3949
  8
0
 10
29.072448709566519
 20
41.106296109761438
 30
0.0
 11
29.023806363912399
 21
41.079015596461034
 31
0.0
  0
POLYLINE
  5
394A
  8
0
 66
     1
 10
0.0
 20
0.0
 30
0.0
  0
VERTEX
  5
4AE2
  8
0
 10
29.343381423565969
 20
42.075756639858348
 30
0.0
  0
VERTEX
  5
4AE3
  8
0
 10
29.24122257175992
 20
42.031790948046449
 30
0.0
  0
VERTEX
  5
4AE4
  8
0
 10
29.034456702929731
 20
41.942805957460791
 30
0.0
  0
VERTEX
  5
4AE5
  8
0
 10
28.824300286521801
 20
41.852361790629089
 30
0.0
  0
VERTEX
  5
4AE6
  8
0
 10
28.717902080219691
 20
41.806571624971212
 30
0.0
  0
SEQEND
  5
4AE7
  8
0
  0
LINE
  5
394B
  8
0
 10
29.39460889149348
 20
42.09780319801154
 30
0.0
 11
29.343381423565969
 21
42.075756639858348
 31
0.0
  0
POLYLINE
  5
394C
  8
0
 66
     1
 10
0.0
 20
0.0
 30
0.0
  0
VERTEX
  5
4AE8
  8
0
 10
29.765393627147208
 20
43.033632741644908
 30
0.0
  0
VERTEX
  5
4AE9
  8
0
 10
29.659198746018721
 20
43.000586406281457
 30
0.0
  0
VERTEX
  5
4AEA
  8
0
 10
29.44426409793255
 20
42.933701803309901
 30
0.0
  0
VERTEX
  5
4AEB
  8
0
 10
29.225804950592359
 20
42.865720426340431
 30
0.0
  0
VERTEX
  5
4AEC
  8
0
 10
29.11520322914788
 20
42.831302745000301
 30
0.0
  0
SEQEND
  5
4AED
  8
0
  0
LINE
  5
394D
  8
0
 10
29.818644958489472
 20
43.05020379794621
 30
0.0
 11
29.765393627147208
 21
43.033632741644908
 31
0.0
  0
POLYLINE
  5
394E
  8
0
 66
     1
 10
0.0
 20
0.0
 30
0.0
  0
VERTEX
  5
4AEE
  8
0
 10
30.28521932064189
 20
43.942149210801148
 30
0.0
  0
VERTEX
  5
4AEF
  8
0
 10
30.17615190353138
 20
43.920384294451729
 30
0.0
  0
VERTEX
  5
4AF0
  8
0
 10
29.95540334517159
 20
43.876332880800931
 30
0.0
  0
VERTEX
  5
4AF1
  8
0
 10
29.731034951032878
 20
43.831559111885753
 30
0.0
  0
VERTEX
  5
4AF2
  8
0
 10
29.617441490051188
 20
43.80889100218252
 30
0.0
  0
SEQEND
  5
4AF3
  8
0
  0
LINE
  5
394F
  8
0
 10
30.339911082669229
 20
43.953063209290008
 30
0.0
 11
30.28521932064189
 21
43.942149210801169
 31
0.0
  0
POLYLINE
  5
3950
  8
0
 66
     1
 10
0.0
 20
0.0
 30
0.0
  0
VERTEX
  5
4AF4
  8
0
 10
30.897163184971649
 20
44.791352150771637
 30
0.0
  0
VERTEX
  5
4AF5
  8
0
 10
30.786418197324789
 20
44.781107114414418
 30
0.0
  0
VERTEX
  5
4AF6
  8
0
 10
30.562274296091289
 20
44.760371526590689
 30
0.0
  0
VERTEX
  5
4AF7
  8
0
 10
30.334454882232311
 20
44.739295916511509
 30
0.0
  0
VERTEX
  5
4AF8
  8
0
 10
30.21911423544293
 20
44.72862573499873
 30
0.0
  0
SEQEND
  5
4AF9
  8
0
  0
LINE
  5
3951
  8
0
 10
30.95269616329421
 20
44.796489515396722
 30
0.0
 11
30.897163184971649
 21
44.791352150771672
 31
0.0
  0
POLYLINE
  5
3952
  8
0
 66
     1
 10
0.0
 20
0.0
 30
0.0
  0
VERTEX
  5
4AFA
  8
0
 10
31.594520635101279
 20
45.571937516438958
 30
0.0
  0
VERTEX
  5
4AFB
  8
0
 10
31.483311422177739
 20
45.573324606836167
 30
0.0
  0
VERTEX
  5
4AFC
  8
0
 10
31.258227945557621
 20
45.576132028278892
 30
0.0
  0
VERTEX
  5
4AFD
  8
0
 10
31.029453549150901
 20
45.57898548583011
 30
0.0
  0
VERTEX
  5
4AFE
  8
0
 10
30.91362941281648
 20
45.580430137249287
 30
0.0
  0
SEQEND
  5
4AFF
  8
0
  0
LINE
  5
3953
  8
0
 10
31.65028639878761
 20
45.571241961158307
 30
0.0
 11
31.594520635101279
 21
45.571937516438993
 31
0.0
  0
POLYLINE
  5
3954
  8
0
 66
     1
 10
0.0
 20
0.0
 30
0.0
  0
VERTEX
  5
4B00
  8
0
 10
32.369651276875857
 20
46.275353051188837
 30
0.0
  0
VERTEX
  5
4B01
  8
0
 10
32.259196270084367
 20
46.288357071087809
 30
0.0
  0
VERTEX
  5
4B02
  8
0
 10
32.035639279749212
 20
46.314676743100179
 30
0.0
  0
VERTEX
  5
4B03
  8
0
 10
31.808416400955821
 20
46.341428005203781
 30
0.0
  0
VERTEX
  5
4B04
  8
0
 10
31.693377768552011
 20
46.354971661651611
 30
0.0
  0
SEQEND
  5
4B05
  8
0
  0
LINE
  5
3955
  8
0
 10
32.425038844549249
 20
46.268832196651687
 30
0.0
 11
32.369651276875857
 21
46.275353051188837
 31
0.0
  0
POLYLINE
  5
3956
  8
0
 66
     1
 10
0.0
 20
0.0
 30
0.0
  0
VERTEX
  5
4B06
  8
0
 10
33.214062616777539
 20
46.893891987223398
 30
0.0
  0
VERTEX
  5
4B07
  8
0
 10
33.105571984286541
 20
46.918370461860931
 30
0.0
  0
VERTEX
  5
4B08
  8
0
 10
32.885990817404767
 20
46.967914020608568
 30
0.0
  0
VERTEX
  5
4B09
  8
0
 10
32.662808957634532
 20
47.018269994838832
 30
0.0
  0
VERTEX
  5
4B0A
  8
0
 10
32.549816216491138
 20
47.043764269181182
 30
0.0
  0
SEQEND
  5
4B0B
  8
0
  0
LINE
  5
3957
  8
0
 10
33.26846515065597
 20
46.881617277276732
 30
0.0
 11
33.214062616777539
 21
46.893891987223398
 31
0.0
  0
POLYLINE
  5
3958
  8
0
 66
     1
 10
0.0
 20
0.0
 30
0.0
  0
VERTEX
  5
4B0C
  8
0
 10
34.118503107461947
 20
47.420777482521899
 30
0.0
  0
VERTEX
  5
4B0D
  8
0
 10
34.013165495344481
 20
47.456462220607257
 30
0.0
  0
VERTEX
  5
4B0E
  8
0
 10
33.799965929130451
 20
47.528686856493053
 30
0.0
  0
VERTEX
  5
4B0F
  8
0
 10
33.583270315542343
 20
47.602095832258712
 30
0.0
  0
VERTEX
  5
4B10
  8
0
 10
33.473561437776993
 20
47.639261403890728
 30
0.0
  0
SEQEND
  5
4B11
  8
0
  0
LINE
  5
3959
  8
0
 10
34.171324561999711
 20
47.402883401456428
 30
0.0
 11
34.118503107461947
 21
47.420777482521871
 31
0.0
  0
POLYLINE
  5
395A
  8
0
 66
     1
 10
0.0
 20
0.0
 30
0.0
  0
VERTEX
  5
4B12
  8
0
 10
35.073063509646722
 20
47.850236869339923
 30
0.0
  0
VERTEX
  5
4B13
  8
0
 10
34.97203301882417
 20
47.896736901415281
 30
0.0
  0
VERTEX
  5
4B14
  8
0
 10
34.76755091234071
 20
47.990851306214303
 30
0.0
  0
VERTEX
  5
4B15
  8
0
 10
34.559715707423948
 20
48.08650899941496
 30
0.0
  0
VERTEX
  5
4B16
  8
0
 10
34.454492686459048
 20
48.134938674556579
 30
0.0
  0
SEQEND
  5
4B17
  8
0
  0
LINE
  5
395B
  8
0
 10
35.123725161934431
 20
47.826919468452417
 30
0.0
 11
35.073063509646722
 21
47.850236869339923
 31
0.0
  0
POLYLINE
  5
395C
  8
0
 66
     1
 10
0.0
 20
0.0
 30
0.0
  0
VERTEX
  5
4B18
  8
0
 10
36.067285459811053
 20
48.177564900765319
 30
0.0
  0
VERTEX
  5
4B19
  8
0
 10
35.971669001482901
 20
48.234370762748469
 30
0.0
  0
VERTEX
  5
4B1A
  8
0
 10
35.778144703479093
 20
48.349343799347068
 30
0.0
  0
VERTEX
  5
4B1B
  8
0
 10
35.581446993231111
 20
48.466202164278378
 30
0.0
  0
VERTEX
  5
4B1C
  8
0
 10
35.481862674503709
 20
48.525365337274181
 30
0.0
  0
SEQEND
  5
4B1D
  8
0
  0
LINE
  5
395D
  8
0
 10
36.11523225018454
 20
48.149079650379448
 30
0.0
 11
36.067285459811053
 21
48.177564900765319
 31
0.0
  0
POLYLINE
  5
395E
  8
0
 66
     1
 10
0.0
 20
0.0
 30
0.0
  0
VERTEX
  5
4B1E
  8
0
 10
37.090276054214492
 20
48.399175302388059
 30
0.0
  0
VERTEX
  5
4B1F
  8
0
 10
37.001121222307347
 20
48.465664617367629
 30
0.0
  0
VERTEX
  5
4B20
  8
0
 10
36.820675025489606
 20
48.600236617117261
 30
0.0
  0
VERTEX
  5
4B21
  8
0
 10
36.63726987118531
 20
48.737015329078972
 30
0.0
  0
VERTEX
  5
4B22
  8
0
 10
36.544415321330973
 20
48.806263795824819
 30
0.0
  0
SEQEND
  5
4B23
  8
0
  0
LINE
  5
395F
  8
0
 10
37.134982667604902
 20
48.365834292867859
 30
0.0
 11
37.090276054214492
 21
48.399175302388059
 31
0.0
  0
POLYLINE
  5
3960
  8
0
 66
     1
 10
0.0
 20
0.0
 30
0.0
  0
VERTEX
  5
4B24
  8
0
 10
38.130827193830271
 20
48.512640064272993
 30
0.0
  0
VERTEX
  5
4B25
  8
0
 10
38.049110787339153
 20
48.588084361400497
 30
0.0
  0
VERTEX
  5
4B26
  8
0
 10
37.883719698000668
 20
48.740780925310801
 30
0.0
  0
VERTEX
  5
4B27
  8
0
 10
37.715616524890891
 20
48.895981408111609
 30
0.0
  0
VERTEX
  5
4B28
  8
0
 10
37.630509077788759
 20
48.97455646791478
 30
0.0
  0
SEQEND
  5
4B29
  8
0
  0
LINE
  5
3961
  8
0
 10
38.171803815225871
 20
48.474808586695858
 30
0.0
 11
38.130827193830271
 21
48.512640064272993
 31
0.0
  0
ARC
  5
3962
  8
0
 10
38.693069939405632
 20
38.528458420539991
 30
0.0
 40
9.9999999999996714
 50
267.22311329609801
 51
272.77688670390052
  0
ARC
  5
3963
  8
0
 10
38.693069939405582
 20
38.528458420540112
 30
0.0
 40
9.9999999999997922
 50
261.22311329609818
 51
266.77688670390091
  0
ARC
  5
3964
  8
0
 10
38.69306993940544
 20
38.528458420542151
 30
0.0
 40
10.000000000001799
 50
273.22311329609909
 51
278.77688670390017
  0
ARC
  5
3965
  8
0
 10
38.69306993940544
 20
38.528458420539373
 30
0.0
 40
9.9999999999990301
 50
255.22311329609789
 51
260.77688670390091
  0
ARC
  5
3966
  8
0
 10
38.693069939405923
 20
38.528458420539017
 30
0.0
 40
9.9999999999986535
 50
279.22311329609897
 51
284.77688670390211
  0
ARC
  5
3967
  8
0
 10
38.693069939406172
 20
38.52845842054198
 30
0.0
 40
10.00000000000173
 50
249.2231132960998
 51
254.7768867039004
  0
ARC
  5
3968
  8
0
 10
38.693069939406058
 20
38.528458420538911
 30
0.0
 40
9.9999999999985043
 50
285.22311329609789
 51
290.77688670390199
  0
ARC
  5
3969
  8
0
 10
38.693069939405632
 20
38.528458420540332
 30
0.0
 40
9.9999999999999751
 50
243.22311329609789
 51
248.7768867039012
  0
ARC
  5
396A
  8
0
 10
38.693069939405888
 20
38.52845842053982
 30
0.0
 40
9.9999999999994174
 50
291.22311329609869
 51
296.77688670390211
  0
ARC
  5
396B
  8
0
 10
38.69306993940512
 20
38.528458420539543
 30
0.0
 40
9.9999999999990621
 50
237.22311329609869
 51
242.77688670390231
  0
ARC
  5
396C
  8
0
 10
38.693069939405397
 20
38.52845842054068
 30
0.0
 40
10.00000000000038
 50
297.22311329609948
 51
302.7768867039012
  0
ARC
  5
396D
  8
0
 10
38.693069939406712
 20
38.52845842054181
 30
0.0
 40
10.000000000001821
 50
231.22311329609909
 51
236.7768867039012
  0
ARC
  5
396E
  8
0
 10
38.693069939406058
 20
38.528458420539707
 30
0.0
 40
9.9999999999992362
 50
303.22311329609869
 51
308.77688670390091
  0
ARC
  5
396F
  8
0
 10
38.693069939405397
 20
38.528458420540112
 30
0.0
 40
9.9999999999997087
 50
225.22311329609821
 51
230.77688670390131
  0
ARC
  5
3970
  8
0
 10
38.693069939406598
 20
38.528458420539309
 30
0.0
 40
9.9999999999985718
 50
309.22311329609857
 51
314.77688670390182
  0
ARC
  5
3971
  8
0
 10
38.693069939406428
 20
38.528458420541071
 30
0.0
 40
10.000000000001091
 50
219.22311329609909
 51
224.77688670390151
  0
ARC
  5
3972
  8
0
 10
38.693069939405689
 20
38.528458420540282
 30
0.0
 40
9.9999999999999183
 50
315.22311329609852
 51
320.77688670390091
  0
ARC
  5
3973
  8
0
 10
38.693069939405518
 20
38.528458420540218
 30
0.0
 40
9.9999999999998614
 50
213.22311329609909
 51
218.77688670390171
  0
ARC
  5
3974
  8
0
 10
38.693069939405007
 20
38.528458420540787
 30
0.0
 40
10.00000000000073
 50
321.22311329609829
 51
326.77688670390091
  0
ARC
  5
3975
  8
0
 10
38.693069939405319
 20
38.528458420540161
 30
0.0
 40
9.9999999999996447
 50
207.22311329609909
 51
212.776886703901
  0
ARC
  5
3976
  8
0
 10
38.693069939403642
 20
38.528458420541469
 30
0.0
 40
10.000000000002281
 50
327.22311329609943
 51
332.77688670390029
  0
ARC
  5
3977
  8
0
 10
38.693069939405888
 20
38.528458420540439
 30
0.0
 40
10.00000000000029
 50
201.2231132960988
 51
206.77688670390069
  0
ARC
  5
3978
  8
0
 10
38.693069939405952
 20
38.528458420540218
 30
0.0
 40
9.9999999999996412
 50
333.2231132960988
 51
338.7768867039012
  0
ARC
  5
3979
  8
0
 10
38.693069939404097
 20
38.52845842053982
 30
0.0
 40
9.9999999999984048
 50
195.2231132960984
 51
200.77688670390179
  0
ARC
  5
397A
  8
0
 10
38.693069939405007
 20
38.528458420540559
 30
0.0
 40
10.00000000000065
 50
339.22311329609892
 51
344.7768867039016
  0
ARC
  5
397B
  8
0
 10
38.693069939405518
 20
38.528458420540332
 30
0.0
 40
9.9999999999998987
 50
189.22311329609809
 51
194.77688670390131
  0
ARC
  5
397C
  8
0
 10
38.693069939406541
 20
38.528458420540161
 30
0.0
 40
9.9999999999990781
 50
345.22311329609852
 51
350.77688670390131
  0
ARC
  5
397D
  8
0
 10
38.693069939404829
 20
38.528458420540218
 30
0.0
 40
9.9999999999992095
 50
183.22311329609821
 51
188.776886703901
  0
ARC
  5
397E
  8
0
 10
38.693069939405518
 20
38.528458420540332
 30
0.0
 40
10.00000000000011
 50
351.22311329609897
 51
356.77688670390103
  0
ARC
  5
397F
  8
0
 10
38.69306993940495
 20
38.528458420540332
 30
0.0
 40
9.9999999999993161
 50
177.2231132960988
 51
182.7768867039012
  0
ARC
  5
3980
  8
0
 10
38.693069939406342
 20
38.528458420540332
 30
0.0
 40
9.9999999999992824
 50
357.2231132960988
 51
2.7768867039021088
  0
ARC
  5
3981
  8
0
 10
38.693069939405262
 20
38.528458420540389
 30
0.0
 40
9.9999999999996358
 50
171.22311329609809
 51
176.77688670390091
  0
ARC
  5
3982
  8
0
 10
38.693069939406463
 20
38.528458420540439
 30
0.0
 40
9.9999999999991598
 50
3.2231132960982358
 51
8.776886703901841
  0
ARC
  5
3983
  8
0
 10
38.693069939405518
 20
38.528458420540332
 30
0.0
 40
9.9999999999998952
 50
165.2231132960984
 51
170.77688670390179
  0
ARC
  5
3984
  8
0
 10
38.693069939405859
 20
38.528458420540332
 30
0.0
 40
9.9999999999997726
 50
9.2231132960981288
 51
14.776886703901351
  0
ARC
  5
3985
  8
0
 10
38.693069939403983
 20
38.528458420540851
 30
0.0
 40
9.9999999999982716
 50
159.22311329609809
 51
164.77688670390211
  0
ARC
  5
3986
  8
0
 10
38.693069939407231
 20
38.528458420540851
 30
0.0
 40
9.999999999998316
 50
15.22311329609782
 51
20.77688670390182
  0
ARC
  5
3987
  8
0
 10
38.69306993940603
 20
38.528458420540112
 30
0.0
 40
10.000000000000449
 50
153.22311329609869
 51
158.7768867039006
  0
ARC
  5
3988
  8
0
 10
38.693069939405149
 20
38.528458420540112
 30
0.0
 40
10.00000000000051
 50
21.223113296098781
 51
26.776886703901258
  0
ARC
  5
3989
  8
0
 10
38.693069939403358
 20
38.528458420541639
 30
0.0
 40
9.9999999999973834
 50
147.22311329609849
 51
152.7768867039008
  0
ARC
  5
398A
  8
0
 10
38.693069939406598
 20
38.5284584205409
 30
0.0
 40
9.9999999999988596
 50
27.22311329609914
 51
32.776886703900971
  0
ARC
  5
398B
  8
0
 10
38.693069939406371
 20
38.528458420539771
 30
0.0
 40
10.00000000000094
 50
141.22311329609829
 51
146.77688670390029
  0
ARC
  5
398C
  8
0
 10
38.693069939406399
 20
38.5284584205409
 30
0.0
 40
9.9999999999990408
 50
33.223113296099143
 51
38.776886703902022
  0
ARC
  5
398D
  8
0
 10
38.693069939405319
 20
38.528458420540623
 30
0.0
 40
9.9999999999995808
 50
135.22311329609849
 51
140.77688670390091
  0
ARC
  5
398E
  8
0
 10
38.693069939404531
 20
38.528458420539309
 30
0.0
 40
10.00000000000149
 50
39.223113296099108
 51
44.776886703901482
  0
ARC
  5
398F
  8
0
 10
38.693069939405461
 20
38.528458420540559
 30
0.0
 40
9.9999999999997549
 50
129.22311329609869
 51
134.77688670390171
  0
ARC
  5
3990
  8
0
 10
38.693069939405348
 20
38.528458420539991
 30
0.0
 40
10.00000000000043
 50
45.223113296098226
 51
50.776886703901312
  0
ARC
  5
3991
  8
0
 10
38.693069939405923
 20
38.528458420539927
 30
0.0
 40
10.00000000000048
 50
123.2231132960987
 51
128.77688670390091
  0
ARC
  5
3992
  8
0
 10
38.693069939404317
 20
38.528458420538513
 30
0.0
 40
10.000000000002199
 50
51.223113296099122
 51
56.776886703901248
  0
ARC
  5
3993
  8
0
 10
38.69306993940512
 20
38.528458420541192
 30
0.0
 40
9.9999999999990177
 50
117.22311329609769
 51
122.7768867039013
  0
ARC
  5
3994
  8
0
 10
38.693069939406172
 20
38.528458420541241
 30
0.0
 40
9.9999999999988987
 50
57.223113296098639
 51
62.776886703902228
  0
ARC
  5
3995
  8
0
 10
38.693069939405831
 20
38.52845842053982
 30
0.0
 40
10.00000000000056
 50
111.2231132960988
 51
116.7768867039002
  0
ARC
  5
3996
  8
0
 10
38.693069939405973
 20
38.528458420541192
 30
0.0
 40
9.9999999999990692
 50
63.223113296097907
 51
68.776886703901212
  0
ARC
  5
3997
  8
0
 10
38.693069939405582
 20
38.528458420540559
 30
0.0
 40
9.9999999999997957
 50
105.2231132960995
 51
110.77688670390189
  0
ARC
  5
3998
  8
0
 10
38.693069939405973
 20
38.528458420541362
 30
0.0
 40
9.9999999999989448
 50
69.223113296098106
 51
74.776886703902122
  0
ARC
  5
3999
  8
0
 10
38.693069939405582
 20
38.528458420540623
 30
0.0
 40
9.9999999999996927
 50
99.223113296099044
 51
104.7768867039004
  0
ARC
  5
399A
  8
0
 10
38.693069939405689
 20
38.528458420540559
 30
0.0
 40
9.9999999999997335
 50
75.223113296099584
 51
80.776886703900971
  0
ARC
  5
399B
  8
0
 10
38.693069939405461
 20
38.52845842054176
 30
0.0
 40
9.9999999999985665
 50
93.223113296099086
 51
98.776886703901809
  0
ARC
  5
399C
  8
0
 10
38.693069939405717
 20
38.528458420541362
 30
0.0
 40
9.9999999999989662
 50
81.223113296098205
 51
86.776886703900914
  0
ARC
  5
399D
  8
0
 10
38.693069939405632
 20
38.528458420541583
 30
0.0
 40
9.9999999999987814
 50
87.223113296097935
 51
92.776886703902065
  0
CIRCLE
  5
399E
  8
0
 10
38.693069939405603
 20
38.528458420540332
 30
0.0
 40
5.0
  0
CIRCLE
  5
399F
  8
0
 10
38.693069939405603
 20
38.528458420540332
 30
0.0
 40
2.5
  0
LINE
  5
39A0
  8
2
 10
38.693069939405632
 20
45.456661650815803
 30
0.0
 11
44.693069939405603
 21
41.992560035678082
 31
0.0
  0
LINE
  5
39A1
  8
2
 10
44.693069939405603
 20
41.992560035678082
 30
0.0
 11
44.693069939405603
 21
35.064356805402547
 31
0.0
  0
LINE
  5
39A2
  8
2
 10
44.693069939405603
 20
35.064356805402547
 30
0.0
 11
38.693069939405632
 21
31.6002551902648
 31
0.0
  0
LINE
  5
39A3
  8
2
 10
38.693069939405632
 20
31.6002551902648
 30
0.0
 11
32.693069939405603
 21
35.064356805402589
 31
0.0
  0
CIRCLE
  5
39A4
  8
3
 10
38.693069939405632
 20
38.528458420540318
 30
0.0
 40
4.3865000000000052
  0
LINE
  5
39A5
  8
2
 10
32.693069939405632
 20
41.992560035678167
 30
0.0
 11
32.693069939405518
 21
35.064356805402639
 31
0.0
  0
LINE
  5
39A6
  8
2
 10
38.693069939405632
 20
45.456661650815803
 30
0.0
 11
32.693069939405632
 21
41.992560035678167
 31
0.0
  0
LINE
  5
39B1
  8
0
 10
103.07263322699281
 20
40.278458420540332
 30
0.0
 11
103.07263322699281
 21
44.778458420540332
 31
0.0
  0
LINE
  5
39B2
  8
0
 10
103.07263322699281
 20
44.528458420540332
 30
0.0
 11
97.072633226992906
 21
44.528458420540332
 31
0.0
  0
LINE
  5
39B3
  8
0
 10
103.07263322699281
 20
40.278458420540332
 30
0.0
 11
97.672633226992915
 21
40.278458420540332
 31
0.0
  0
LINE
  5
39B4
  8
0
 10
97.672633226992915
 20
40.278458420540332
 30
0.0
 11
97.672633226992915
 21
36.778458420540332
 31
0.0
  0
LINE
  5
39B5
  8
0
 10
97.972633226992883
 20
36.778458420540332
 30
0.0
 11
97.972633226992883
 21
40.278458420540332
 31
0.0
  0
LINE
  5
39B7
  8
0
 10
103.07263322699281
 20
36.778458420540332
 30
0.0
 11
97.672633226992915
 21
36.778458420540332
 31
0.0
  0
LINE
  5
39B8
  8
0
 10
103.07263322699281
 20
32.278458420540332
 30
0.0
 11
103.07263322699281
 21
36.778458420540332
 31
0.0
  0
LINE
  5
39B9
  8
0
 10
97.072633226992878
 20
32.528458420540332
 30
0.0
 11
103.07263322699281
 21
32.528458420540332
 31
0.0
  0
LINE
  5
39C6
  8
0
 10
97.072633226992878
 20
32.528458420540332
 30
0.0
 11
97.072633226992906
 21
44.528458420540332
 31
0.0
  0
LINE
  5
3D09
  8
0
 10
96.823921921028585
 20
35.064356805402539
 30
0.0
 11
92.072633226992878
 21
35.064356805402539
 31
0.0
  0
POLYLINE
  5
3D0A
  8
0
 66
     1
 10
0.0
 20
0.0
 30
0.0
  0
VERTEX
  5
4B2A
  8
0
 10
97.072633226992906
 20
38.528458420540332
 30
0.0
  0
VERTEX
  5
4B2B
  8
0
 10
97.065796256260356
 20
37.974525096027321
 30
0.0
  0
VERTEX
  5
4B2C
  8
0
 10
97.011611241147676
 20
36.859713374454962
 30
0.0
  0
VERTEX
  5
4B2D
  8
0
 10
96.90171693606554
 20
35.689216387244628
 30
0.0
  0
VERTEX
  5
4B2E
  8
0
 10
96.823921921028585
 20
35.064356805402589
 30
0.0
  0
SEQEND
  5
4B2F
  8
0
  0
POLYLINE
  5
3D0B
  8
0
 66
     1
 10
0.0
 20
0.0
 30
0.0
  0
VERTEX
  5
4B30
  8
0
 10
96.823921921028585
 20
41.992560035678103
 30
0.0
  0
VERTEX
  5
4B31
  8
0
 10
96.90171693606554
 20
41.367700453836029
 30
0.0
  0
VERTEX
  5
4B32
  8
0
 10
97.011611241147676
 20
40.197203466625709
 30
0.0
  0
VERTEX
  5
4B33
  8
0
 10
97.065796256260356
 20
39.08239174505335
 30
0.0
  0
VERTEX
  5
4B34
  8
0
 10
97.072633226992906
 20
38.528458420540332
 30
0.0
  0
SEQEND
  5
4B35
  8
0
  0
LINE
  5
3D0C
  8
0
 10
96.823921921028585
 20
41.992560035678117
 30
0.0
 11
92.072633226992878
 21
41.992560035678117
 31
0.0
  0
LINE
  5
3D0F
  8
0
 10
96.823921921028585
 20
45.456661650815803
 30
0.0
 11
92.072633226992878
 21
45.456661650815803
 31
0.0
  0
POLYLINE
  5
3D10
  8
0
 66
     1
 10
0.0
 20
0.0
 30
0.0
  0
VERTEX
  5
4B36
  8
0
 10
97.072633226992906
 20
43.724610843246957
 30
0.0
  0
VERTEX
  5
4B37
  8
0
 10
97.065796256260356
 20
44.001577505503477
 30
0.0
  0
VERTEX
  5
4B38
  8
0
 10
97.011611241147676
 20
44.558983366289652
 30
0.0
  0
VERTEX
  5
4B39
  8
0
 10
96.90171693606554
 20
45.144231859894809
 30
0.0
  0
VERTEX
  5
4B3A
  8
0
 10
96.823921921028585
 20
45.456661650815832
 30
0.0
  0
SEQEND
  5
4B3B
  8
0
  0
POLYLINE
  5
3D11
  8
0
 66
     1
 10
0.0
 20
0.0
 30
0.0
  0
VERTEX
  5
4B3C
  8
0
 10
96.823921921028585
 20
41.992560035678082
 30
0.0
  0
VERTEX
  5
4B3D
  8
0
 10
96.90171693606554
 20
42.304989826599112
 30
0.0
  0
VERTEX
  5
4B3E
  8
0
 10
97.011611241147676
 20
42.890238320204269
 30
0.0
  0
VERTEX
  5
4B3F
  8
0
 10
97.065796256260356
 20
43.447644180990451
 30
0.0
  0
VERTEX
  5
4B40
  8
0
 10
97.072633226992906
 20
43.724610843246957
 30
0.0
  0
SEQEND
  5
4B41
  8
0
  0
POLYLINE
  5
3D15
  8
0
 66
     1
 10
0.0
 20
0.0
 30
0.0
  0
VERTEX
  5
4B42
  8
0
 10
97.072633226992906
 20
33.3323059978337
 30
0.0
  0
VERTEX
  5
4B43
  8
0
 10
97.065796256260356
 20
33.609272660090213
 30
0.0
  0
VERTEX
  5
4B44
  8
0
 10
97.011611241147676
 20
34.166678520876381
 30
0.0
  0
VERTEX
  5
4B45
  8
0
 10
96.90171693606554
 20
34.751927014481552
 30
0.0
  0
VERTEX
  5
4B46
  8
0
 10
96.823921921028585
 20
35.064356805402568
 30
0.0
  0
SEQEND
  5
4B47
  8
0
  0
POLYLINE
  5
3D16
  8
0
 66
     1
 10
0.0
 20
0.0
 30
0.0
  0
VERTEX
  5
4B48
  8
0
 10
96.823921921028585
 20
31.600255190264829
 30
0.0
  0
VERTEX
  5
4B49
  8
0
 10
96.90171693606554
 20
31.912684981185851
 30
0.0
  0
VERTEX
  5
4B4A
  8
0
 10
97.011611241147676
 20
32.497933474791012
 30
0.0
  0
VERTEX
  5
4B4B
  8
0
 10
97.065796256260356
 20
33.055339335577187
 30
0.0
  0
VERTEX
  5
4B4C
  8
0
 10
97.072633226992906
 20
33.3323059978337
 30
0.0
  0
SEQEND
  5
4B4D
  8
0
  0
LINE
  5
3D17
  8
0
 10
96.823921921028585
 20
31.600255190264861
 30
0.0
 11
92.072633226992878
 21
31.600255190264861
 31
0.0
  0
LINE
  5
3D19
  8
0
 10
97.072633226992906
 20
32.528458420540332
 30
0.0
 11
97.072633226992906
 21
44.528458420540332
 31
0.0
  0
LINE
  5
3D1E
  8
0
 10
96.823921921028585
 20
31.600255190264861
 30
0.0
 11
97.072633226992906
 21
32.528458420540332
 31
0.0
  0
LINE
  5
3D1F
  8
0
 10
97.072633226992906
 20
44.528458420540332
 30
0.0
 11
96.823921921028585
 21
45.456661650815803
 31
0.0
  0
LINE
  5
3D23
  8
1
 10
122.0769966344736
 20
38.528458420540332
 30
0.0
 11
69.06826981951221
 21
38.528458420540332
 31
0.0
  0
LINE
  5
3F25
  8
0
 10
103.07263322699291
 20
83.380203947668363
 30
0.0
 11
103.07263322699291
 21
71.380203947668363
 31
0.0
  0
LINE
  5
3F26
  8
0
 10
97.97263322699294
 20
71.130203947668363
 30
0.0
 11
112.84326283526489
 21
71.130203947668363
 31
0.0
  0
LINE
  5
3F27
  8
0
 10
112.84326283526489
 20
83.630203947668363
 30
0.0
 11
97.97263322699294
 21
83.630203947668363
 31
0.0
  0
LINE
  5
3F28
  8
0
 10
97.672633226992886
 20
71.181675810244499
 30
0.0
 11
97.672633226992915
 21
71.380203947668363
 31
0.0
  0
LINE
  5
3F29
  8
0
 10
97.972633226992954
 20
71.130203947668363
 30
0.0
 11
97.97263322699294
 21
71.380203947668349
 31
0.0
  0
ARC
  5
3F2A
  8
0
 10
97.972633226992883
 20
82.730203947668414
 30
0.0
 40
0.8999999999999506
 50
89.999999146226344
 51
109.4712206344914
  0
ARC
  5
3F2D
  8
0
 10
97.972633226992883
 20
72.030203947668312
 30
0.0
 40
0.8999999999999575
 50
250.5287793655086
 51
270.0
  0
LINE
  5
3F2E
  8
0
 10
103.07263322699291
 20
71.380203947668363
 30
0.0
 11
97.072633226992949
 21
71.380203947668363
 31
0.0
  0
LINE
  5
3F2F
  8
0
 10
103.07263322699291
 20
83.380203947668363
 30
0.0
 11
103.07263322699291
 21
71.380203947668363
 31
0.0
  0
LINE
  5
3F31
  8
1
 10
122.0769966344736
 20
77.380203947668363
 30
0.0
 11
69.068269819512238
 21
77.380203947668363
 31
0.0
  0
LINE
  5
3F77
  8
0
 10
92.072633226992949
 20
83.380203947668363
 30
0.0
 11
92.072633226992949
 21
71.380203947668363
 31
0.0
  0
LINE
  5
3F7A
  8
0
 10
97.072633226992977
 20
83.380203947668363
 30
0.0
 11
92.072633226992949
 21
83.380203947668363
 31
0.0
  0
LINE
  5
3F7B
  8
0
 10
97.072633226992977
 20
83.380203947668363
 30
0.0
 11
97.072633226992977
 21
71.380203947668363
 31
0.0
  0
POLYLINE
  5
3F7C
  8
0
 66
     1
 10
0.0
 20
0.0
 30
0.0
  0
VERTEX
  5
4B4E
  8
0
 10
96.823921921028671
 20
83.380203947668363
 30
0.0
  0
VERTEX
  5
4B4F
  8
0
 10
96.901716936065611
 20
82.839059675995045
 30
0.0
  0
VERTEX
  5
4B50
  8
0
 10
97.011611241147733
 20
81.825379550017729
 30
0.0
  0
VERTEX
  5
4B51
  8
0
 10
97.065796256260427
 20
80.859924278699367
 30
0.0
  0
VERTEX
  5
4B52
  8
0
 10
97.072633226992977
 20
80.380203947668363
 30
0.0
  0
SEQEND
  5
4B53
  8
0
  0
POLYLINE
  5
3F7D
  8
0
 66
     1
 10
0.0
 20
0.0
 30
0.0
  0
VERTEX
  5
4B54
  8
0
 10
97.072633226992977
 20
80.380203947668363
 30
0.0
  0
VERTEX
  5
4B55
  8
0
 10
97.065796256260427
 20
79.900483616637317
 30
0.0
  0
VERTEX
  5
4B56
  8
0
 10
97.011611241147733
 20
78.935028345318997
 30
0.0
  0
VERTEX
  5
4B57
  8
0
 10
96.901716936065611
 20
77.921348219341681
 30
0.0
  0
VERTEX
  5
4B58
  8
0
 10
96.823921921028671
 20
77.380203947668363
 30
0.0
  0
SEQEND
  5
4B59
  8
0
  0
LINE
  5
3F7E
  8
0
 10
96.823921921028656
 20
77.380203947668363
 30
0.0
 11
92.072633226992949
 21
77.380203947668363
 31
0.0
  0
POLYLINE
  5
3F7F
  8
0
 66
     1
 10
0.0
 20
0.0
 30
0.0
  0
VERTEX
  5
4B5A
  8
0
 10
96.823921921028671
 20
77.380203947668363
 30
0.0
  0
VERTEX
  5
4B5B
  8
0
 10
96.901716936065611
 20
76.839059675995017
 30
0.0
  0
VERTEX
  5
4B5C
  8
0
 10
97.011611241147733
 20
75.825379550017729
 30
0.0
  0
VERTEX
  5
4B5D
  8
0
 10
97.065796256260427
 20
74.859924278699381
 30
0.0
  0
VERTEX
  5
4B5E
  8
0
 10
97.072633226992977
 20
74.380203947668363
 30
0.0
  0
SEQEND
  5
4B5F
  8
0
  0
POLYLINE
  5
3F80
  8
0
 66
     1
 10
0.0
 20
0.0
 30
0.0
  0
VERTEX
  5
4B60
  8
0
 10
97.072633226992977
 20
74.380203947668363
 30
0.0
  0
VERTEX
  5
4B61
  8
0
 10
97.065796256260427
 20
73.900483616637317
 30
0.0
  0
VERTEX
  5
4B62
  8
0
 10
97.011611241147733
 20
72.935028345318983
 30
0.0
  0
VERTEX
  5
4B63
  8
0
 10
96.901716936065611
 20
71.921348219341709
 30
0.0
  0
VERTEX
  5
4B64
  8
0
 10
96.823921921028671
 20
71.380203947668363
 30
0.0
  0
SEQEND
  5
4B65
  8
0
  0
LINE
  5
3F81
  8
0
 10
97.072633226992977
 20
71.380203947668363
 30
0.0
 11
92.072633226992949
 21
71.380203947668363
 31
0.0
  0
LINE
  5
3F89
  8
0
 10
97.672633226992943
 20
83.380203947668363
 30
0.0
 11
97.672633226992915
 21
83.578732085092227
 31
0.0
  0
LINE
  5
3F8A
  8
0
 10
97.972633226992926
 20
83.380203947668363
 30
0.0
 11
97.97263322699294
 21
83.630203947668363
 31
0.0
  0
LINE
  5
3F96
  8
0
 10
103.07263322699291
 20
83.380203947668363
 30
0.0
 11
97.072633226992949
 21
83.380203947668363
 31
0.0
  0
LINE
  5
4000
  8
3
 10
88.072633226992991
 20
72.993703947668351
 30
0.0
 11
92.072633226992949
 21
72.993703947668351
 31
0.0
  0
LINE
  5
4001
  8
0
 10
88.072633226992991
 20
72.380203947668335
 30
0.0
 11
92.072633226992991
 21
72.380203947668363
 31
0.0
  0
LINE
  5
4002
  8
3
 10
88.072633226992991
 20
81.766703947668375
 30
0.0
 11
92.072633226992949
 21
81.766703947668375
 31
0.0
  0
LINE
  5
4003
  8
0
 10
81.072633226992991
 20
82.380203947668363
 30
0.0
 11
75.686133226992979
 21
82.380203947668363
 31
0.0
  0
LINE
  5
401A
  8
0
 10
71.822633226992991
 20
74.880203947668363
 30
0.0
 11
71.822633226992991
 21
79.880203947668363
 31
0.0
  0
LINE
  5
401B
  8
0
 10
70.947243792339634
 20
75.018852013341942
 30
0.0
 11
70.947243792339634
 21
79.741555881994785
 31
0.0
  0
LINE
  5
401C
  8
0
 10
75.072633226992991
 20
79.880203947668363
 30
0.0
 11
71.822633226992991
 21
79.880203947668363
 31
0.0
  0
LINE
  5
401D
  8
0
 10
71.822633226992991
 20
74.880203947668363
 30
0.0
 11
75.072633226992991
 21
74.880203947668363
 31
0.0
  0
ARC
  5
401E
  8
0
 10
73.697633226992991
 20
77.380203947668363
 30
0.0
 40
3.6250000000000031
 50
139.35219968656619
 51
220.64780031343369
  0
LINE
  5
401F
  8
0
 10
71.822633226992991
 20
79.880203947668363
 30
0.0
 11
70.947243792339634
 21
79.741555881994785
 31
0.0
  0
LINE
  5
4020
  8
0
 10
70.947243792339634
 20
75.018852013341942
 30
0.0
 11
71.822633226992991
 21
74.880203947668363
 31
0.0
  0
LINE
  5
4022
  8
3
 10
75.072633226992991
 20
81.766703947668375
 30
0.0
 11
81.072633226992977
 21
81.766703947668375
 31
0.0
  0
LINE
  5
4025
  8
3
 10
75.072633226992991
 20
72.993703947668351
 30
0.0
 11
81.072633226992977
 21
72.993703947668351
 31
0.0
  0
LINE
  5
402B
  8
0
 10
75.686133226992979
 20
72.380203947668363
 30
0.0
 11
75.686133226992979
 21
82.380203947668363
 31
0.0
  0
LINE
  5
402C
  8
0
 10
75.072633226992991
 20
72.993703947668351
 30
0.0
 11
75.072633226992991
 21
81.766703947668375
 31
0.0
  0
LINE
  5
402D
  8
0
 10
75.686133226992979
 20
82.380203947668363
 30
0.0
 11
75.072633226992991
 21
81.766703947668375
 31
0.0
  0
LINE
  5
402E
  8
0
 10
75.072633226992991
 20
72.993703947668351
 30
0.0
 11
75.686133226992979
 21
72.380203947668363
 31
0.0
  0
LINE
  5
402F
  8
0
 10
92.072633226992991
 20
82.380203947668363
 30
0.0
 11
88.072633226992991
 21
82.380203947668363
 31
0.0
  0
LINE
  5
4030
  8
0
 10
75.686133226992979
 20
72.380203947668363
 30
0.0
 11
81.072633226992991
 21
72.380203947668363
 31
0.0
  0
LINE
  5
4033
  8
0
 10
75.686133226992979
 20
33.528458420540332
 30
0.0
 11
81.072633226992991
 21
33.528458420540332
 31
0.0
  0
LINE
  5
4034
  8
0
 10
75.072633226992991
 20
34.14195842054032
 30
0.0
 11
75.686133226992979
 21
33.528458420540332
 31
0.0
  0
LINE
  5
4035
  8
0
 10
75.686133226992979
 20
43.528458420540332
 30
0.0
 11
75.072633226992991
 21
42.914958420540337
 31
0.0
  0
LINE
  5
4036
  8
0
 10
75.072633226992991
 20
34.14195842054032
 30
0.0
 11
75.072633226992991
 21
42.914958420540337
 31
0.0
  0
LINE
  5
4037
  8
0
 10
75.686133226992979
 20
33.528458420540332
 30
0.0
 11
75.686133226992979
 21
43.528458420540332
 31
0.0
  0
LINE
  5
4038
  8
3
 10
75.072633226992991
 20
34.14195842054032
 30
0.0
 11
81.072633226992977
 21
34.14195842054032
 31
0.0
  0
LINE
  5
4039
  8
3
 10
75.072633226992991
 20
42.914958420540337
 30
0.0
 11
81.072633226992977
 21
42.914958420540337
 31
0.0
  0
LINE
  5
403A
  8
0
 10
70.947243792339634
 20
36.16710648621391
 30
0.0
 11
71.822633226992991
 21
36.028458420540332
 31
0.0
  0
LINE
  5
403B
  8
0
 10
71.822633226992991
 20
41.028458420540332
 30
0.0
 11
70.947243792339634
 21
40.889810354866754
 31
0.0
  0
ARC
  5
403C
  8
0
 10
73.697633226992991
 20
38.528458420540332
 30
0.0
 40
3.6250000000000031
 50
139.35219968656619
 51
220.64780031343369
  0
LINE
  5
403D
  8
0
 10
71.822633226992991
 20
36.028458420540332
 30
0.0
 11
75.072633226992991
 21
36.028458420540332
 31
0.0
  0
LINE
  5
403E
  8
0
 10
75.072633226992991
 20
41.028458420540332
 30
0.0
 11
71.822633226992991
 21
41.028458420540332
 31
0.0
  0
LINE
  5
403F
  8
0
 10
70.947243792339634
 20
36.16710648621391
 30
0.0
 11
70.947243792339634
 21
40.889810354866754
 31
0.0
  0
LINE
  5
4040
  8
0
 10
71.822633226992991
 20
36.028458420540332
 30
0.0
 11
71.822633226992991
 21
41.028458420540332
 31
0.0
  0
POLYLINE
  5
4041
  8
0
 66
     1
 10
0.0
 20
0.0
 30
0.0
  0
VERTEX
  5
4B66
  8
0
 10
81.404248301612029
 20
33.909656267023301
 30
0.0
  0
VERTEX
  5
4B67
  8
0
 10
81.300521614896098
 20
34.742802376146059
 30
0.0
  0
VERTEX
  5
4B68
  8
0
 10
81.153995874786617
 20
36.303465025759792
 30
0.0
  0
VERTEX
  5
4B69
  8
0
 10
81.081749187969663
 20
37.789880654522953
 30
0.0
  0
VERTEX
  5
4B6A
  8
0
 10
81.072633226992991
 20
38.528458420540332
 30
0.0
  0
SEQEND
  5
4B6B
  8
0
  0
LINE
  5
4042
  8
0
 10
88.072633226992991
 20
33.909656267023301
 30
0.0
 11
81.404248301612029
 21
33.909656267023301
 31
0.0
  0
LINE
  5
4045
  8
0
 10
88.072633226992991
 20
43.147260574057313
 30
0.0
 11
81.404248301612029
 21
43.147260574057313
 31
0.0
  0
POLYLINE
  5
4046
  8
0
 66
     1
 10
0.0
 20
0.0
 30
0.0
  0
VERTEX
  5
4B6C
  8
0
 10
81.072633226992991
 20
38.528458420540332
 30
0.0
  0
VERTEX
  5
4B6D
  8
0
 10
81.081749187969663
 20
39.267036186557661
 30
0.0
  0
VERTEX
  5
4B6E
  8
0
 10
81.153995874786617
 20
40.753451815320808
 30
0.0
  0
VERTEX
  5
4B6F
  8
0
 10
81.300521614896127
 20
42.314114464934548
 30
0.0
  0
VERTEX
  5
4B70
  8
0
 10
81.404248301612029
 20
43.147260574057313
 30
0.0
  0
SEQEND
  5
4B71
  8
0
  0
POLYLINE
  5
4048
  8
0
 66
     1
 10
0.0
 20
0.0
 30
0.0
  0
VERTEX
  5
4B72
  8
0
 10
81.072633226992991
 20
45.456661650815803
 30
0.0
  0
VERTEX
  5
4B73
  8
0
 10
81.081749187969663
 20
45.087372767807203
 30
0.0
  0
VERTEX
  5
4B74
  8
0
 10
81.153995874786617
 20
44.34416495342559
 30
0.0
  0
VERTEX
  5
4B75
  8
0
 10
81.300521614896127
 20
43.56383362861866
 30
0.0
  0
VERTEX
  5
4B76
  8
0
 10
81.404248301612029
 20
43.147260574057313
 30
0.0
  0
SEQEND
  5
4B77
  8
0
  0
POLYLINE
  5
4049
  8
0
 66
     1
 10
0.0
 20
0.0
 30
0.0
  0
VERTEX
  5
4B78
  8
0
 10
81.072633226992991
 20
31.6002551902648
 30
0.0
  0
VERTEX
  5
4B79
  8
0
 10
81.081749187969663
 20
31.230966307256139
 30
0.0
  0
VERTEX
  5
4B7A
  8
0
 10
81.153995874786617
 20
30.48775849287459
 30
0.0
  0
VERTEX
  5
4B7B
  8
0
 10
81.300521614896098
 20
29.707427168067671
 30
0.0
  0
VERTEX
  5
4B7C
  8
0
 10
81.404248301612029
 20
29.29085411350626
 30
0.0
  0
SEQEND
  5
4B7D
  8
0
  0
POLYLINE
  5
404A
  8
0
 66
     1
 10
0.0
 20
0.0
 30
0.0
  0
VERTEX
  5
4B7E
  8
0
 10
81.404248301612029
 20
33.909656267023301
 30
0.0
  0
VERTEX
  5
4B7F
  8
0
 10
81.300521614896098
 20
33.493083212461883
 30
0.0
  0
VERTEX
  5
4B80
  8
0
 10
81.153995874786617
 20
32.712751887655017
 30
0.0
  0
VERTEX
  5
4B81
  8
0
 10
81.081749187969663
 20
31.969544073273472
 30
0.0
  0
VERTEX
  5
4B82
  8
0
 10
81.072633226992991
 20
31.6002551902648
 30
0.0
  0
SEQEND
  5
4B83
  8
0
  0
LINE
  5
404D
  8
0
 10
88.072633226992991
 20
29.29085411350626
 30
0.0
 11
81.404248301612029
 21
29.29085411350626
 31
0.0
  0
LINE
  5
404E
  8
0
 10
81.072633226992991
 20
46.528458420540332
 30
0.0
 11
81.072633226992991
 21
30.528458420540328
 31
0.0
  0
LINE
  5
4050
  8
0
 10
81.072633226992991
 20
30.528458420540328
 30
0.0
 11
81.404248301612029
 21
29.29085411350626
 31
0.0
  0
LINE
  5
4052
  8
0
 10
81.072633226992991
 20
43.528458420540332
 30
0.0
 11
75.686133226992979
 21
43.528458420540332
 31
0.0
  0
POLYLINE
  5
4056
  8
0
 66
     1
 10
0.0
 20
0.0
 30
0.0
  0
VERTEX
  5
4B84
  8
0
 10
81.404248301612029
 20
47.766062727574287
 30
0.0
  0
VERTEX
  5
4B85
  8
0
 10
81.300521614896127
 20
47.34948967301294
 30
0.0
  0
VERTEX
  5
4B86
  8
0
 10
81.153995874786617
 20
46.569158348206066
 30
0.0
  0
VERTEX
  5
4B87
  8
0
 10
81.081749187969663
 20
45.825950533824468
 30
0.0
  0
VERTEX
  5
4B88
  8
0
 10
81.072633226992991
 20
45.456661650815803
 30
0.0
  0
SEQEND
  5
4B89
  8
0
  0
LINE
  5
4057
  8
0
 10
88.072633226992991
 20
47.766062727574287
 30
0.0
 11
81.404248301612029
 21
47.766062727574287
 31
0.0
  0
LINE
  5
4059
  8
0
 10
81.404248301612029
 20
47.766062727574287
 30
0.0
 11
81.072633226992991
 21
46.528458420540332
 31
0.0
  0
LINE
  5
405B
  8
3
 10
88.072633226993005
 20
42.91495842054033
 30
0.0
 11
92.072633226992878
 21
42.91495842054033
 31
0.0
  0
LINE
  5
405C
  8
3
 10
88.072633226993005
 20
34.141958420540327
 30
0.0
 11
92.072633226992878
 21
34.14195842054032
 31
0.0
  0
LINE
  5
405D
  8
0
 10
92.072633226992991
 20
43.528458420540332
 30
0.0
 11
88.072633226992991
 21
43.528458420540332
 31
0.0
  0
LINE
  5
405E
  8
0
 10
88.072633226992991
 20
33.528458420540332
 30
0.0
 11
92.072633226992991
 21
33.528458420540332
 31
0.0
  0
LINE
  5
4081
  8
0
 10
46.693069939405632
 20
43.147260574057313
 30
0.0
 11
46.693069939405838
 21
33.9096562670235
 31
0.0
  0
LINE
  5
4082
  8
0
 10
30.693069939405628
 20
43.147260574057313
 30
0.0
 11
30.693069939405419
 21
33.9096562670235
 31
0.0
  0
LINE
  5
4083
  8
0
 10
38.693069939405632
 20
47.766062727574287
 30
0.0
 11
30.693069939405628
 21
43.147260574057313
 31
0.0
  0
LINE
  5
4084
  8
0
 10
38.693069939405632
 20
47.766062727574287
 30
0.0
 11
46.693069939405632
 21
43.147260574057313
 31
0.0
  0
LINE
  5
4085
  8
0
 10
38.693069939405603
 20
29.29085411350637
 30
0.0
 11
46.693069939405611
 21
33.90965626702333
 31
0.0
  0
LINE
  5
4086
  8
0
 10
38.693069939405603
 20
29.29085411350637
 30
0.0
 11
30.693069939405621
 21
33.909656267023379
 31
0.0
  0
CIRCLE
  5
4092
  8
0
 10
38.693069939405632
 20
38.528458420540332
 30
0.0
 40
8.0
  0
POLYLINE
  5
40EA
  8
0
 66
     1
 10
0.0
 20
0.0
 30
0.0
  0
VERTEX
  5
4B8A
  8
0
 10
81.072633226993005
 20
73.380203947668363
 30
0.0
  0
VERTEX
  5
4B8B
  8
0
 10
81.081749187969692
 20
74.019831055709759
 30
0.0
  0
VERTEX
  5
4B8C
  8
0
 10
81.153995874786617
 20
75.307104750800832
 30
0.0
  0
VERTEX
  5
4B8D
  8
0
 10
81.300521614896113
 20
76.658678252103854
 30
0.0
  0
VERTEX
  5
4B8E
  8
0
 10
81.404248301612043
 20
77.380203947668363
 30
0.0
  0
SEQEND
  5
4B8F
  8
0
  0
POLYLINE
  5
40EB
  8
0
 66
     1
 10
0.0
 20
0.0
 30
0.0
  0
VERTEX
  5
4B90
  8
0
 10
81.404248301612043
 20
69.380203947668363
 30
0.0
  0
VERTEX
  5
4B91
  8
0
 10
81.300521614896113
 20
70.101729643232872
 30
0.0
  0
VERTEX
  5
4B92
  8
0
 10
81.153995874786617
 20
71.453303144535894
 30
0.0
  0
VERTEX
  5
4B93
  8
0
 10
81.081749187969692
 20
72.740576839626968
 30
0.0
  0
VERTEX
  5
4B94
  8
0
 10
81.072633226993005
 20
73.380203947668363
 30
0.0
  0
SEQEND
  5
4B95
  8
0
  0
LINE
  5
40EE
  8
0
 10
88.072633226992991
 20
77.380203947668363
 30
0.0
 11
81.404248301612043
 21
77.380203947668363
 31
0.0
  0
POLYLINE
  5
40EF
  8
0
 66
     1
 10
0.0
 20
0.0
 30
0.0
  0
VERTEX
  5
4B96
  8
0
 10
81.072633226993005
 20
81.380203947668363
 30
0.0
  0
VERTEX
  5
4B97
  8
0
 10
81.081749187969692
 20
82.019831055709673
 30
0.0
  0
VERTEX
  5
4B98
  8
0
 10
81.153995874786617
 20
83.307104750800804
 30
0.0
  0
VERTEX
  5
4B99
  8
0
 10
81.300521614896127
 20
84.658678252103925
 30
0.0
  0
VERTEX
  5
4B9A
  8
0
 10
81.404248301612043
 20
85.380203947668363
 30
0.0
  0
SEQEND
  5
4B9B
  8
0
  0
POLYLINE
  5
40F0
  8
0
 66
     1
 10
0.0
 20
0.0
 30
0.0
  0
VERTEX
  5
4B9C
  8
0
 10
81.404248301612043
 20
77.380203947668363
 30
0.0
  0
VERTEX
  5
4B9D
  8
0
 10
81.300521614896127
 20
78.101729643232815
 30
0.0
  0
VERTEX
  5
4B9E
  8
0
 10
81.153995874786617
 20
79.453303144535923
 30
0.0
  0
VERTEX
  5
4B9F
  8
0
 10
81.081749187969692
 20
80.740576839627025
 30
0.0
  0
VERTEX
  5
4BA0
  8
0
 10
81.072633226993005
 20
81.380203947668363
 30
0.0
  0
SEQEND
  5
4BA1
  8
0
  0
LINE
  5
40F3
  8
0
 10
81.072633226993005
 20
85.380203947668363
 30
0.0
 11
81.072633226993005
 21
69.380203947668363
 31
0.0
  0
LINE
  5
40FF
  8
0
 10
81.072633226993005
 20
85.380203947668363
 30
0.0
 11
88.072633226992991
 21
85.380203947668363
 31
0.0
  0
LINE
  5
4100
  8
0
 10
81.072633226993005
 20
69.380203947668363
 30
0.0
 11
88.072633226992991
 21
69.380203947668363
 31
0.0
  0
LINE
  5
4112
  8
0
 10
88.072633226992991
 20
47.766062727574287
 30
0.0
 11
88.072633226992991
 21
29.29085411350626
 31
0.0
  0
LINE
  5
4113
  8
0
 10
88.072633226992991
 20
69.380203947668363
 30
0.0
 11
88.072633226992991
 21
85.380203947668363
 31
0.0
  0
LINE
  5
4122
  8
0
 10
92.072633226992906
 20
45.456661650815803
 30
0.0
 11
92.072633226992878
 21
31.600255190264861
 31
0.0
  0
TEXT
  5
421A
  8
0
 62
     3
 10
0.0
 20
0.0
 30
0.0
 40
5.0
  1
EIP10LW-SUS
  7
STANDARD1
  0
ENDSEC
  0
EOF
