  0
SECTION
  2
HEADER
  9
$ACADVER
  1
AC1009
  9
$INSBASE
 10
0.0
 20
0.0
 30
0.0
  9
$EXTMIN
 10
0.0
 20
-2.960436562073669
 30
-0.0000000000000002
  9
$EXTMAX
 10
281.84057903766882
 20
218.73509045850039
 30
0.0000000000000002
  9
$LIMMIN
 10
0.0
 20
0.0
  9
$LIMMAX
 10
385.0
 20
270.0
  9
$ORTHOMODE
 70
     1
  9
$REGENMODE
 70
     1
  9
$FILLMODE
 70
     1
  9
$QTEXTMODE
 70
     0
  9
$MIRRTEXT
 70
     0
  9
$DRAGMODE
 70
     2
  9
$LTSCALE
 40
10.0
  9
$OSMODE
 70
  3071
  9
$ATTMODE
 70
     1
  9
$TEXTSIZE
 40
0.2
  9
$TRACEWID
 40
0.05
  9
$TEXTSTYLE
  7
STANDARD
  9
$CLAYER
  8
0
  9
$CELTYPE
  6
BYLAYER
  9
$CECOLOR
 62
   256
  9
$DIMSCALE
 40
1.0
  9
$DIMASZ
 40
3.0
  9
$DIMEXO
 40
0.0625
  9
$DIMDLI
 40
0.38
  9
$DIMRND
 40
0.0
  9
$DIMDLE
 40
0.0
  9
$DIMEXE
 40
0.18
  9
$DIMTP
 40
0.0
  9
$DIMTM
 40
0.0
  9
$DIMTXT
 40
3.0
  9
$DIMCEN
 40
0.09
  9
$DIMTSZ
 40
0.0
  9
$DIMTOL
 70
     0
  9
$DIMLIM
 70
     0
  9
$DIMTIH
 70
     1
  9
$DIMTOH
 70
     1
  9
$DIMSE1
 70
     0
  9
$DIMSE2
 70
     0
  9
$DIMTAD
 70
     0
  9
$DIMZIN
 70
     0
  9
$DIMBLK
  1

  9
$DIMASO
 70
     1
  9
$DIMSHO
 70
     1
  9
$DIMPOST
  1

  9
$DIMAPOST
  1

  9
$DIMALT
 70
     0
  9
$DIMALTD
 70
     2
  9
$DIMALTF
 40
25.399999999999999
  9
$DIMLFAC
 40
1.0
  9
$DIMTOFL
 70
     0
  9
$DIMTVP
 40
0.0
  9
$DIMTIX
 70
     0
  9
$DIMSOXD
 70
     0
  9
$DIMSAH
 70
     0
  9
$DIMBLK1
  1

  9
$DIMBLK2
  1

  9
$DIMSTYLE
  2
STANDARD
  9
$DIMCLRD
 70
     0
  9
$DIMCLRE
 70
     0
  9
$DIMCLRT
 70
     0
  9
$DIMTFAC
 40
1.0
  9
$DIMGAP
 40
0.09
  9
$LUNITS
 70
     2
  9
$LUPREC
 70
     4
  9
$SKETCHINC
 40
0.1
  9
$FILLETRAD
 40
0.0
  9
$AUNITS
 70
     0
  9
$AUPREC
 70
     0
  9
$MENU
  1
E:\r13\win\SUPPORT\ACAD
  9
$ELEVATION
 40
0.0
  9
$PELEVATION
 40
0.0
  9
$THICKNESS
 40
0.0
  9
$LIMCHECK
 70
     0
  9
$BLIPMODE
 70
     0
  9
$CHAMFERA
 40
0.0
  9
$CHAMFERB
 40
0.0
  9
$SKPOLY
 70
     0
  9
$TDCREATE
 40
2450375.5568519682
  9
$TDUPDATE
 40
2456598.659148796
  9
$TDINDWG
 40
0.0002003704
  9
$TDUSRTIMER
 40
0.0002003704
  9
$USRTIMER
 70
     1
  9
$ANGBASE
 50
0.0
  9
$ANGDIR
 70
     0
  9
$PDMODE
 70
     0
  9
$PDSIZE
 40
0.0
  9
$PLINEWID
 40
0.0
  9
$COORDS
 70
     1
  9
$SPLFRAME
 70
     0
  9
$SPLINETYPE
 70
     6
  9
$SPLINESEGS
 70
     8
  9
$ATTDIA
 70
     0
  9
$ATTREQ
 70
     1
  9
$HANDLING
 70
     1
  9
$HANDSEED
  5
308
  9
$SURFTAB1
 70
     6
  9
$SURFTAB2
 70
     6
  9
$SURFTYPE
 70
     6
  9
$SURFU
 70
     6
  9
$SURFV
 70
     6
  9
$UCSNAME
  2

  9
$UCSORG
 10
0.0
 20
0.0
 30
0.0
  9
$UCSXDIR
 10
1.0
 20
0.0
 30
0.0
  9
$UCSYDIR
 10
0.0
 20
1.0
 30
0.0
  9
$PUCSNAME
  2

  9
$PUCSORG
 10
0.0
 20
0.0
 30
0.0
  9
$PUCSXDIR
 10
1.0
 20
0.0
 30
0.0
  9
$PUCSYDIR
 10
0.0
 20
1.0
 30
0.0
  9
$USERI1
 70
     3
  9
$USERI2
 70
     1
  9
$USERI3
 70
     1
  9
$USERI4
 70
     0
  9
$USERI5
 70
     0
  9
$USERR1
 40
1.0
  9
$USERR2
 40
3.0
  9
$USERR3
 40
3.0
  9
$USERR4
 40
3.0
  9
$USERR5
 40
10.0
  9
$WORLDVIEW
 70
     1
  9
$SHADEDGE
 70
     3
  9
$SHADEDIF
 70
    70
  9
$TILEMODE
 70
     1
  9
$MAXACTVP
 70
    16
  9
$PLIMCHECK
 70
     0
  9
$PEXTMIN
 10
1.0000000000000000E+020
 20
1.0000000000000000E+020
 30
1.0000000000000000E+020
  9
$PEXTMAX
 10
-1.0000000000000000E+020
 20
-1.0000000000000000E+020
 30
-1.0000000000000000E+020
  9
$PLIMMIN
 10
0.0
 20
0.0
  9
$PLIMMAX
 10
12.0
 20
9.0
  9
$UNITMODE
 70
     0
  9
$VISRETAIN
 70
     0
  9
$PLINEGEN
 70
     0
  9
$PSLTSCALE
 70
     0
  0
ENDSEC
  0
SECTION
  2
TABLES
  0
TABLE
  2
VPORT
 70
     1
  0
VPORT
  2
*ACTIVE
 70
     0
 10
0.0
 20
0.0
 11
1.0
 21
1.0
 12
192.49412581440311
 22
169.9063198933564
 13
0.0
 23
0.0
 14
5.0
 24
5.0
 15
0.0
 25
0.0
 16
0.0
 26
0.0
 36
1.0
 17
0.0
 27
0.0
 37
0.0
 40
348.89937369551939
 41
1.831871345029239
 42
50.0
 43
0.0
 44
0.0
 50
0.0
 51
0.0
 71
     0
 72
   100
 73
     1
 74
     0
 75
     0
 76
     0
 77
     0
 78
     0
  0
ENDTAB
  0
TABLE
  2
LTYPE
 70
     4
  0
LTYPE
  2
CONTINUOUS
 70
     0
  3
Solid Line
 72
    65
 73
     0
 40
0.0
  0
LTYPE
  2
CENTER
 70
     0
  3
____ _ ____ _ ____ _ ____ _ ____ _ ____ _ ____
 72
    65
 73
     4
 40
2.0
 49
1.25
 49
-0.25
 49
0.25
 49
-0.25
  0
LTYPE
  2
HIDDEN
 70
     0
  3
_ _ _ _ _ _ _ _ _ _ _ _ _ _ _ _ _ _ _ _ _ _ _
 72
    65
 73
     2
 40
0.375
 49
0.25
 49
-0.125
  0
LTYPE
  2
PHANTOM2
 70
     0
  3
___ _ _ ___ _ _ ___ _ _ ___ _ _
 72
    65
 73
     6
 40
1.25
 49
0.625
 49
-0.125
 49
0.125
 49
-0.125
 49
0.125
 49
-0.125
  0
ENDTAB
  0
TABLE
  2
LAYER
 70
     4
  0
LAYER
  2
0
 70
     0
 62
     7
  6
CONTINUOUS
  0
LAYER
  2
1
 70
     0
 62
     1
  6
CENTER
  0
LAYER
  2
2
 70
     0
 62
     2
  6
HIDDEN
  0
LAYER
  2
3
 70
     0
 62
     3
  6
CONTINUOUS
  0
ENDTAB
  0
TABLE
  2
STYLE
 70
     2
  0
STYLE
  2
STANDARD
 70
     0
 40
0.0
 41
1.0
 50
0.0
 71
     0
 42
0.2
  3
SIMPLEX
  4
BIGFONT
  0
STYLE
  2
STANDARD1
 70
     0
 40
0.0
 41
1.0
 50
0.0
 71
     0
 42
3.0
  3
txt
  4

  0
ENDTAB
  0
TABLE
  2
VIEW
 70
     0
  0
ENDTAB
  0
TABLE
  2
UCS
 70
     0
  0
ENDTAB
  0
TABLE
  2
APPID
 70
     3
  0
APPID
  2
ACAD
 70
     0
  0
APPID
  2
ACAD_MLEADERVER
 70
     0
  0
APPID
  2
ACAD_NAV_VCDISPLAY
 70
     0
  0
ENDTAB
  0
TABLE
  2
DIMSTYLE
 70
     1
  0
DIMSTYLE
  2
STANDARD
 70
     0
  3

  4

  5

  6

  7

 40
1.0
 41
0.18
 42
0.0625
 43
0.38
 44
0.18
 45
0.0
 46
0.0
 47
0.0
 48
0.0
140
0.18
141
0.09
142
0.0
143
25.399999999999999
144
1.0
145
0.0
146
1.0
147
0.09
 71
     0
 72
     0
 73
     1
 74
     1
 75
     0
 76
     0
 77
     0
 78
     0
170
     0
171
     2
172
     0
173
     0
174
     0
175
     0
176
     0
177
     0
178
     0
  0
ENDTAB
  0
ENDSEC
  0
SECTION
  2
BLOCKS
  0
BLOCK
  8
0
  2
$MODEL_SPACE
 70
     0
 10
0.0
 20
0.0
 30
0.0
  3
$MODEL_SPACE
  1

  0
ENDBLK
  5
128
  8
0
  0
BLOCK
 67
     1
  8
0
  2
$PAPER_SPACE
 70
     0
 10
0.0
 20
0.0
 30
0.0
  3
$PAPER_SPACE
  1

  0
ENDBLK
  5
126
 67
     1
  8
0
  0
ENDSEC
  0
SECTION
  2
ENTITIES
  0
LINE
  5
28
  8
1
 10
281.8405790376687
 20
191.3407304561851
 30
0.0
 11
255.8217955829071
 21
191.3407304561851
 31
0.0
  0
POLYLINE
  5
29
  8
0
 66
     1
 10
0.0
 20
0.0
 30
0.0000000000000002
 70
     1
  0
VERTEX
  5
2A
  8
0
 10
156.16065919028361
 20
69.725926653158652
 30
0.0000000000000002
 42
-0.0712456433475908
  0
VERTEX
  5
2B
  8
0
 10
156.01880097566689
 20
68.735422925782544
 30
0.0000000000000002
 42
-0.0827479972072291
  0
VERTEX
  5
2C
  8
0
 10
155.6437026590778
 20
67.958159700192326
 30
0.0000000000000002
 42
-0.1067701261159281
 70
     2
 50
305.22209169458978
  0
VERTEX
  5
2D
  8
0
 10
155.03653174937099
 20
67.400049984842624
 30
0.0000000000000002
 42
-0.1334300485838711
  0
VERTEX
  5
2E
  8
0
 10
154.3956591902836
 20
67.225926653158652
 30
0.0000000000000002
 42
-0.1334300485837482
  0
VERTEX
  5
2F
  8
0
 10
153.754786631196
 20
67.400049984842511
 30
0.0000000000000002
 42
-0.1067701261158064
  0
VERTEX
  5
30
  8
0
 10
153.1476157214893
 20
67.958159700192326
 30
0.0000000000000002
 42
-0.0827479972072425
 70
     2
 50
54.77790830541025
  0
VERTEX
  5
31
  8
0
 10
152.77251740490021
 20
68.735422925782657
 30
0.0000000000000002
 42
-0.071245643347599
  0
VERTEX
  5
32
  8
0
 10
152.63065919028361
 20
69.725926653158652
 30
0.0000000000000002
 42
-0.071245643347599
  0
VERTEX
  5
33
  8
0
 10
152.77251740490021
 20
70.716430380534646
 30
0.0000000000000002
 42
-0.0827479972072429
  0
VERTEX
  5
34
  8
0
 10
153.1476157214893
 20
71.493693606124978
 30
0.0000000000000002
 42
-0.1067701261159123
 70
     2
 50
125.22209169458981
  0
VERTEX
  5
35
  8
0
 10
153.7547866311962
 20
72.051803321474793
 30
0.0000000000000002
 42
-0.1334300485837995
  0
VERTEX
  5
36
  8
0
 10
154.3956591902836
 20
72.225926653158652
 30
0.0000000000000002
 42
-0.1334300485838654
  0
VERTEX
  5
37
  8
0
 10
155.03653174937099
 20
72.051803321474679
 30
0.0000000000000002
 42
-0.1067701261159165
  0
VERTEX
  5
38
  8
0
 10
155.6437026590778
 20
71.493693606124978
 30
0.0000000000000002
 42
-0.0827479972072865
 70
     2
 50
234.77790830541019
  0
VERTEX
  5
39
  8
0
 10
156.01880097566689
 20
70.716430380534533
 30
0.0000000000000002
 42
-0.071245643347607
  0
SEQEND
  5
3A
  8
0
  0
LINE
  5
3B
  8
1
 10
154.3956591902836
 20
74.225926653158652
 30
0.0000000000000002
 11
154.3956591902836
 21
65.225926653158652
 31
0.0000000000000002
  0
LINE
  5
3C
  8
1
 10
150.63065919028361
 20
69.725926653158652
 30
0.0000000000000002
 11
158.16065919028361
 21
69.725926653158652
 31
0.0000000000000002
  0
LINE
  5
3D
  8
1
 10
132.12179558290731
 20
49.007143198397159
 30
0.0
 11
132.12179558290731
 21
101.1866930336851
 31
0.0
  0
LINE
  5
3E
  8
0
 10
132.12179558290731
 20
54.025926653158713
 30
0.0
 11
159.62179558290751
 21
54.025926653158713
 31
0.0
  0
LINE
  5
3F
  8
0
 10
159.62179558290751
 20
54.025926653158713
 30
0.0
 11
159.62179558290751
 21
57.525926653158592
 31
0.0
  0
LINE
  5
40
  8
0
 10
159.62179558290751
 20
57.525926653158592
 30
0.0
 11
160.1217955829074
 21
57.525926653158592
 31
0.0
  0
LINE
  5
41
  8
0
 10
163.62179558290751
 20
61.025926653158592
 30
0.0
 11
163.62179558290751
 21
63.109518788159839
 31
0.0
  0
LINE
  5
42
  8
0
 10
158.1217955829074
 20
97.525926653158606
 30
0.0
 11
132.12179558290731
 21
97.525926653158606
 31
0.0
  0
ARC
  5
43
  8
0
 10
158.1217955829074
 20
92.025926653158606
 30
0.0
 40
5.5
 50
0.0
 51
90.0
  0
ARC
  5
44
  8
0
 10
160.1217955829074
 20
61.025926653158592
 30
0.0
 40
3.5
 50
270.0
 51
0.0
  0
ARC
  5
45
  8
0
 10
176.23543194654391
 20
76.52592665315872
 30
0.0
 40
18.11363636363637
 50
135.4180592504822
 51
224.5819407495178
  0
LINE
  5
46
  8
0
 10
163.62179558290751
 20
89.942334518157224
 30
0.0
 11
163.62179558290751
 21
92.025926653158606
 31
0.0
  0
ARC
  5
47
  8
0
 10
162.6217955829074
 20
89.942334518157224
 30
0.0
 40
1.0
 50
315.41805925048271
 51
0.0
  0
ARC
  5
48
  8
0
 10
162.6217955829074
 20
63.109518788159839
 30
0.0
 40
1.0
 50
0.0
 51
44.581940749517443
  0
ARC
  5
49
  8
0
 10
104.1217955829074
 20
61.025926653158592
 30
0.0
 40
3.5
 50
180.0
 51
270.0
  0
LINE
  5
4A
  8
0
 10
132.12179558290731
 20
54.025926653158713
 30
0.0
 11
104.6217955829073
 21
54.025926653158713
 31
0.0
  0
LINE
  5
4B
  8
0
 10
104.6217955829073
 20
57.525926653158592
 30
0.0
 11
104.1217955829074
 21
57.525926653158592
 31
0.0
  0
LINE
  5
4C
  8
0
 10
104.6217955829073
 20
54.025926653158713
 30
0.0
 11
104.6217955829073
 21
57.525926653158592
 31
0.0
  0
LINE
  5
4D
  8
0
 10
106.1217955829074
 20
97.525926653158606
 30
0.0
 11
132.12179558290731
 21
97.525926653158606
 31
0.0
  0
ARC
  5
4E
  8
0
 10
88.008159219271036
 20
76.52592665315872
 30
0.0
 40
18.11363636363637
 50
315.41805925048232
 51
44.58194074951772
  0
ARC
  5
4F
  8
0
 10
101.6217955829074
 20
63.109518788159839
 30
0.0
 40
1.0
 50
135.41805925048249
 51
180.0
  0
LINE
  5
50
  8
0
 10
100.6217955829074
 20
61.025926653158592
 30
0.0
 11
100.6217955829074
 21
63.109518788159839
 31
0.0
  0
ARC
  5
51
  8
0
 10
106.1217955829074
 20
92.025926653158606
 30
0.0
 40
5.5
 50
90.0
 51
180.0
  0
LINE
  5
52
  8
0
 10
100.6217955829074
 20
89.942334518157224
 30
0.0
 11
100.6217955829074
 21
92.025926653158606
 31
0.0
  0
ARC
  5
53
  8
0
 10
101.6217955829074
 20
89.942334518157224
 30
0.0
 40
1.0
 50
180.0
 51
224.5819407495174
  0
ARC
  5
54
  8
0
 62
     7
 10
132.12179558290731
 20
44.525926653158471
 30
0.0
 40
45.0
 50
81.524806945872385
 51
90.000000000000057
  0
ARC
  5
55
  8
0
 62
     7
 10
132.12179558290731
 20
108.52592665315861
 30
0.0
 40
45.0
 50
270.0
 51
276.90138300798088
  0
LINE
  5
56
  8
0
 10
160.1217955829074
 20
57.525926653158592
 30
0.0
 11
104.6217955829073
 21
57.525926653158592
 31
0.0
  0
LINE
  5
57
  8
0
 10
132.12179558290731
 20
53.725926653158631
 30
0.0
 11
145.1217955829074
 21
53.725926653158631
 31
0.0
  0
LINE
  5
58
  8
0
 10
145.1217955829074
 20
53.725926653158631
 30
0.0
 11
145.1217955829074
 21
54.025926653158713
 31
0.0
  0
LINE
  5
59
  8
0
 10
132.12179558290731
 20
53.725926653158631
 30
0.0
 11
119.1217955829074
 21
53.725926653158631
 31
0.0
  0
LINE
  5
5A
  8
0
 10
119.1217955829074
 20
53.725926653158631
 30
0.0
 11
119.1217955829074
 21
54.025926653158713
 31
0.0
  0
ARC
  5
5B
  8
0
 62
     7
 10
135.9923593052952
 20
76.547783506629301
 30
0.0
 40
12.788466310512501
 50
276.90138300798088
 51
77.529096958958405
  0
ARC
  5
5C
  8
0
 62
     7
 10
128.25123186051971
 20
76.547783506629301
 30
0.0
 40
12.788466310512501
 50
102.47090304104159
 51
263.09861699201912
  0
ARC
  5
5D
  8
0
 62
     7
 10
132.12179558290731
 20
108.52592665315861
 30
0.0
 40
45.0
 50
263.09861699201912
 51
270.0
  0
ARC
  5
5E
  8
0
 62
     7
 10
132.12179558290731
 20
44.525926653158471
 30
0.0
 40
45.0
 50
89.999999999999986
 51
98.475193054127615
  0
LINE
  5
5F
  8
3
 62
     3
 10
161.00425002448591
 20
92.025926653158606
 30
0.0
 11
103.0044813554895
 21
92.025926653158606
 31
0.0
  0
LINE
  5
60
  8
3
 62
     3
 10
160.87960856423649
 20
61.025926653158592
 30
0.0
 11
103.3784191786041
 21
61.025926653158592
 31
0.0
  0
LINE
  5
6F
  8
3
 62
     3
 10
269.82179558290738
 20
206.66351459496991
 30
-0.0000000000000002
 11
269.82179558290738
 21
149.16232520933741
 31
-0.0000000000000002
  0
LINE
  5
70
  8
3
 62
     3
 10
238.82179558290741
 20
206.7881560552193
 30
-0.0000000000000002
 11
238.82179558290741
 21
148.78838738622289
 31
-0.0000000000000002
  0
ARC
  5
71
  8
0
 62
     7
 10
286.3217955829075
 20
177.9057016136407
 30
-0.0000000000000002
 40
45.0
 50
180.0
 51
188.4751930541276
  0
ARC
  5
72
  8
0
 62
     7
 10
222.32179558290741
 20
177.9057016136407
 30
-0.0000000000000002
 40
45.0
 50
353.09861699201912
 51
0.0
  0
ARC
  5
73
  8
0
 62
     7
 10
254.29993872943669
 20
174.0351378912531
 30
-0.0000000000000002
 40
12.788466310512501
 50
192.47090304104159
 51
353.09861699201912
  0
ARC
  5
74
  8
0
 62
     7
 10
254.29993872943669
 20
181.77626533602859
 30
-0.0000000000000002
 40
12.788466310512501
 50
6.901383007980896
 51
167.52909695895841
  0
LINE
  5
75
  8
0
 10
277.12179558290728
 20
164.9057016136407
 30
-0.0000000000000002
 11
276.82179558290733
 21
164.9057016136407
 31
-0.0000000000000002
  0
LINE
  5
76
  8
0
 10
277.12179558290728
 20
177.9057016136407
 30
-0.0000000000000002
 11
277.12179558290728
 21
164.9057016136407
 31
-0.0000000000000002
  0
LINE
  5
77
  8
0
 62
     2
 10
249.12179558290751
 20
165.90570161364079
 30
-0.0000000000000002
 11
247.12179558290731
 21
165.90570161364079
 31
-0.0000000000000002
  0
LINE
  5
78
  8
2
 62
     2
 10
249.12179558290751
 20
164.9057016136407
 30
-0.0000000000000002
 11
249.12179558290751
 21
165.90570161364079
 31
-0.0000000000000002
  0
LINE
  5
79
  8
2
 62
     2
 10
247.12179558290731
 20
165.90570161364079
 30
-0.0000000000000002
 11
247.12179558290731
 21
177.9057016136407
 31
-0.0000000000000002
  0
LINE
  5
7A
  8
2
 62
     2
 10
247.12179558290731
 20
171.9057016136407
 30
-0.0000000000000002
 11
277.12179558290728
 21
171.9057016136407
 31
-0.0000000000000002
  0
LINE
  5
7B
  8
2
 62
     2
 10
276.82179558290733
 20
164.9057016136407
 30
-0.0000000000000002
 11
249.12179558290751
 21
164.9057016136407
 31
-0.0000000000000002
  0
LINE
  5
7C
  8
2
 62
     2
 10
247.12179558290731
 20
165.90570161364079
 30
-0.0000000000000002
 11
247.12179558290731
 21
156.9057016136407
 31
-0.0000000000000002
  0
LINE
  5
7D
  8
0
 62
     2
 10
234.3217955829073
 20
153.1557016136407
 30
0.0
 11
233.32179558290741
 21
153.1557016136407
 31
-0.0000000000000002
  0
LINE
  5
7E
  8
2
 62
     2
 10
234.4435245740755
 20
153.60514243709599
 30
0.0
 11
244.1217955829074
 21
153.60514243709599
 31
-0.0000000000000002
  0
ARC
  5
7F
  8
0
 62
     2
 10
137.6627782810412
 20
179.30571416137951
 30
-0.0000000000000002
 40
99.168900101824406
 50
344.71077409284339
 51
359.19110250380737
  0
ARC
  5
80
  8
2
 62
     2
 10
138.66277828104111
 20
179.30571416137951
 30
0.0
 40
99.168900101824406
 50
344.71077409284339
 51
359.19110250380737
  0
LINE
  5
81
  8
2
 62
     2
 10
234.4435245740755
 20
202.20626079018561
 30
0.0
 11
244.1217955829074
 21
202.20626079018561
 31
-0.0000000000000002
  0
LINE
  5
82
  8
2
 62
     2
 10
247.12179558290731
 20
189.9057016136407
 30
-0.0000000000000002
 11
247.12179558290731
 21
198.9057016136407
 31
-0.0000000000000002
  0
ARC
  5
83
  8
2
 62
     2
 10
137.6627782810412
 20
176.505689065902
 30
-0.0000000000000002
 40
99.168900101824406
 50
0.8088974961925821
 51
15.289225907156579
  0
LINE
  5
84
  8
0
 62
     2
 10
234.3217955829073
 20
202.65570161364079
 30
0.0
 11
233.32179558290741
 21
202.65570161364079
 31
-0.0000000000000002
  0
ARC
  5
85
  8
2
 62
     2
 10
138.66277828104111
 20
176.505689065902
 30
0.0
 40
99.168900101824406
 50
0.8088974961925821
 51
15.289225907156579
  0
LINE
  5
86
  8
2
 62
     2
 10
247.12179558290731
 20
183.90570161364079
 30
-0.0000000000000002
 11
277.12179558290728
 21
183.90570161364079
 31
-0.0000000000000002
  0
LINE
  5
87
  8
0
 10
277.12179558290728
 20
190.90570161364079
 30
-0.0000000000000002
 11
276.82179558290733
 21
190.90570161364079
 31
-0.0000000000000002
  0
LINE
  5
88
  8
2
 62
     2
 10
247.12179558290731
 20
189.9057016136407
 30
-0.0000000000000002
 11
247.12179558290731
 21
177.9057016136407
 31
-0.0000000000000002
  0
LINE
  5
89
  8
2
 62
     2
 10
249.12179558290751
 20
189.9057016136407
 30
-0.0000000000000002
 11
247.12179558290731
 21
189.9057016136407
 31
-0.0000000000000002
  0
LINE
  5
8A
  8
2
 62
     2
 10
249.12179558290751
 20
190.90570161364079
 30
-0.0000000000000002
 11
249.12179558290751
 21
189.9057016136407
 31
-0.0000000000000002
  0
LINE
  5
8B
  8
2
 62
     2
 10
276.82179558290733
 20
190.90570161364079
 30
-0.0000000000000002
 11
249.12179558290751
 21
190.90570161364079
 31
-0.0000000000000002
  0
LINE
  5
8C
  8
0
 10
277.12179558290728
 20
177.9057016136407
 30
-0.0000000000000002
 11
277.12179558290728
 21
190.90570161364079
 31
-0.0000000000000002
  0
LINE
  5
8D
  8
0
 10
273.32179558290738
 20
205.90570161364079
 30
-0.0000000000000002
 11
273.32179558290738
 21
150.4057016136407
 31
-0.0000000000000002
  0
ARC
  5
8E
  8
0
 62
     7
 10
222.32179558290741
 20
177.9057016136407
 30
-0.0000000000000002
 40
45.0
 50
0.0
 51
6.901383007980896
  0
ARC
  5
8F
  8
0
 62
     7
 10
286.3217955829075
 20
177.9057016136407
 30
-0.0000000000000002
 40
45.0
 50
171.52480694587231
 51
180.0
  0
ARC
  5
90
  8
0
 10
240.90538771790881
 20
147.4057016136407
 30
-0.0000000000000002
 40
1.0
 50
270.0
 51
314.5819407495174
  0
LINE
  5
91
  8
0
 10
240.90538771790881
 20
146.40570161364079
 30
-0.0000000000000002
 11
238.82179558290741
 21
146.40570161364079
 31
-0.0000000000000002
  0
ARC
  5
92
  8
0
 10
238.82179558290741
 20
151.9057016136407
 30
-0.0000000000000002
 40
5.5
 50
180.0
 51
270.0
  0
LINE
  5
93
  8
0
 10
269.82179558290738
 20
146.40570161364079
 30
-0.0000000000000002
 11
267.73820344790607
 21
146.40570161364079
 31
-0.0000000000000002
  0
ARC
  5
94
  8
0
 10
267.73820344790607
 20
147.4057016136407
 30
-0.0000000000000002
 40
1.0
 50
225.41805925048249
 51
270.0
  0
ARC
  5
95
  8
0
 10
254.3217955829073
 20
133.7920652500043
 30
-0.0000000000000002
 40
18.11363636363637
 50
45.418059250482301
 51
134.58194074951771
  0
LINE
  5
96
  8
0
 10
233.32179558290741
 20
151.9057016136407
 30
-0.0000000000000002
 11
233.32179558290741
 21
177.9057016136407
 31
-0.0000000000000002
  0
LINE
  5
97
  8
0
 10
276.82179558290733
 20
150.4057016136407
 30
-0.0000000000000002
 11
273.32179558290738
 21
150.4057016136407
 31
-0.0000000000000002
  0
LINE
  5
98
  8
0
 10
273.32179558290738
 20
150.4057016136407
 30
-0.0000000000000002
 11
273.32179558290738
 21
149.9057016136407
 31
-0.0000000000000002
  0
LINE
  5
99
  8
0
 10
276.82179558290733
 20
177.9057016136407
 30
-0.0000000000000002
 11
276.82179558290733
 21
150.4057016136407
 31
-0.0000000000000002
  0
ARC
  5
9A
  8
0
 10
269.82179558290738
 20
149.9057016136407
 30
-0.0000000000000002
 40
3.5
 50
270.0
 51
0.0
  0
ARC
  5
9B
  8
0
 10
267.73820344790607
 20
208.40570161364079
 30
-0.0000000000000002
 40
1.0
 50
90.0
 51
134.5819407495174
  0
ARC
  5
9C
  8
0
 10
240.90538771790881
 20
208.40570161364079
 30
-0.0000000000000002
 40
1.0
 50
45.418059250482621
 51
90.0
  0
LINE
  5
9D
  8
0
 10
240.90538771790881
 20
209.4057016136409
 30
-0.0000000000000002
 11
238.82179558290741
 21
209.4057016136409
 31
-0.0000000000000002
  0
ARC
  5
9E
  8
0
 10
254.3217955829073
 20
222.0193379772773
 30
-0.0000000000000002
 40
18.11363636363637
 50
225.41805925048229
 51
314.58194074951768
  0
ARC
  5
9F
  8
0
 10
269.82179558290738
 20
205.90570161364079
 30
-0.0000000000000002
 40
3.5
 50
0.0
 51
90.0
  0
ARC
  5
A0
  8
0
 10
238.82179558290741
 20
203.90570161364079
 30
-0.0000000000000002
 40
5.5
 50
90.0
 51
180.0
  0
LINE
  5
A1
  8
0
 10
233.32179558290741
 20
203.90570161364079
 30
-0.0000000000000002
 11
233.32179558290741
 21
177.9057016136407
 31
-0.0000000000000002
  0
LINE
  5
A2
  8
0
 10
269.82179558290738
 20
209.4057016136409
 30
-0.0000000000000002
 11
267.73820344790607
 21
209.4057016136409
 31
-0.0000000000000002
  0
LINE
  5
A3
  8
0
 10
273.32179558290738
 20
205.4057016136409
 30
-0.0000000000000002
 11
273.32179558290738
 21
205.90570161364079
 31
-0.0000000000000002
  0
LINE
  5
A4
  8
0
 10
276.82179558290733
 20
205.4057016136409
 30
-0.0000000000000002
 11
273.32179558290738
 21
205.4057016136409
 31
-0.0000000000000002
  0
LINE
  5
A5
  8
0
 10
276.82179558290733
 20
177.9057016136407
 30
-0.0000000000000002
 11
276.82179558290733
 21
205.4057016136409
 31
-0.0000000000000002
  0
CIRCLE
  5
A6
  8
0
 10
132.12179558290731
 20
167.9057016136407
 30
-0.0000000000000002
 40
1.5
  0
CIRCLE
  5
A7
  8
0
 10
132.12179558290731
 20
172.9057016136407
 30
-0.0000000000000002
 40
1.5
  0
CIRCLE
  5
A8
  8
0
 10
132.12179558290731
 20
187.9057016136407
 30
-0.0000000000000002
 40
1.5
  0
CIRCLE
  5
A9
  8
0
 10
132.12179558290731
 20
182.9057016136407
 30
-0.0000000000000002
 40
1.5
  0
CIRCLE
  5
AA
  8
0
 10
132.12179558290731
 20
177.9057016136407
 30
0.0
 40
1.5
  0
CIRCLE
  5
AB
  8
0
 10
132.12179558290731
 20
177.9057016136407
 30
0.0
 40
24.75
  0
CIRCLE
  5
AC
  8
0
 10
132.12179558290731
 20
177.9057016136407
 30
0.0
 40
31.5
  0
LINE
  5
AD
  8
1
 10
132.12179558290731
 20
177.9057016136407
 30
0.0
 11
132.12179558290731
 21
137.07631276878129
 31
0.0
  0
LINE
  5
AE
  8
1
 10
171.42584782646341
 20
177.9057016136407
 30
-0.0000000000000002
 11
95.044936277653164
 21
177.9057016136407
 31
-0.0000000000000002
  0
LINE
  5
AF
  8
1
 10
132.12179558290731
 20
177.9057016136407
 30
0.0
 11
132.12179558290731
 21
218.73509045850039
 31
0.0
  0
LINE
  5
B0
  8
1
 10
281.84057903766882
 20
177.9057016136407
 30
-0.0000000000000002
 11
229.6610292023808
 21
177.9057016136407
 31
-0.0000000000000002
  0
LINE
  5
B1
  8
2
 62
     2
 10
247.12179558290731
 20
198.9057016136407
 30
-0.0000000000000002
 11
244.1217955829074
 21
198.9057016136407
 31
-0.0000000000000002
  0
LINE
  5
B2
  8
2
 62
     2
 10
247.12179558290731
 20
156.9057016136407
 30
-0.0000000000000002
 11
244.1217955829074
 21
156.9057016136407
 31
-0.0000000000000002
  0
LINE
  5
B3
  8
2
 62
     2
 10
244.1217955829074
 20
198.9057016136407
 30
-0.0000000000000002
 11
244.1217955829074
 21
202.20626079018561
 31
-0.0000000000000002
  0
LINE
  5
B4
  8
2
 62
     2
 10
244.1217955829074
 20
156.9057016136407
 30
-0.0000000000000002
 11
244.1217955829074
 21
153.60514243709599
 31
-0.0000000000000002
  0
POLYLINE
  5
B5
  8
0
 66
     1
 10
0.0
 20
0.0
 30
0.0
 70
     1
  0
VERTEX
  5
B6
  8
0
 10
261.1217955829074
 20
153.8668380062644
 30
0.0
 42
0.0712456433475908
  0
VERTEX
  5
B7
  8
0
 10
262.11229931028339
 20
154.00869622088109
 30
0.0
 42
0.0827479972072291
  0
VERTEX
  5
B8
  8
0
 10
262.88956253587372
 20
154.38379453747021
 30
0.0
 42
0.1067701261159281
 70
     2
 50
35.222091694589821
  0
VERTEX
  5
B9
  8
0
 10
263.44767225122342
 20
154.99096544717699
 30
0.0
 42
0.1334300485838711
 50
35.222091694589821
  0
VERTEX
  5
BA
  8
0
 10
263.62179558290728
 20
155.63183800626439
 30
0.0
 42
0.1334300485837482
  0
VERTEX
  5
BB
  8
0
 10
263.44767225122348
 20
156.27271056535201
 30
0.0
 42
0.1067701261158064
  0
VERTEX
  5
BC
  8
0
 10
262.88956253587372
 20
156.87988147505871
 30
0.0
 42
0.0827479972072425
 70
     2
 50
144.77790830541019
  0
VERTEX
  5
BD
  8
0
 10
262.11229931028328
 20
157.2549797916478
 30
0.0
 42
0.071245643347599
 50
144.77790830541019
  0
VERTEX
  5
BE
  8
0
 10
261.1217955829074
 20
157.39683800626449
 30
0.0
 42
0.071245643347599
  0
VERTEX
  5
BF
  8
0
 10
260.1312918555314
 20
157.2549797916478
 30
0.0
 42
0.0827479972072429
  0
VERTEX
  5
C0
  8
0
 10
259.35402862994101
 20
156.87988147505871
 30
0.0
 42
0.1067701261159123
 70
     2
 50
215.22209169458981
  0
VERTEX
  5
C1
  8
0
 10
258.7959189145912
 20
156.27271056535179
 30
0.0
 42
0.1334300485837995
 50
215.22209169458981
  0
VERTEX
  5
C2
  8
0
 10
258.6217955829074
 20
155.63183800626439
 30
0.0
 42
0.1334300485838654
  0
VERTEX
  5
C3
  8
0
 10
258.79591891459131
 20
154.99096544717699
 30
0.0
 42
0.1067701261159165
  0
VERTEX
  5
C4
  8
0
 10
259.35402862994101
 20
154.38379453747021
 30
0.0
 42
0.0827479972072865
 70
     2
 50
324.77790830541022
  0
VERTEX
  5
C5
  8
0
 10
260.1312918555314
 20
154.00869622088109
 30
0.0
 42
0.071245643347607
 50
324.77790830541022
  0
SEQEND
  5
C6
  8
0
  0
LINE
  5
C7
  8
1
 10
256.6217955829074
 20
155.63183800626439
 30
0.0
 11
265.62179558290728
 21
155.63183800626439
 31
0.0
  0
LINE
  5
C8
  8
1
 10
261.1217955829074
 20
159.39683800626449
 30
0.0
 11
261.1217955829074
 21
151.8668380062644
 31
0.0
  0
LINE
  5
C9
  8
1
 10
146.08715451134159
 20
163.94034268520639
 30
0.0
 11
157.9311930962163
 21
152.09630410033171
 31
0.0
  0
CIRCLE
  5
CA
  8
2
 62
     2
 10
145.55682442545171
 20
191.3407304561851
 30
0.0
 40
3.0
  0
LINE
  5
CB
  8
1
 10
145.55682442545171
 20
196.3407304561851
 30
0.0
 11
145.55682442545171
 21
186.3407304561851
 31
0.0
  0
LINE
  5
CC
  8
1
 10
140.55682442545171
 20
191.3407304561851
 30
0.0
 11
150.55682442545171
 21
191.3407304561851
 31
0.0
  0
LINE
  5
CD
  8
1
 10
145.55682442545171
 20
85.725926653158638
 30
0.0
 11
145.55682442545171
 21
52.02592665315872
 31
0.0
  0
TEXT
  5
274
  8
0
 62
     3
 10
0.0
 20
0.0
 30
0.0
 40
10.0
  1
EGK63-BR
  7
STANDARD1
  0
ENDSEC
  0
EOF
