  0
SECTION
  2
HEADER
  9
$ACADVER
  1
AC1009
  9
$INSBASE
 10
0.0
 20
0.0
 30
0.0
  9
$EXTMIN
 10
0.0
 20
-2.960436562073669
 30
0.0
  9
$EXTMAX
 10
254.6946961024378
 20
285.25176688812257
 30
0.0
  9
$LIMMIN
 10
0.0
 20
0.0
  9
$LIMMAX
 10
375.0
 20
270.0
  9
$ORTHOMODE
 70
     1
  9
$REGENMODE
 70
     1
  9
$FILLMODE
 70
     1
  9
$QTEXTMODE
 70
     0
  9
$MIRRTEXT
 70
     0
  9
$DRAGMODE
 70
     2
  9
$LTSCALE
 40
5.0
  9
$OSMODE
 70
  3071
  9
$ATTMODE
 70
     1
  9
$TEXTSIZE
 40
0.2
  9
$TRACEWID
 40
0.05
  9
$TEXTSTYLE
  7
STANDARD
  9
$CLAYER
  8
0
  9
$CELTYPE
  6
BYLAYER
  9
$CECOLOR
 62
   256
  9
$DIMSCALE
 40
1.0
  9
$DIMASZ
 40
3.0
  9
$DIMEXO
 40
2.0
  9
$DIMDLI
 40
0.38
  9
$DIMRND
 40
0.0
  9
$DIMDLE
 40
0.0
  9
$DIMEXE
 40
2.0
  9
$DIMTP
 40
0.0
  9
$DIMTM
 40
0.0
  9
$DIMTXT
 40
3.2000000000000002
  9
$DIMCEN
 40
0.09
  9
$DIMTSZ
 40
0.0
  9
$DIMTOL
 70
     0
  9
$DIMLIM
 70
     0
  9
$DIMTIH
 70
     0
  9
$DIMTOH
 70
     0
  9
$DIMSE1
 70
     0
  9
$DIMSE2
 70
     0
  9
$DIMTAD
 70
     1
  9
$DIMZIN
 70
     0
  9
$DIMBLK
  1

  9
$DIMASO
 70
     1
  9
$DIMSHO
 70
     0
  9
$DIMPOST
  1

  9
$DIMAPOST
  1

  9
$DIMALT
 70
     0
  9
$DIMALTD
 70
     2
  9
$DIMALTF
 40
25.399999999999999
  9
$DIMLFAC
 40
1.0
  9
$DIMTOFL
 70
     0
  9
$DIMTVP
 40
1.6000000000000001
  9
$DIMTIX
 70
     1
  9
$DIMSOXD
 70
     0
  9
$DIMSAH
 70
     0
  9
$DIMBLK1
  1

  9
$DIMBLK2
  1

  9
$DIMSTYLE
  2
STANDARD
  9
$DIMCLRD
 70
     0
  9
$DIMCLRE
 70
     0
  9
$DIMCLRT
 70
     0
  9
$DIMTFAC
 40
1.0
  9
$DIMGAP
 40
0.09
  9
$LUNITS
 70
     2
  9
$LUPREC
 70
     4
  9
$SKETCHINC
 40
0.1
  9
$FILLETRAD
 40
2.0
  9
$AUNITS
 70
     0
  9
$AUPREC
 70
     0
  9
$MENU
  1
E:\r13\win\SUPPORT\ACAD
  9
$ELEVATION
 40
0.0
  9
$PELEVATION
 40
0.0
  9
$THICKNESS
 40
0.0
  9
$LIMCHECK
 70
     0
  9
$BLIPMODE
 70
     0
  9
$CHAMFERA
 40
0.0
  9
$CHAMFERB
 40
0.0
  9
$SKPOLY
 70
     0
  9
$TDCREATE
 40
2447977.5416277782
  9
$TDUPDATE
 40
2456598.6585748028
  9
$TDINDWG
 40
0.0171733912
  9
$TDUSRTIMER
 40
0.0171733912
  9
$USRTIMER
 70
     1
  9
$ANGBASE
 50
0.0
  9
$ANGDIR
 70
     0
  9
$PDMODE
 70
     0
  9
$PDSIZE
 40
0.0
  9
$PLINEWID
 40
0.0
  9
$COORDS
 70
     1
  9
$SPLFRAME
 70
     0
  9
$SPLINETYPE
 70
     6
  9
$SPLINESEGS
 70
     8
  9
$ATTDIA
 70
     0
  9
$ATTREQ
 70
     1
  9
$HANDLING
 70
     1
  9
$HANDSEED
  5
4F1
  9
$SURFTAB1
 70
     6
  9
$SURFTAB2
 70
     6
  9
$SURFTYPE
 70
     6
  9
$SURFU
 70
     6
  9
$SURFV
 70
     6
  9
$UCSNAME
  2

  9
$UCSORG
 10
0.0
 20
0.0
 30
0.0
  9
$UCSXDIR
 10
1.0
 20
0.0
 30
0.0
  9
$UCSYDIR
 10
0.0
 20
1.0
 30
0.0
  9
$PUCSNAME
  2

  9
$PUCSORG
 10
0.0
 20
0.0
 30
0.0
  9
$PUCSXDIR
 10
1.0
 20
0.0
 30
0.0
  9
$PUCSYDIR
 10
0.0
 20
1.0
 30
0.0
  9
$USERI1
 70
     0
  9
$USERI2
 70
     1
  9
$USERI3
 70
     1
  9
$USERI4
 70
     0
  9
$USERI5
 70
     0
  9
$USERR1
 40
0.0
  9
$USERR2
 40
0.0
  9
$USERR3
 40
0.0
  9
$USERR4
 40
0.0
  9
$USERR5
 40
0.0
  9
$WORLDVIEW
 70
     1
  9
$SHADEDGE
 70
     3
  9
$SHADEDIF
 70
    70
  9
$TILEMODE
 70
     1
  9
$MAXACTVP
 70
    16
  9
$PLIMCHECK
 70
     0
  9
$PEXTMIN
 10
1.0000000000000000E+020
 20
1.0000000000000000E+020
 30
1.0000000000000000E+020
  9
$PEXTMAX
 10
-1.0000000000000000E+020
 20
-1.0000000000000000E+020
 30
-1.0000000000000000E+020
  9
$PLIMMIN
 10
0.0
 20
0.0
  9
$PLIMMAX
 10
12.0
 20
9.0
  9
$UNITMODE
 70
     0
  9
$VISRETAIN
 70
     0
  9
$PLINEGEN
 70
     1
  9
$PSLTSCALE
 70
     0
  0
ENDSEC
  0
SECTION
  2
TABLES
  0
TABLE
  2
VPORT
 70
     1
  0
VPORT
  2
*ACTIVE
 70
     0
 10
0.0
 20
0.0
 11
1.0
 21
1.0
 12
187.49427839065231
 22
179.57334604369871
 13
0.0
 23
0.0
 14
10.0
 24
10.0
 15
10.0
 25
10.0
 16
0.0
 26
0.0
 36
1.0
 17
0.0
 27
0.0
 37
0.0
 40
368.39660880291473
 41
1.831871345029239
 42
50.0
 43
0.0
 44
0.0
 50
0.0
 51
0.0
 71
     0
 72
   500
 73
     1
 74
     0
 75
     0
 76
     0
 77
     0
 78
     2
  0
ENDTAB
  0
TABLE
  2
LTYPE
 70
     3
  0
LTYPE
  2
CONTINUOUS
 70
     0
  3
Solid Line
 72
    65
 73
     0
 40
0.0
  0
LTYPE
  2
CENTER
 70
     0
  3
____ _ ____ _ ____ _ ____ _ ____ _ ____ _ ____
 72
    65
 73
     4
 40
2.0
 49
1.25
 49
-0.25
 49
0.25
 49
-0.25
  0
LTYPE
  2
PHANTOM2
 70
     0
  3
___ _ _ ___ _ _ ___ _ _ ___ _ _
 72
    65
 73
     6
 40
1.25
 49
0.625
 49
-0.125
 49
0.125
 49
-0.125
 49
0.125
 49
-0.125
  0
ENDTAB
  0
TABLE
  2
LAYER
 70
     3
  0
LAYER
  2
0
 70
     0
 62
     7
  6
CONTINUOUS
  0
LAYER
  2
1
 70
     0
 62
     1
  6
CENTER
  0
LAYER
  2
3
 70
     0
 62
     3
  6
CONTINUOUS
  0
ENDTAB
  0
TABLE
  2
STYLE
 70
     2
  0
STYLE
  2
STANDARD
 70
     0
 40
0.0
 41
1.0
 50
0.0
 71
     0
 42
0.2
  3
TXT
  4
BIGFONT
  0
STYLE
  2
STANDARD1
 70
     0
 40
0.0
 41
1.0
 50
0.0
 71
     0
 42
3.0
  3
txt
  4

  0
ENDTAB
  0
TABLE
  2
VIEW
 70
     1
  0
VIEW
  2
ALL
 70
     0
 40
270.0
 10
220.99159663865549
 20
135.0
 41
0.0
 11
0.0
 21
0.0
 31
1.0
 12
0.0
 22
0.0
 32
0.0
 42
0.0
 43
0.0
 44
0.0
 50
0.0
 71
     0
  0
ENDTAB
  0
TABLE
  2
UCS
 70
     0
  0
ENDTAB
  0
TABLE
  2
APPID
 70
     3
  0
APPID
  2
ACAD
 70
     0
  0
APPID
  2
ACAD_MLEADERVER
 70
     0
  0
APPID
  2
ACAD_NAV_VCDISPLAY
 70
     0
  0
ENDTAB
  0
TABLE
  2
DIMSTYLE
 70
     1
  0
DIMSTYLE
  2
STANDARD
 70
     0
  3

  4

  5

  6

  7

 40
1.0
 41
0.18
 42
0.0625
 43
0.38
 44
0.18
 45
0.0
 46
0.0
 47
0.0
 48
0.0
140
0.18
141
0.09
142
0.0
143
25.399999999999999
144
1.0
145
0.0
146
1.0
147
0.09
 71
     0
 72
     0
 73
     1
 74
     1
 75
     0
 76
     0
 77
     0
 78
     0
170
     0
171
     2
172
     0
173
     0
174
     0
175
     0
176
     0
177
     0
178
     0
  0
ENDTAB
  0
ENDSEC
  0
SECTION
  2
BLOCKS
  0
BLOCK
  8
0
  2
$MODEL_SPACE
 70
     0
 10
0.0
 20
0.0
 30
0.0
  3
$MODEL_SPACE
  1

  0
ENDBLK
  5
19F
  8
0
  0
BLOCK
 67
     1
  8
0
  2
$PAPER_SPACE
 70
     0
 10
0.0
 20
0.0
 30
0.0
  3
$PAPER_SPACE
  1

  0
ENDBLK
  5
19D
 67
     1
  8
0
  0
ENDSEC
  0
SECTION
  2
ENTITIES
  0
LINE
  5
267
  8
0
 10
123.12504416849561
 20
248.25176688812249
 30
0.0
 11
123.12504416849561
 21
245.75176688812209
 31
0.0
  0
LINE
  5
268
  8
0
 10
115.12504416849541
 20
248.2517668881226
 30
0.0
 11
115.12504416849561
 21
245.75176688812209
 31
0.0
  0
LINE
  5
269
  8
0
 10
87.125044168495833
 20
248.2517668881226
 30
0.0
 11
87.125044168495606
 21
245.75176688812209
 31
0.0
  0
LINE
  5
26A
  8
0
 10
79.125044168495606
 20
248.25176688812249
 30
0.0
 11
79.125044168495606
 21
245.75176688812209
 31
0.0
  0
ARC
  5
26B
  8
0
 10
83.118565870434168
 20
246.65888268145241
 30
0.0
 40
3.9136086786770372
 50
247.17372595450999
 51
266.69944465616021
  0
ARC
  5
26C
  8
0
 10
83.08208860667628
 20
246.65888268145341
 30
0.0
 40
3.9136086786770372
 50
273.3005553438399
 51
292.82627404548998
  0
ARC
  5
26D
  8
0
 10
81.390664740075195
 20
246.65888268145139
 30
0.0
 40
3.9136086786770372
 50
247.17372595450999
 51
266.69944465616021
  0
LINE
  5
26E
  8
0
 10
81.165343794519913
 20
242.751765667423
 30
0.0
 11
83.307409552196077
 21
242.751765667423
 31
0.0
  0
LINE
  5
26F
  8
0
 10
121.0847445424715
 20
242.751765667423
 30
0.0
 11
118.94267878479531
 21
242.751765667423
 31
0.0
  0
ARC
  5
270
  8
0
 10
120.8594235969162
 20
246.65888268145139
 30
0.0
 40
3.9136086786770372
 50
273.3005553438399
 51
292.82627404548998
  0
ARC
  5
271
  8
0
 10
119.1679997303151
 20
246.65888268145341
 30
0.0
 40
3.9136086786770372
 50
247.17372595450999
 51
266.69944465616021
  0
ARC
  5
272
  8
0
 10
118.8250441684952
 20
274.68606351498801
 30
0.0
 40
3.078125
 50
95.148323503582105
 51
153.6610654311356
  0
LINE
  5
273
  8
0
 10
115.62504416849509
 20
276.05176688812242
 30
0.0
 11
122.62504416849541
 21
276.05176688812242
 31
0.0
  0
LINE
  5
274
  8
0
 10
122.62504416849541
 20
276.05176688812242
 30
0.0
 11
122.62504416849541
 21
275.25176688812269
 31
0.0
  0
LINE
  5
275
  8
0
 10
115.62504416849509
 20
276.05176688812242
 30
0.0
 11
115.62504416849509
 21
275.25176688812269
 31
0.0
  0
ARC
  5
276
  8
0
 10
119.1250441684935
 20
273.82571957873847
 30
0.0
 40
3.7715041028493479
 50
85.634339980064567
 51
94.365660019883165
  0
ARC
  5
277
  8
0
 10
118.5324108101554
 20
277.5023100188032
 30
0.0
 40
0.2500003379007435
 50
31.654881635511082
 51
86.234136662513478
  0
ARC
  5
278
  8
0
 10
118.8303397202457
 20
277.68599072291499
 30
0.0
 40
0.1
 50
211.65488163557811
 51
274.36566001988319
  0
ARC
  5
279
  8
0
 10
119.4250441684955
 20
274.68606351498801
 30
0.0
 40
3.078125
 50
26.338934568864399
 51
84.851676496417909
  0
ARC
  5
27A
  8
0
 10
119.419748616745
 20
277.68599072291499
 30
0.0
 40
0.1
 50
265.63433998011681
 51
328.34511836442192
  0
ARC
  5
27B
  8
0
 10
119.7176775268353
 20
277.5023100188032
 30
0.0
 40
0.2500003379007435
 50
93.765863337486536
 51
148.34511836448891
  0
LINE
  5
27C
  8
1
 10
119.12504416849541
 20
270.25176688812218
 30
0.0
 11
119.12504416849541
 21
282.75177055022289
 31
0.0
  0
LINE
  5
27D
  8
1
 10
83.125044168495151
 20
270.25176688812218
 30
0.0
 11
83.125044168495151
 21
282.75177055022289
 31
0.0
  0
ARC
  5
27E
  8
0
 10
83.717677526835132
 20
277.5023100188032
 30
0.0
 40
0.2500003379007435
 50
93.765863337486536
 51
148.34511836448891
  0
ARC
  5
27F
  8
0
 10
83.419748616744755
 20
277.68599072291499
 30
0.0
 40
0.1
 50
265.63433998011681
 51
328.34511836442192
  0
ARC
  5
280
  8
0
 10
83.425044168495333
 20
274.68606351498801
 30
0.0
 40
3.078125
 50
26.338934568864399
 51
84.851676496417909
  0
ARC
  5
281
  8
0
 10
82.830339720245533
 20
277.68599072291499
 30
0.0
 40
0.1
 50
211.65488163557811
 51
274.36566001988319
  0
ARC
  5
282
  8
0
 10
82.53241081015517
 20
277.5023100188032
 30
0.0
 40
0.2500003379007435
 50
31.654881635511082
 51
86.234136662513478
  0
ARC
  5
283
  8
0
 10
83.125044168493346
 20
273.82571957873847
 30
0.0
 40
3.7715041028493479
 50
85.634339980064567
 51
94.365660019883165
  0
LINE
  5
284
  8
0
 10
79.625044168494924
 20
276.05176688812242
 30
0.0
 11
79.625044168494924
 21
275.25176688812269
 31
0.0
  0
LINE
  5
285
  8
0
 10
86.625044168495151
 20
276.05176688812242
 30
0.0
 11
86.625044168495151
 21
275.25176688812269
 31
0.0
  0
LINE
  5
286
  8
0
 10
79.625044168494924
 20
276.05176688812242
 30
0.0
 11
86.625044168495151
 21
276.05176688812242
 31
0.0
  0
ARC
  5
287
  8
0
 10
82.825044168494955
 20
274.68606351498801
 30
0.0
 40
3.078125
 50
95.148323503582105
 51
153.6610654311356
  0
LINE
  5
288
  8
0
 10
217.69469976453871
 20
37.777971000770492
 30
0.0
 11
215.19469488173829
 21
37.777971000770492
 31
0.0
  0
LINE
  5
289
  8
0
 10
217.69469976453871
 20
44.777971000770492
 30
0.0
 11
215.19469488173829
 21
44.777971000770492
 31
0.0
  0
LINE
  5
28A
  8
0
 10
217.694699764538
 20
93.777971000770464
 30
0.0
 11
215.19469488173829
 21
93.777971000770435
 31
0.0
  0
LINE
  5
28B
  8
0
 10
217.6946997645382
 20
81.777971000770478
 30
0.0
 11
215.19469488173829
 21
81.777971000770435
 31
0.0
  0
LINE
  5
28C
  8
0
 10
217.6946997645382
 20
73.777971000770492
 30
0.0
 11
215.19469488173829
 21
73.777971000770435
 31
0.0
  0
LINE
  5
28D
  8
0
 10
217.6946997645384
 20
61.777971000770492
 30
0.0
 11
215.1946948817386
 21
61.777971000770428
 31
0.0
  0
LINE
  5
28E
  8
0
 10
217.6946997645384
 20
53.777971000770492
 30
0.0
 11
215.1946948817386
 21
53.777971000770428
 31
0.0
  0
LINE
  5
28F
  8
0
 10
217.6946997645384
 20
141.77797100077041
 30
0.0
 11
215.1946948817386
 21
141.77797100077049
 31
0.0
  0
LINE
  5
290
  8
0
 10
217.6946997645384
 20
133.77797100077041
 30
0.0
 11
215.1946948817386
 21
133.77797100077049
 31
0.0
  0
LINE
  5
291
  8
0
 10
217.6946997645382
 20
121.77797100077041
 30
0.0
 11
215.19469488173829
 21
121.77797100077051
 31
0.0
  0
LINE
  5
292
  8
0
 10
217.6946997645382
 20
113.77797100077041
 30
0.0
 11
215.19469488173829
 21
113.77797100077051
 31
0.0
  0
LINE
  5
293
  8
0
 10
217.6946997645382
 20
93.777971000770492
 30
0.0
 11
215.19469488173829
 21
93.777971000770464
 31
0.0
  0
LINE
  5
294
  8
0
 10
217.694699764538
 20
101.77797100077041
 30
0.0
 11
215.19469488173829
 21
101.77797100077041
 31
0.0
  0
LINE
  5
295
  8
0
 10
217.69469976453871
 20
150.77797100077041
 30
0.0
 11
215.19469488173829
 21
150.77797100077041
 31
0.0
  0
LINE
  5
296
  8
0
 10
217.69469976453871
 20
157.77797100077041
 30
0.0
 11
215.19469488173829
 21
157.77797100077041
 31
0.0
  0
LINE
  5
297
  8
1
 10
239.6946961024378
 20
41.677971000770413
 30
0.0
 11
252.1946997645384
 21
41.677971000770349
 31
0.0
  0
ARC
  5
298
  8
0
 10
244.19469610243729
 20
36.777894847835853
 30
0.0
 40
0.5
 50
271.0000033670425
 51
359.99999999999972
  0
ARC
  5
299
  8
0
 10
244.194696102438
 20
158.77804715370499
 30
0.0
 40
0.5
 50
359.9999999999996
 51
88.999996632957533
  0
LINE
  5
29A
  8
0
 10
244.2034223350345
 20
36.277971000770457
 30
0.0
 11
220.18596100103849
 21
35.82145473497053
 31
0.0
  0
LINE
  5
29B
  8
0
 10
219.69469854383831
 20
34.304231022870511
 30
0.0
 11
219.69469854383831
 21
35.321533879270532
 31
0.0
  0
ARC
  5
29C
  8
0
 10
219.19468712103799
 20
34.304229762170337
 30
0.0
 40
0.5000000000000001
 50
271.00000000000182
 51
0.0000000000000509
  0
LINE
  5
29D
  8
0
 10
219.2034082606385
 20
33.804305027970372
 30
0.0
 11
217.6946997645384
 21
33.77797171497042
 31
0.0
  0
ARC
  5
29E
  8
0
 10
220.19468712103799
 20
35.321532499070493
 30
0.0
 40
0.5000000000000001
 50
91.000000000001776
 51
180.0
  0
LINE
  5
29F
  8
0
 10
214.3900245145683
 20
32.820142688070803
 30
0.0
 11
215.1946948817386
 21
32.777972325370513
 31
0.0
  0
ARC
  5
2A0
  8
0
 10
244.12899272930349
 20
41.377971000770231
 30
0.0
 40
3.078125
 50
296.33893456885988
 51
354.8516764964221
  0
LINE
  5
2A1
  8
0
 10
245.49469610243801
 20
38.177971000770128
 30
0.0
 11
245.49469610243801
 21
45.177971000770299
 31
0.0
  0
LINE
  5
2A2
  8
0
 10
245.49469610243801
 20
45.177971000770299
 30
0.0
 11
244.6946961024382
 21
45.177971000770299
 31
0.0
  0
LINE
  5
2A3
  8
0
 10
245.49469610243801
 20
38.177971000770128
 30
0.0
 11
244.6946961024382
 21
38.177971000770128
 31
0.0
  0
ARC
  5
2A4
  8
0
 10
214.4946948817387
 20
34.8174018385659
 30
0.0
 40
2.0
 50
180.0000000000002
 51
267.00004433077902
  0
LINE
  5
2A5
  8
0
 10
212.4946948817387
 20
44.570593106901981
 30
0.0
 11
212.3533469984591
 21
44.702654472761189
 31
0.0
  0
ARC
  5
2A6
  8
0
 10
212.69469488173851
 20
45.068005841419669
 30
0.0
 40
0.5
 50
180.0000000000002
 51
226.9453393935307
  0
ARC
  5
2A7
  8
0
 10
243.2686487930539
 20
41.67797100076853
 30
0.0
 40
3.7715041028493479
 50
355.63433998012317
 51
4.3656600199306901
  0
ARC
  5
2A8
  8
0
 10
246.9452392331186
 20
41.085337642430368
 30
0.0
 40
0.2500003379007435
 50
3.7658633374851109
 51
58.34511836448182
  0
ARC
  5
2A9
  8
0
 10
247.12891993723039
 20
41.383266552520688
 30
0.0
 40
0.1
 50
175.63433998012309
 51
238.34511836441979
  0
ARC
  5
2AA
  8
0
 10
244.12899272930349
 20
41.97797100077053
 30
0.0
 40
3.078125
 50
5.148323503578033
 51
63.661065431140088
  0
ARC
  5
2AB
  8
0
 10
247.12891993723039
 20
41.972675449020009
 30
0.0
 40
0.1
 50
121.6548816355802
 51
184.365660019877
  0
ARC
  5
2AC
  8
0
 10
246.9452392331186
 20
42.270604359110337
 30
0.0
 40
0.2500003379007435
 50
301.65488163551822
 51
356.2341366625148
  0
ARC
  5
2AD
  8
0
 10
246.9452392331186
 20
153.28533764243059
 30
0.0
 40
0.2500003379007435
 50
3.7658633374851109
 51
58.34511836448182
  0
ARC
  5
2AE
  8
0
 10
247.12891993723039
 20
153.58326655252091
 30
0.0
 40
0.1
 50
175.634339980123
 51
238.34511836441979
  0
ARC
  5
2AF
  8
0
 10
244.12899272930349
 20
153.57797100077039
 30
0.0
 40
3.078125
 50
296.33893456885988
 51
354.8516764964221
  0
ARC
  5
2B0
  8
0
 10
247.12891993723039
 20
154.1726754490202
 30
0.0
 40
0.1
 50
121.6548816355802
 51
184.36566001987691
  0
ARC
  5
2B1
  8
0
 10
246.9452392331186
 20
154.4706043591105
 30
0.0
 40
0.2500003379007435
 50
301.65488163551822
 51
356.2341366625148
  0
ARC
  5
2B2
  8
0
 10
243.2686487930539
 20
153.87797100077239
 30
0.0
 40
3.7715041028493479
 50
355.63433998006929
 51
4.365660019876854
  0
ARC
  5
2B3
  8
0
 10
212.69469488173851
 20
150.48793616012119
 30
0.0
 40
0.5
 50
133.0546606064693
 51
179.9999999999998
  0
LINE
  5
2B4
  8
0
 10
212.4946948817387
 20
150.9853488946388
 30
0.0
 11
212.3533469984591
 21
150.85328752877959
 31
0.0
  0
LINE
  5
2B5
  8
0
 10
212.19469488173851
 20
150.48793616012119
 30
0.0
 11
212.19469488173809
 21
45.068005841419669
 31
0.0
  0
ARC
  5
2B6
  8
0
 10
214.4946948817387
 20
160.738540162975
 30
0.0
 40
2.0
 50
92.999955669220967
 51
179.9999999999998
  0
LINE
  5
2B7
  8
0
 10
212.4946948817387
 20
160.738540162975
 30
0.0
 11
212.4946948817381
 21
34.8174018385659
 31
0.0
  0
LINE
  5
2B8
  8
0
 10
215.1946948817386
 20
162.77796967617039
 30
0.0
 11
215.19469488173809
 21
32.777972325370513
 31
0.0
  0
ARC
  5
2B9
  8
0
 10
101.12504416849509
 20
343.77797100077049
 30
0.0
 40
296.50000000000011
 50
267.48086385500011
 51
270.0
  0
ARC
  5
2BA
  8
0
 10
101.12504416849509
 20
344.4393933188706
 30
0.0
 40
300.00000000000011
 50
265.0175912900682
 51
266.16490065793778
  0
ARC
  5
2BB
  8
0
 10
101.12504416849509
 20
344.4393933188706
 30
0.0
 40
299.50261806030011
 50
265.17551438354479
 51
266.06113213110388
  0
ARC
  5
2BC
  8
0
 10
88.137121390095217
 20
48.563533904570299
 30
0.0
 40
0.9999999966000001
 50
183.54836319209991
 51
267.48090368169022
  0
ARC
  5
2BD
  8
0
 10
80.572374931195327
 20
45.946130769770427
 30
0.0
 40
0.3026180603000001
 50
266.06113213110388
 51
357.58228684610327
  0
ARC
  5
2BE
  8
3
 10
871.12504416849515
 20
97.777971000770464
 30
0.0
 40
796.8582432843001
 50
183.76197820383379
 51
184.46407601800101
  0
ARC
  5
2BF
  8
0
 10
871.12504416849515
 20
97.777971000770464
 30
0.0
 40
799.63376762340022
 50
183.7090545142002
 51
183.74186733538471
  0
LINE
  5
2C0
  8
0
 10
73.166183277095115
 20
46.049655268570397
 30
0.0
 11
72.892918145834756
 21
46.049655268570397
 31
0.0
  0
LINE
  5
2C1
  8
3
 10
124.5689169586292
 20
34.833123471970573
 30
0.0
 11
77.681171378361341
 21
34.833123471970602
 31
0.0
  0
LINE
  5
2C2
  8
0
 10
76.540246931598176
 20
32.777971000770641
 30
0.0
 11
125.7098414053919
 21
32.777971000770613
 31
0.0
  0
ARC
  5
2C3
  8
0
 10
101.12504416849509
 20
343.77797100077049
 30
0.0
 40
296.50000000000011
 50
270.0
 51
272.51913614499989
  0
ARC
  5
2C4
  8
0
 10
101.12504416849509
 20
220.160180836227
 30
0.0
 40
176.14571047201491
 50
263.78156417354433
 51
276.21843582645567
  0
ARC
  5
2C5
  8
0
 10
82.099235361517913
 20
45.54794126963975
 30
0.0
 40
0.5
 50
183.7872027764017
 51
263.7815641735445
  0
ARC
  5
2C6
  8
0
 10
81.092944680997107
 20
45.610069138456332
 30
0.0
 40
0.5
 50
266.16490065793778
 51
3.7779067621517912
  0
ARC
  5
2C7
  8
3
 10
77.681171378361341
 20
35.833123471970602
 30
0.0
 40
1.0
 50
184.46407601800789
 51
270.0
  0
ARC
  5
2C8
  8
0
 10
76.540246931598176
 20
35.777971000770577
 30
0.0
 40
3.0
 50
184.46164489546919
 51
270.0
  0
LINE
  5
2C9
  8
0
 10
72.828625722207775
 20
45.597243755641891
 30
0.0
 11
75.070079856603343
 21
45.572970255479021
 31
0.0
  0
LINE
  5
2CA
  8
0
 10
73.166183277060554
 20
46.049655269074201
 30
0.0
 11
75.935768372140956
 21
45.997910595993659
 31
0.0
  0
ARC
  5
2CB
  8
0
 10
871.12504416849515
 20
97.777971000770464
 30
0.0
 40
800.00000000000011
 50
183.73982430409939
 51
184.4616448954645
  0
ARC
  5
2CC
  8
0
 10
72.892918145834756
 20
46.149655268570399
 30
0.0
 40
0.1
 50
183.7006404320361
 51
270.0
  0
ARC
  5
2CD
  8
0
 10
129.3571701911564
 20
46.149655268570399
 30
0.0
 40
0.1
 50
270.0
 51
356.29935956796379
  0
ARC
  5
2CE
  8
0
 10
-668.87495583150394
 20
97.777971000770464
 30
0.0
 40
800.00000000000011
 50
355.53835510453553
 51
356.26017569590061
  0
LINE
  5
2CF
  8
0
 10
129.0839050599306
 20
46.049655269074201
 30
0.0
 11
126.3143199648502
 21
45.997910595993659
 31
0.0
  0
LINE
  5
2D0
  8
0
 10
129.42146261478339
 20
45.597243755641891
 30
0.0
 11
127.1800084803878
 21
45.572970255479021
 31
0.0
  0
ARC
  5
2D1
  8
0
 10
125.70984140539299
 20
35.777971000770577
 30
0.0
 40
3.0
 50
270.0
 51
355.53835510453092
  0
ARC
  5
2D2
  8
3
 10
124.5689169586299
 20
35.833123471970602
 30
0.0
 40
1.0
 50
270.0
 51
355.53592398199203
  0
ARC
  5
2D3
  8
0
 10
121.1571436559941
 20
45.610069138456332
 30
0.0
 40
0.5
 50
176.2220932378481
 51
273.83509934206222
  0
ARC
  5
2D4
  8
0
 10
120.1508529754733
 20
45.54794126963975
 30
0.0
 40
0.5
 50
276.21843582645562
 51
356.21279722359822
  0
LINE
  5
2D5
  8
0
 10
129.0839050598961
 20
46.049655268570397
 30
0.0
 11
129.3571701911564
 21
46.049655268570397
 31
0.0
  0
ARC
  5
2D6
  8
0
 10
-668.87495583150394
 20
97.777971000770464
 30
0.0
 40
799.63376762340022
 50
356.25813266461529
 51
356.29094548579968
  0
ARC
  5
2D7
  8
3
 10
-668.87495583150394
 20
97.777971000770464
 30
0.0
 40
796.8582432843001
 50
355.53592398199891
 51
356.23802179616621
  0
ARC
  5
2D8
  8
0
 10
121.6777134057959
 20
45.946130769770427
 30
0.0
 40
0.3026180603000001
 50
182.4177131538967
 51
273.93886786889601
  0
ARC
  5
2D9
  8
0
 10
114.11296694689599
 20
48.563533904570299
 30
0.0
 40
0.9999999966000001
 50
272.51909631829682
 51
356.45163680790012
  0
ARC
  5
2DA
  8
0
 10
101.125044168496
 20
344.4393933188706
 30
0.0
 40
299.50261806030011
 50
273.93886786889601
 51
274.82448561645532
  0
ARC
  5
2DB
  8
0
 10
101.125044168496
 20
344.4393933188706
 30
0.0
 40
300.00000000000011
 50
273.83509934206222
 51
274.9824087099318
  0
ARC
  5
2DC
  8
0
 10
-668.8749558315053
 20
97.777971000770435
 30
0.0
 40
800.00000000000011
 50
356.29935956796612
 51
3.7006404320340001
  0
ARC
  5
2DD
  8
3
 10
-668.87495583150394
 20
97.777971000770435
 30
0.0
 40
796.8582432843001
 50
356.27425951866542
 51
3.7258126936263571
  0
ARC
  5
2DE
  8
0
 10
-668.87495583150394
 20
97.777971000770435
 30
0.0
 40
791.25261806030039
 50
356.21279722360111
 51
3.7872027763988969
  0
ARC
  5
2DF
  8
0
 10
-668.87495583150394
 20
97.777971000770435
 30
0.0
 40
791.94913492880016
 50
356.24647239987002
 51
3.7511749082997938
  0
ARC
  5
2E0
  8
0
 10
-690.37348125507197
 20
97.7779686232561
 30
0.0
 40
806.99038799406799
 50
356.4992461717988
 51
3.5007789795994779
  0
ARC
  5
2E1
  8
0
 10
101.125044168496
 20
-148.88345131732959
 30
0.0
 40
300.00000000000011
 50
85.017591290068196
 51
86.164900657937778
  0
ARC
  5
2E2
  8
0
 10
101.125044168496
 20
-148.88345131732959
 30
0.0
 40
299.50261806030011
 50
85.175514383544737
 51
86.061132131103946
  0
ARC
  5
2E3
  8
0
 10
114.11296694689599
 20
146.99240809697051
 30
0.0
 40
0.9999999966000001
 50
3.5483631920999641
 51
87.480903681703154
  0
ARC
  5
2E4
  8
0
 10
121.6777134057959
 20
149.60981123177041
 30
0.0
 40
0.3026180603000001
 50
86.061132131103946
 51
183.75117490829979
  0
ARC
  5
2E5
  8
3
 10
-668.87495583150394
 20
97.777971000770435
 30
0.0
 40
796.8582432843001
 50
3.7619782038338831
 51
4.4640760180010544
  0
ARC
  5
2E6
  8
0
 10
-668.87495583150394
 20
97.777971000770435
 30
0.0
 40
799.63376762340022
 50
3.7090545142002398
 51
3.7418673353847778
  0
LINE
  5
2E7
  8
0
 10
129.0839050598961
 20
149.50628673297049
 30
0.0
 11
129.3571701911564
 21
149.50628673297049
 31
0.0
  0
ARC
  5
2E8
  8
0
 10
120.1508529754733
 20
150.00800073190109
 30
0.0
 40
0.5
 50
3.787202776401791
 51
83.781564173544425
  0
ARC
  5
2E9
  8
0
 10
121.1571436559941
 20
149.9458728630845
 30
0.0
 40
0.5
 50
86.164900657937778
 51
183.77790676215179
  0
ARC
  5
2EA
  8
3
 10
124.5689169586299
 20
159.7228185295703
 30
0.0
 40
1.0
 50
4.4640760180079537
 51
90.0
  0
ARC
  5
2EB
  8
0
 10
125.70984140539299
 20
159.77797100077029
 30
0.0
 40
3.0
 50
4.4616448954691794
 51
90.0
  0
LINE
  5
2EC
  8
0
 10
129.42146261478339
 20
149.958698245899
 30
0.0
 11
127.1800084803878
 21
149.98297174606179
 31
0.0
  0
LINE
  5
2ED
  8
0
 10
129.0839050599306
 20
149.50628673246669
 30
0.0
 11
126.3143199648502
 21
149.55803140554721
 31
0.0
  0
ARC
  5
2EE
  8
0
 10
-668.87495583150394
 20
97.777971000770435
 30
0.0
 40
800.00000000000011
 50
3.739824304099447
 51
4.461644895464512
  0
ARC
  5
2EF
  8
0
 10
129.3571701911564
 20
149.4062867329705
 30
0.0
 40
0.1
 50
3.7006404320361841
 51
90.0
  0
ARC
  5
2F0
  8
0
 10
72.892918145834756
 20
149.4062867329705
 30
0.0
 40
0.1
 50
90.0
 51
176.29935956796379
  0
ARC
  5
2F1
  8
0
 10
871.12504416849515
 20
97.777971000770435
 30
0.0
 40
800.00000000000011
 50
176.29935956796601
 51
183.70064043203391
  0
ARC
  5
2F2
  8
0
 10
871.12504416849515
 20
97.777971000770435
 30
0.0
 40
800.00000000000011
 50
175.5383551045355
 51
176.2601756959005
  0
LINE
  5
2F3
  8
0
 10
73.166183277060554
 20
149.50628673246669
 30
0.0
 11
75.935768372140956
 21
149.55803140554721
 31
0.0
  0
LINE
  5
2F4
  8
0
 10
72.828625722207775
 20
149.958698245899
 30
0.0
 11
75.070079856603343
 21
149.98297174606179
 31
0.0
  0
ARC
  5
2F5
  8
0
 10
76.540246931598176
 20
159.77797100077029
 30
0.0
 40
3.0
 50
90.0
 51
175.53835510453081
  0
ARC
  5
2F6
  8
3
 10
77.681171378361341
 20
159.7228185295703
 30
0.0
 40
1.0
 50
90.0
 51
175.535923981992
  0
ARC
  5
2F7
  8
0
 10
81.092944680997107
 20
149.9458728630845
 30
0.0
 40
0.5
 50
356.22209323784818
 51
93.835099342062207
  0
ARC
  5
2F8
  8
0
 10
82.099235361517913
 20
150.00800073190109
 30
0.0
 40
0.5
 50
96.218435826455575
 51
176.21279722359819
  0
ARC
  5
2F9
  8
0
 10
101.12504416849509
 20
-24.6042388346861
 30
0.0
 40
176.14571047201491
 50
83.781564173544353
 51
96.218435826455647
  0
LINE
  5
2FA
  8
0
 10
127.62504416849541
 20
248.2517668881226
 30
0.0
 11
74.625044168495151
 21
248.25176688812249
 31
0.0
  0
LINE
  5
2FB
  8
0
 10
131.12504416849509
 20
245.75176688812249
 30
0.0
 11
71.125044168495833
 21
245.75176688812201
 31
0.0
  0
LINE
  5
2FC
  8
0
 10
245.49469610243801
 20
157.3779710007708
 30
0.0
 11
244.6946961024382
 21
157.3779710007708
 31
0.0
  0
LINE
  5
2FD
  8
0
 10
245.49469610243801
 20
150.3779710007706
 30
0.0
 11
244.6946961024382
 21
150.3779710007706
 31
0.0
  0
LINE
  5
2FE
  8
0
 10
245.49469610243801
 20
157.3779710007708
 30
0.0
 11
245.49469610243801
 21
150.3779710007706
 31
0.0
  0
ARC
  5
2FF
  8
0
 10
244.12899272930349
 20
154.1779710007707
 30
0.0
 40
3.078125
 50
5.1483235035779824
 51
63.661065431140059
  0
LINE
  5
300
  8
1
 10
101.1250441684947
 20
22.777971000770581
 30
0.0
 11
101.12504416849561
 21
172.7517668881224
 31
0.0
  0
LINE
  5
301
  8
0
 10
217.6946997645384
 20
161.77797028657051
 30
0.0
 11
217.69469976453729
 21
33.777971714970391
 31
0.0
  0
ARC
  5
302
  8
0
 10
101.12504416849509
 20
-148.22202899922959
 30
0.0
 40
296.50000000000011
 50
87.480863855000067
 51
90.0
  0
LINE
  5
303
  8
0
 10
76.540246931598176
 20
162.77797100077021
 30
0.0
 11
125.7098414053919
 21
162.77797100077029
 31
0.0
  0
LINE
  5
304
  8
3
 10
124.5689169586292
 20
160.7228185295703
 30
0.0
 11
77.681171378361341
 21
160.7228185295703
 31
0.0
  0
LINE
  5
305
  8
0
 10
219.69469854383831
 20
160.23440812227039
 30
0.0
 11
219.69469854383831
 21
34.304229762170479
 31
0.0
  0
LINE
  5
306
  8
0
 10
244.69469610243729
 20
36.777894847835853
 30
0.0
 11
244.694696102438
 21
158.77804715370499
 31
0.0
  0
LINE
  5
307
  8
1
 10
254.6946961024378
 20
97.777971000770464
 30
0.0
 11
201.12504416849541
 21
97.777971000770435
 31
0.0
  0
LINE
  5
308
  8
1
 10
101.12504416849561
 20
285.25176688812257
 30
0.0
 11
101.12504416849561
 21
232.7517668881224
 31
0.0
  0
ARC
  5
309
  8
0
 10
73.940284529227924
 20
244.7880643014193
 30
0.0
 40
1.7667319087744771
 50
222.05570354557489
 51
280.65027400068539
  0
ARC
  5
30A
  8
0
 10
75.151302929895095
 20
249.7517668881224
 30
0.0
 40
0.5000000000000001
 50
90.0
 51
178.9999999999998
  0
ARC
  5
30B
  8
0
 10
76.168605666795202
 20
250.7517668881224
 30
0.0
 40
0.5000000000000001
 50
270.0
 51
358.99999999999977
  0
LINE
  5
30C
  8
0
 10
74.625044168495151
 20
248.2517668881226
 30
0.0
 11
74.651379082295307
 21
249.7604930913225
 31
0.0
  0
LINE
  5
30D
  8
0
 10
72.628496795695582
 20
243.60461401542241
 30
0.0
 11
71.125044168495378
 21
245.75176688812249
 31
0.0
  0
ARC
  5
30E
  8
0
 10
77.624968016073794
 20
274.7517668881224
 30
0.0
 40
0.5000000000000001
 50
90.0
 51
178.9999999999998
  0
LINE
  5
30F
  8
0
 10
77.12504416857405
 20
274.76049309132247
 30
0.0
 11
76.668529514395004
 21
250.74304068492259
 31
0.0
  0
ARC
  5
310
  8
0
 10
119.1315224665572
 20
246.65888268145241
 30
0.0
 40
3.9136086786770372
 50
273.3005553438399
 51
292.82627404548998
  0
ARC
  5
311
  8
0
 10
128.30980380776259
 20
244.78806430141941
 30
0.0
 40
1.7667319087746101
 50
259.34972599931461
 51
317.94429645442432
  0
LINE
  5
312
  8
0
 10
75.151302929895095
 20
250.25176688812249
 30
0.0
 11
127.09878540709541
 21
250.25176688812249
 31
0.0
  0
ARC
  5
313
  8
0
 10
126.0814826701953
 20
250.75176688812249
 30
0.0
 40
0.5000000000000001
 50
181.0000000000002
 51
270.0
  0
ARC
  5
314
  8
0
 10
127.09878540709489
 20
249.75176688812249
 30
0.0
 40
0.5000000000000001
 50
1.000000000000133
 51
90.0
  0
LINE
  5
315
  8
0
 10
127.62504416849541
 20
248.2517668881226
 30
0.0
 11
127.59870925469519
 21
249.7604930913225
 31
0.0
  0
LINE
  5
316
  8
0
 10
131.12504416849509
 20
245.75176688812249
 30
0.0
 11
129.62159154139519
 21
243.60461401542241
 31
0.0
  0
LINE
  5
317
  8
0
 10
127.9832874527951
 20
243.0517668881225
 30
0.0
 11
74.266800884195391
 21
243.0517668881225
 31
0.0
  0
ARC
  5
318
  8
0
 10
124.6251203208961
 20
274.75176688812252
 30
0.0
 40
0.5000000000000001
 50
1.000000000000133
 51
90.0
  0
LINE
  5
319
  8
0
 10
125.1250441684959
 20
274.76049309132247
 30
0.0
 11
125.581558822595
 21
250.74304068492259
 31
0.0
  0
LINE
  5
31A
  8
0
 10
77.624968016073794
 20
275.25176688812252
 30
0.0
 11
124.6251203208961
 21
275.25176688812252
 31
0.0
  0
LINE
  5
31B
  8
0
 10
73.166183277095115
 20
149.50628673297049
 30
0.0
 11
72.892918145834756
 21
149.50628673297049
 31
0.0
  0
ARC
  5
31C
  8
0
 10
871.12504416849515
 20
97.777971000770435
 30
0.0
 40
799.63376762340022
 50
176.2581326646152
 51
176.29094548579971
  0
ARC
  5
31D
  8
3
 10
871.12504416849515
 20
97.777971000770435
 30
0.0
 40
796.8582432843001
 50
175.53592398199891
 51
176.23802179616609
  0
ARC
  5
31E
  8
0
 10
80.572374931195327
 20
149.60981123177041
 30
0.0
 40
0.3026180603000001
 50
356.2488250917001
 51
93.93886786889604
  0
ARC
  5
31F
  8
0
 10
88.137121390095217
 20
146.99240809697051
 30
0.0
 40
0.9999999966000001
 50
92.519096318296832
 51
176.4516368079
  0
ARC
  5
320
  8
0
 10
101.12504416849509
 20
-148.88345131732959
 30
0.0
 40
299.50261806030011
 50
93.93886786889604
 51
94.824485616455235
  0
ARC
  5
321
  8
0
 10
101.12504416849509
 20
-148.88345131732959
 30
0.0
 40
300.00000000000011
 50
93.835099342062207
 51
94.982408709931804
  0
LINE
  5
322
  8
0
 10
214.3900245145683
 20
162.7357993134701
 30
0.0
 11
215.1946948817386
 21
162.77796967617039
 31
0.0
  0
ARC
  5
323
  8
0
 10
220.19468712103799
 20
160.23440950247041
 30
0.0
 40
0.5000000000000001
 50
180.0
 51
268.99999999999829
  0
LINE
  5
324
  8
0
 10
219.2034082606385
 20
161.7516369735705
 30
0.0
 11
217.6946997645384
 21
161.77797028657051
 31
0.0
  0
ARC
  5
325
  8
0
 10
219.19468712103799
 20
161.25171223937059
 30
0.0
 40
0.5000000000000001
 50
0.0
 51
88.999999999998224
  0
LINE
  5
326
  8
0
 10
219.69469854383831
 20
161.25171097867039
 30
0.0
 11
219.69469854383831
 21
160.23440812227039
 31
0.0
  0
LINE
  5
327
  8
1
 10
239.6946961024378
 20
153.87797100077049
 30
0.0
 11
252.1946997645384
 21
153.8779710007706
 31
0.0
  0
LINE
  5
328
  8
0
 10
244.2034223350351
 20
159.27797100077041
 30
0.0
 11
220.18596100103849
 21
159.7344872665704
 31
0.0
  0
ARC
  5
329
  8
0
 10
892.62356959206352
 20
97.77796862325448
 30
0.0
 40
806.99038799406833
 50
176.49922102040031
 51
183.500753828201
  0
ARC
  5
32A
  8
0
 10
871.12504416849515
 20
97.777971000770435
 30
0.0
 40
791.94913492880016
 50
176.24882509170021
 51
183.75352760013001
  0
ARC
  5
32B
  8
0
 10
871.12504416849515
 20
97.777971000770435
 30
0.0
 40
791.25261806030039
 50
176.21279722360109
 51
183.7872027763988
  0
ARC
  5
32C
  8
3
 10
871.12504416849515
 20
97.777971000770435
 30
0.0
 40
796.8582432843001
 50
176.27418730637359
 51
183.72581269362641
  0
LINE
  5
32D
  8
1
 10
141.12504416849541
 20
97.777971000770435
 30
0.0
 11
61.125044168494931
 21
97.777971000770407
 31
0.0
  0
CIRCLE
  5
32E
  8
0
 10
101.12504416849509
 20
89.777971000770535
 30
0.0
 40
1.25
  0
CIRCLE
  5
32F
  8
0
 10
101.12504416849509
 20
105.77797100077061
 30
0.0
 40
1.25
  0
CIRCLE
  5
330
  8
0
 10
101.12504416849509
 20
101.77797100077041
 30
0.0
 40
1.25
  0
CIRCLE
  5
331
  8
0
 10
101.12504416849509
 20
97.777971000770549
 30
0.0
 40
1.25
  0
CIRCLE
  5
332
  8
0
 10
101.12504416849509
 20
93.777971000770549
 30
0.0
 40
1.2411267978
  0
ARC
  5
333
  8
0
 10
101.12504416849509
 20
-148.22202899922959
 30
0.0
 40
296.50000000000011
 50
90.0
 51
92.519136144999919
  0
TEXT
  5
45C
  8
0
 62
     3
 10
0.0
 20
0.0
 30
0.0
 40
10.0
  1
EFPHW130-CL
  7
STANDARD1
  0
ENDSEC
  0
EOF
