  0
SECTION
  2
HEADER
  9
$ACADVER
  1
AC1009
  9
$INSBASE
 10
0.0
 20
0.0
 30
0.0
  9
$EXTMIN
 10
0.0
 20
-2.960436562073669
 30
0.0
  9
$EXTMAX
 10
178.55049127325819
 20
216.86032684958451
 30
0.0
  9
$LIMMIN
 10
0.0
 20
0.0
  9
$LIMMAX
 10
375.0
 20
270.0
  9
$ORTHOMODE
 70
     1
  9
$REGENMODE
 70
     1
  9
$FILLMODE
 70
     1
  9
$QTEXTMODE
 70
     0
  9
$MIRRTEXT
 70
     0
  9
$DRAGMODE
 70
     2
  9
$LTSCALE
 40
10.0
  9
$OSMODE
 70
  3071
  9
$ATTMODE
 70
     1
  9
$TEXTSIZE
 40
0.2
  9
$TRACEWID
 40
0.05
  9
$TEXTSTYLE
  7
STANDARD
  9
$CLAYER
  8
0
  9
$CELTYPE
  6
BYLAYER
  9
$CECOLOR
 62
   256
  9
$DIMSCALE
 40
1.0
  9
$DIMASZ
 40
3.0
  9
$DIMEXO
 40
2.0
  9
$DIMDLI
 40
0.38
  9
$DIMRND
 40
0.0
  9
$DIMDLE
 40
0.0
  9
$DIMEXE
 40
2.0
  9
$DIMTP
 40
0.0
  9
$DIMTM
 40
0.0
  9
$DIMTXT
 40
3.2000000000000002
  9
$DIMCEN
 40
0.09
  9
$DIMTSZ
 40
0.0
  9
$DIMTOL
 70
     0
  9
$DIMLIM
 70
     0
  9
$DIMTIH
 70
     0
  9
$DIMTOH
 70
     0
  9
$DIMSE1
 70
     0
  9
$DIMSE2
 70
     0
  9
$DIMTAD
 70
     1
  9
$DIMZIN
 70
     0
  9
$DIMBLK
  1

  9
$DIMASO
 70
     1
  9
$DIMSHO
 70
     0
  9
$DIMPOST
  1

  9
$DIMAPOST
  1

  9
$DIMALT
 70
     0
  9
$DIMALTD
 70
     2
  9
$DIMALTF
 40
25.399999999999999
  9
$DIMLFAC
 40
1.0
  9
$DIMTOFL
 70
     0
  9
$DIMTVP
 40
1.6000000000000001
  9
$DIMTIX
 70
     1
  9
$DIMSOXD
 70
     0
  9
$DIMSAH
 70
     0
  9
$DIMBLK1
  1

  9
$DIMBLK2
  1

  9
$DIMSTYLE
  2
STANDARD
  9
$DIMCLRD
 70
     0
  9
$DIMCLRE
 70
     0
  9
$DIMCLRT
 70
     0
  9
$DIMTFAC
 40
1.0
  9
$DIMGAP
 40
0.09
  9
$LUNITS
 70
     2
  9
$LUPREC
 70
     4
  9
$SKETCHINC
 40
0.1
  9
$FILLETRAD
 40
2.0
  9
$AUNITS
 70
     0
  9
$AUPREC
 70
     0
  9
$MENU
  1
E:\r13\win\SUPPORT\ACAD
  9
$ELEVATION
 40
0.0
  9
$PELEVATION
 40
0.0
  9
$THICKNESS
 40
0.0
  9
$LIMCHECK
 70
     0
  9
$BLIPMODE
 70
     0
  9
$CHAMFERA
 40
0.0
  9
$CHAMFERB
 40
0.0
  9
$SKPOLY
 70
     0
  9
$TDCREATE
 40
2447977.5416277782
  9
$TDUPDATE
 40
2456598.6584839011
  9
$TDINDWG
 40
0.1701004398
  9
$TDUSRTIMER
 40
0.1701004398
  9
$USRTIMER
 70
     1
  9
$ANGBASE
 50
0.0
  9
$ANGDIR
 70
     0
  9
$PDMODE
 70
     0
  9
$PDSIZE
 40
0.0
  9
$PLINEWID
 40
0.0
  9
$COORDS
 70
     1
  9
$SPLFRAME
 70
     0
  9
$SPLINETYPE
 70
     6
  9
$SPLINESEGS
 70
     8
  9
$ATTDIA
 70
     0
  9
$ATTREQ
 70
     1
  9
$HANDLING
 70
     1
  9
$HANDSEED
  5
15C2
  9
$SURFTAB1
 70
     6
  9
$SURFTAB2
 70
     6
  9
$SURFTYPE
 70
     6
  9
$SURFU
 70
     6
  9
$SURFV
 70
     6
  9
$UCSNAME
  2

  9
$UCSORG
 10
0.0
 20
0.0
 30
0.0
  9
$UCSXDIR
 10
1.0
 20
0.0
 30
0.0
  9
$UCSYDIR
 10
0.0
 20
1.0
 30
0.0
  9
$PUCSNAME
  2

  9
$PUCSORG
 10
0.0
 20
0.0
 30
0.0
  9
$PUCSXDIR
 10
1.0
 20
0.0
 30
0.0
  9
$PUCSYDIR
 10
0.0
 20
1.0
 30
0.0
  9
$USERI1
 70
     0
  9
$USERI2
 70
     1
  9
$USERI3
 70
     1
  9
$USERI4
 70
     0
  9
$USERI5
 70
     0
  9
$USERR1
 40
0.0
  9
$USERR2
 40
0.0
  9
$USERR3
 40
0.0
  9
$USERR4
 40
0.0
  9
$USERR5
 40
0.0
  9
$WORLDVIEW
 70
     1
  9
$SHADEDGE
 70
     3
  9
$SHADEDIF
 70
    70
  9
$TILEMODE
 70
     1
  9
$MAXACTVP
 70
    16
  9
$PLIMCHECK
 70
     0
  9
$PEXTMIN
 10
1.0000000000000000E+020
 20
1.0000000000000000E+020
 30
1.0000000000000000E+020
  9
$PEXTMAX
 10
-1.0000000000000000E+020
 20
-1.0000000000000000E+020
 30
-1.0000000000000000E+020
  9
$PLIMMIN
 10
0.0
 20
0.0
  9
$PLIMMAX
 10
12.0
 20
9.0
  9
$UNITMODE
 70
     0
  9
$VISRETAIN
 70
     0
  9
$PLINEGEN
 70
     1
  9
$PSLTSCALE
 70
     0
  0
ENDSEC
  0
SECTION
  2
TABLES
  0
TABLE
  2
VPORT
 70
     1
  0
VPORT
  2
*ACTIVE
 70
     0
 10
0.0
 20
0.0
 11
1.0
 21
1.0
 12
187.49427839065231
 22
169.9063198933564
 13
0.0
 23
0.0
 14
10.0
 24
10.0
 15
10.0
 25
10.0
 16
0.0
 26
0.0
 36
1.0
 17
0.0
 27
0.0
 37
0.0
 40
348.89937369551939
 41
1.831871345029239
 42
50.0
 43
0.0
 44
0.0
 50
0.0
 51
0.0
 71
     0
 72
   500
 73
     1
 74
     0
 75
     0
 76
     0
 77
     0
 78
     2
  0
ENDTAB
  0
TABLE
  2
LTYPE
 70
     3
  0
LTYPE
  2
CONTINUOUS
 70
     0
  3
Solid Line
 72
    65
 73
     0
 40
0.0
  0
LTYPE
  2
CENTER
 70
     0
  3
____ _ ____ _ ____ _ ____ _ ____ _ ____ _ ____
 72
    65
 73
     4
 40
2.0
 49
1.25
 49
-0.25
 49
0.25
 49
-0.25
  0
LTYPE
  2
PHANTOM2
 70
     0
  3
___ _ _ ___ _ _ ___ _ _ ___ _ _
 72
    65
 73
     6
 40
1.25
 49
0.625
 49
-0.125
 49
0.125
 49
-0.125
 49
0.125
 49
-0.125
  0
ENDTAB
  0
TABLE
  2
LAYER
 70
     4
  0
LAYER
  2
0
 70
     0
 62
     7
  6
CONTINUOUS
  0
LAYER
  2
1
 70
     0
 62
     1
  6
CENTER
  0
LAYER
  2
3
 70
     0
 62
     3
  6
CONTINUOUS
  0
LAYER
  2
DEFPOINTS
 70
     0
 62
     7
  6
CONTINUOUS
  0
ENDTAB
  0
TABLE
  2
STYLE
 70
     2
  0
STYLE
  2
STANDARD
 70
     0
 40
0.0
 41
1.0
 50
0.0
 71
     0
 42
0.2
  3
TXT
  4
BIGFONT
  0
STYLE
  2
STANDARD1
 70
     0
 40
0.0
 41
1.0
 50
0.0
 71
     0
 42
3.0
  3
txt
  4

  0
ENDTAB
  0
TABLE
  2
VIEW
 70
     1
  0
VIEW
  2
ALL
 70
     0
 40
270.0
 10
220.99159663865549
 20
135.0
 41
0.0
 11
0.0
 21
0.0
 31
1.0
 12
0.0
 22
0.0
 32
0.0
 42
0.0
 43
0.0
 44
0.0
 50
0.0
 71
     0
  0
ENDTAB
  0
TABLE
  2
UCS
 70
     0
  0
ENDTAB
  0
TABLE
  2
APPID
 70
     5
  0
APPID
  2
ACAD
 70
     0
  0
APPID
  2
GENIUS_GENODEF_13
 70
     0
  0
APPID
  2
GENIUS_GENOBJ-N-FIL_13
 70
     0
  0
APPID
  2
ACAD_MLEADERVER
 70
     0
  0
APPID
  2
ACAD_NAV_VCDISPLAY
 70
     0
  0
ENDTAB
  0
TABLE
  2
DIMSTYLE
 70
     1
  0
DIMSTYLE
  2
STANDARD
 70
     0
  3

  4

  5

  6

  7

 40
1.0
 41
0.18
 42
0.0625
 43
0.38
 44
0.18
 45
0.0
 46
0.0
 47
0.0
 48
0.0
140
0.18
141
0.09
142
0.0
143
25.399999999999999
144
1.0
145
0.0
146
1.0
147
0.09
 71
     0
 72
     0
 73
     1
 74
     1
 75
     0
 76
     0
 77
     0
 78
     0
170
     0
171
     2
172
     0
173
     0
174
     0
175
     0
176
     0
177
     0
178
     0
  0
ENDTAB
  0
ENDSEC
  0
SECTION
  2
BLOCKS
  0
BLOCK
  8
0
  2
$MODEL_SPACE
 70
     0
 10
0.0
 20
0.0
 30
0.0
  3
$MODEL_SPACE
  1

  0
ENDBLK
  5
19F
  8
0
  0
BLOCK
 67
     1
  8
0
  2
$PAPER_SPACE
 70
     0
 10
0.0
 20
0.0
 30
0.0
  3
$PAPER_SPACE
  1

  0
ENDBLK
  5
19D
 67
     1
  8
0
  0
ENDSEC
  0
SECTION
  2
ENTITIES
  0
LINE
  5
FCC
  8
0
 10
173.55049127325699
 20
57.512980321504067
 30
0.0
 11
173.55049127325759
 21
59.884892151781052
 31
0.0
  0
ARC
  5
FCD
  8
0
 10
169.966468794138
 20
45.314892151781919
 30
0.0
 40
2.4300000000000002
 50
270.00000000019662
 51
349.73412477315202
  0
ARC
  5
FCE
  8
0
 10
98.840623916780942
 20
58.196892715726563
 30
0.0
 40
74.712997641543154
 50
349.73412477315219
 51
359.47551507439692
  0
LINE
  5
FCF
  8
0
 10
171.55049127325901
 20
46.884892151790041
 30
0.0
 11
95.550491273258217
 21
46.884892151790041
 31
0.0
  0
LINE
  5
FD0
  8
0
 10
95.550491273258189
 20
61.884892151790147
 30
0.0
 11
95.550491273258189
 21
62.884892151790162
 31
0.0
  0
LINE
  5
FD1
  8
0
 10
171.55049127325819
 20
61.884892151790147
 30
0.0
 11
171.55049127325819
 21
62.884892151790162
 31
0.0
  0
LINE
  5
FD2
  8
0
 10
173.55049127325819
 20
59.884892152867231
 30
0.0
 11
93.550491273258174
 21
59.884892152867231
 31
0.0
  0
LINE
  5
FD3
  8
0
 10
169.96646879413791
 20
42.884892151790147
 30
0.0
 11
97.134513752374431
 21
42.884892151790147
 31
0.0
  0
LINE
  5
FD4
  8
0
 10
173.55049127325799
 20
57.512980321618443
 30
0.0
 11
173.55049127325819
 21
59.884892151790147
 31
0.0
  0
LINE
  5
FD5
  8
0
 10
178.55049127325819
 20
61.884892151790147
 30
0.0
 11
178.55049127325819
 21
59.884892151790147
 31
0.0
  0
LINE
  5
FD6
  8
0
 10
178.55049127325819
 20
59.884892151790147
 30
0.0
 11
88.550491273258217
 21
59.884892151790147
 31
0.0
  0
LINE
  5
FD8
  8
0
 10
178.55049127325819
 20
61.884892151790147
 30
0.0
 11
88.550491273258217
 21
61.884892151790147
 31
0.0
  0
LINE
  5
FDA
  8
0
 10
88.550491273258217
 20
61.884892151790147
 30
0.0
 11
88.550491273258217
 21
59.884892151790147
 31
0.0
  0
LINE
  5
FDB
  8
0
 10
95.550491273258189
 20
62.884892151790162
 30
0.0
 11
171.55049127325819
 21
62.884892151790162
 31
0.0
  0
LINE
  5
FDC
  8
1
 10
133.55049127325819
 20
37.25234927440215
 30
0.0
 11
133.55049127325819
 21
68.639420428843096
 31
0.0
  0
ARC
  5
FEC
  8
0
 10
97.134513752374474
 20
45.314892151790211
 30
0.0
 40
2.4300000000000002
 50
190.26587522683491
 51
269.99999999979042
  0
LINE
  5
FED
  8
0
 10
93.550491273258075
 20
57.512980321513169
 30
0.0
 11
93.550491273258075
 21
59.884892151790147
 31
0.0
  0
ARC
  5
FEE
  8
0
 10
168.2603586297345
 20
58.196892715718597
 30
0.0
 40
74.712997641543154
 50
180.52448492559
 51
190.26587522683471
  0
LINE
  5
100D
  8
3
 10
91.320143924071886
 20
149.8819667274042
 30
0.0
 11
91.320143924065505
 21
106.1936127049896
 31
0.0
  0
LINE
  5
100E
  8
0
 10
42.641917662603639
 20
153.0377897161911
 30
0.0
 11
44.641917662603639
 21
153.0377897161911
 31
0.0
  0
LINE
  5
100F
  8
0
 10
44.641917662603639
 20
103.0377897161908
 30
0.0
 11
42.641917662603639
 21
103.0377897161908
 31
0.0
  0
LINE
  5
1013
  8
0
 10
44.641917662603639
 20
153.03778971619101
 30
0.0
 11
44.641917662603639
 21
103.0377897161909
 31
0.0
  0
LINE
  5
1015
  8
0
 10
42.641917662603639
 20
153.03778971619101
 30
0.0
 11
42.641917662603639
 21
103.0377897161909
 31
0.0
  0
ARC
  5
1016
  8
0
 10
31.441917662603661
 20
142.23778971619109
 30
0.0
 40
5.8000000000000016
 50
49.667760180991927
 51
180.0
  0
LINE
  5
1017
  8
0
 10
25.64191766260365
 20
137.53032454959089
 30
0.0
 11
25.64191766260365
 21
142.237789716191
 31
0.0
  0
ARC
  5
1018
  8
0
 10
50.616958911429208
 20
138.64715695396691
 30
0.0
 40
25.000000000000039
 50
182.5604434574407
 51
227.36388228574981
  0
LINE
  5
1019
  8
0
 10
33.683462638444269
 20
120.25540054048631
 30
0.0
 11
42.641917662733192
 21
111.0796830564265
 31
0.0
  0
LINE
  5
101A
  8
0
 10
29.641917662603529
 20
113.66649825836041
 30
0.0
 11
34.575406392806428
 21
119.3418251662159
 31
0.0
  0
LINE
  5
101B
  8
0
 10
29.641917662603529
 20
112.62159503891399
 30
0.0
 11
29.641917662603529
 21
113.66649825836041
 31
0.0
  0
ARC
  5
101C
  8
0
 10
30.641917662603529
 20
112.62159503891399
 30
0.0
 40
1.000000000000002
 50
180.0
 51
233.35311240360701
  0
ARC
  5
101D
  8
0
 10
44.66863656121506
 20
131.47633335423751
 30
0.0
 40
24.499999999999901
 50
233.35311240360701
 51
265.25488616991203
  0
LINE
  5
101E
  8
0
 10
35.195786840023743
 20
146.65915446011519
 30
0.0
 11
42.641917663680708
 21
140.4482564161691
 31
0.0
  0
LINE
  5
101F
  8
0
 10
35.940729542307629
 20
146.0377897161911
 30
0.0
 11
42.641917662603639
 21
146.0377897161911
 31
0.0
  0
ARC
  5
1020
  8
0
 10
44.641917662603639
 20
137.73778971619109
 30
0.0
 40
1.0
 50
275.7884601648434
 51
90.0
  0
LINE
  5
1025
  8
0
 10
44.742773580686439
 20
136.74288867398261
 30
0.0
 11
44.641917662603639
 21
136.82701368322239
 31
0.0
  0
ARC
  5
1027
  8
0
 10
133.5874185386798
 20
-727.66162710495701
 30
0.0
 40
865.35659014742248
 50
87.506500436005354
 51
92.498416533563855
  0
ARC
  5
1028
  8
0
 10
444.65283814750143
 20
100.46553152819421
 30
0.0
 40
350.6827961782667
 50
171.5706673202863
 51
178.77270250319941
  0
ARC
  5
1029
  8
0
 10
133.5504912732529
 20
-730.80011632270521
 30
0.0
 40
865.35659014742248
 50
87.483187871287413
 51
92.516812128712374
  0
CIRCLE
  5
102A
  8
0
 10
138.54932437932229
 20
144.355118919727
 30
0.0
 40
1.5
  0
CIRCLE
  5
102B
  8
0
 10
123.5493243793223
 20
144.355118919727
 30
0.0
 40
1.5
  0
CIRCLE
  5
102C
  8
0
 10
133.54932437932229
 20
144.355118919727
 30
0.0
 40
1.5
  0
CIRCLE
  5
102D
  8
0
 10
128.54932437932229
 20
144.355118919727
 30
0.0
 40
1.5
  0
CIRCLE
  5
102E
  8
0
 10
143.54932437932229
 20
144.355118919727
 30
0.0
 40
1.5
  0
ARC
  5
102F
  8
3
 10
133.5504912732583
 20
654.56994129947907
 30
0.0
 40
550.00000000000955
 50
265.59635545978989
 51
274.4036445402084
  0
LINE
  5
1030
  8
3
 10
175.78083862243571
 20
149.88196672739781
 30
0.0
 11
175.78083862243551
 21
106.1936127049832
 31
0.0
  0
ARC
  5
1031
  8
3
 10
133.55049127325421
 20
-398.49436186708903
 30
0.0
 40
550.00000000000102
 50
85.596355459791084
 51
94.403644540208987
  0
ARC
  5
1032
  8
0
 10
-177.55185560098121
 20
100.4655315281711
 30
0.0
 40
350.6827961782667
 50
1.2272974968047741
 51
8.4293326797179766
  0
ARC
  5
1033
  8
0
 10
133.5504912732541
 20
656.55647382472694
 30
0.0
 40
550.00000000000955
 50
265.88157573193519
 51
274.11842426806481
  0
LINE
  5
1034
  8
1
 10
133.55049127325819
 20
164.7241468193198
 30
0.0
 11
133.55049127325819
 21
91.351432613061675
 31
0.0
  0
ARC
  5
1035
  8
0
 10
175.55049127325381
 20
148.42297470016149
 30
0.0
 40
3.0000000000000209
 50
0.0
 51
85.596355459791155
  0
ARC
  5
1036
  8
0
 10
91.550491273253726
 20
148.42297470016149
 30
0.0
 40
2.9999999999999272
 50
94.403644540205576
 51
180.0
  0
ARC
  5
1037
  8
0
 10
133.55049127325401
 20
-396.96221028381029
 30
0.0
 40
550.00000000000102
 50
85.596355459791155
 51
94.40364454020883
  0
ARC
  5
1038
  8
0
 10
91.550491273253783
 20
107.6526047322201
 30
0.0
 40
3.0000000000000209
 50
180.0
 51
265.5963554597912
  0
LINE
  5
1039
  8
0
 10
88.550491273253769
 20
148.42297470016149
 30
0.0
 11
88.550491273253769
 21
107.6526047322201
 31
0.0
  0
ARC
  5
103A
  8
0
 10
133.5504912732583
 20
653.03778971620045
 30
0.0
 40
550.00000000000955
 50
265.5963554597912
 51
274.4036445402088
  0
LINE
  5
103B
  8
0
 10
178.55049127325381
 20
107.6526047322201
 30
0.0
 11
178.55049127325381
 21
148.42297470016149
 31
0.0
  0
ARC
  5
103C
  8
0
 10
175.55049127325381
 20
107.6526047322201
 30
0.0
 40
2.9999999999999321
 50
274.40364454020562
 51
0.0000008537736463
  0
LINE
  5
1371
  8
0
 10
167.55049127325819
 20
200.92897209141549
 30
0.0
 11
167.5504912732583
 21
194.22778397219631
 31
0.0
  0
LINE
  5
1372
  8
0
 10
168.55049127325819
 20
200.92897209141549
 30
0.0
 11
167.55049127325819
 21
200.92897209141549
 31
0.0
  0
LINE
  5
1375
  8
0
 10
158.55049127325819
 20
200.92897209141549
 30
0.0
 11
158.55049127325819
 21
194.22778397004251
 31
0.0
  0
LINE
  5
1376
  8
0
 10
159.55049127325819
 20
200.92897209141549
 30
0.0
 11
158.55049127325819
 21
200.92897209141549
 31
0.0
  0
LINE
  5
1377
  8
0
 10
159.5504912732583
 20
194.22778397219631
 30
0.0
 11
159.55049127325819
 21
200.92897209141549
 31
0.0
  0
LINE
  5
1378
  8
0
 10
144.55049127325819
 20
194.22778397219631
 30
0.0
 11
144.55049127325819
 21
200.92897209141549
 31
0.0
  0
LINE
  5
1379
  8
0
 10
144.55049127325819
 20
200.92897209141549
 30
0.0
 11
143.55049127325819
 21
200.92897209141549
 31
0.0
  0
LINE
  5
137A
  8
0
 10
143.55049127325819
 20
200.92897209141549
 30
0.0
 11
143.55049127325819
 21
194.2277839700424
 31
0.0
  0
LINE
  5
137D
  8
0
 10
153.55049127325819
 20
200.92897209141549
 30
0.0
 11
152.55049127325819
 21
200.92897209141549
 31
0.0
  0
LINE
  5
137E
  8
0
 10
152.55049127325819
 20
200.92897209141549
 30
0.0
 11
152.55049127325819
 21
194.22778397219639
 31
0.0
  0
LINE
  5
1381
  8
0
 10
137.55049127325819
 20
200.92897209249239
 30
0.0
 11
137.55049127325819
 21
194.22778397219639
 31
0.0
  0
LINE
  5
1382
  8
0
 10
128.55049127325819
 20
200.92897209141529
 30
0.0
 11
128.55049127325819
 21
194.22778397111941
 31
0.0
  0
LINE
  5
1383
  8
0
 10
138.55049127325819
 20
200.92897209249239
 30
0.0
 11
137.55049127325819
 21
200.92897209249239
 31
0.0
  0
LINE
  5
1384
  8
0
 10
129.55049127325819
 20
200.92897209141529
 30
0.0
 11
128.55049127325819
 21
200.92897209141529
 31
0.0
  0
LINE
  5
1385
  8
0
 10
129.55049127325819
 20
194.22778397219639
 30
0.0
 11
129.55049127325819
 21
200.92897209141529
 31
0.0
  0
ARC
  5
138E
  8
0
 10
168.2603586297345
 20
195.915783408268
 30
0.0
 40
74.712997641543154
 50
169.73412477316529
 51
179.47551507440991
  0
LINE
  5
138F
  8
0
 10
93.550491273258075
 20
196.59969580247341
 30
0.0
 11
93.550491273258075
 21
194.22778397219639
 31
0.0
  0
ARC
  5
1390
  8
0
 10
97.134513752374474
 20
208.79778397219641
 30
0.0
 40
2.4300000000000002
 50
90.000000000209681
 51
169.73412477316509
  0
LINE
  5
1391
  8
0
 10
168.55049127325819
 20
194.22778397219639
 30
0.0
 11
168.55049127325819
 21
200.9289720935694
 31
0.0
  0
LINE
  5
1392
  8
0
 10
99.550491273255119
 20
194.22778397219639
 30
0.0
 11
99.550491273258189
 21
200.92897209249239
 31
0.0
  0
LINE
  5
1393
  8
0
 10
99.550491273258189
 20
200.92897209249239
 30
0.0
 11
98.550491273258203
 21
200.92897209249239
 31
0.0
  0
LINE
  5
1394
  8
0
 10
108.5504912732582
 20
194.22778397219639
 30
0.0
 11
108.5504912732582
 21
200.92897209249239
 31
0.0
  0
LINE
  5
1395
  8
0
 10
108.5504912732582
 20
200.92897209249239
 30
0.0
 11
107.5504912732582
 21
200.92897209249239
 31
0.0
  0
LINE
  5
1396
  8
0
 10
114.5504912732582
 20
194.22778397219639
 30
0.0
 11
114.5504912732582
 21
200.92897209249239
 31
0.0
  0
LINE
  5
1397
  8
0
 10
114.5504912732582
 20
200.92897209249239
 30
0.0
 11
113.5504912732582
 21
200.92897209249239
 31
0.0
  0
LINE
  5
1398
  8
0
 10
123.5504912732582
 20
194.22778397219639
 30
0.0
 11
123.5504912732582
 21
200.92897209249239
 31
0.0
  0
LINE
  5
1399
  8
0
 10
123.5504912732582
 20
200.92897209249239
 30
0.0
 11
122.5504912732582
 21
200.92897209249239
 31
0.0
  0
LINE
  5
139A
  8
0
 10
138.55049127325819
 20
194.22778397219639
 30
0.0
 11
138.55049127325819
 21
200.9289720935694
 31
0.0
  0
LINE
  5
139B
  8
0
 10
153.55049127325819
 20
194.22778397219639
 30
0.0
 11
153.55049127325819
 21
200.9289720935694
 31
0.0
  0
LINE
  5
139C
  8
0
 10
98.550491273258203
 20
200.92897209249239
 30
0.0
 11
98.550491273258203
 21
194.22778397219639
 31
0.0
  0
LINE
  5
139D
  8
0
 10
107.5504912732582
 20
200.92897209249239
 30
0.0
 11
107.5504912732551
 21
194.22778397219639
 31
0.0
  0
LINE
  5
139E
  8
0
 10
113.5504912732582
 20
200.92897209249239
 30
0.0
 11
113.5504912732582
 21
194.22778397219639
 31
0.0
  0
LINE
  5
139F
  8
0
 10
122.5504912732582
 20
200.92897209249239
 30
0.0
 11
122.5504912732582
 21
194.22778397219639
 31
0.0
  0
LINE
  5
13A0
  8
1
 10
133.55049127325819
 20
216.86032684958451
 30
0.0
 11
133.55049127325819
 21
185.47325569514351
 31
0.0
  0
LINE
  5
13A1
  8
0
 10
95.550491273258189
 20
191.22778397219639
 30
0.0
 11
171.55049127325819
 21
191.22778397219639
 31
0.0
  0
LINE
  5
13A2
  8
0
 10
88.550491273258217
 20
192.22778397219639
 30
0.0
 11
88.550491273258217
 21
194.22778397219639
 31
0.0
  0
LINE
  5
13A4
  8
0
 10
178.55049127325819
 20
192.22778397219639
 30
0.0
 11
88.550491273258217
 21
192.22778397219639
 31
0.0
  0
LINE
  5
13A6
  8
0
 10
178.55049127325819
 20
194.22778397219639
 30
0.0
 11
88.550491273258217
 21
194.22778397219639
 31
0.0
  0
LINE
  5
13A7
  8
0
 10
178.55049127325819
 20
192.22778397219639
 30
0.0
 11
178.55049127325819
 21
194.22778397219639
 31
0.0
  0
LINE
  5
13A8
  8
0
 10
173.55049127325799
 20
196.5996958023681
 30
0.0
 11
173.55049127325819
 21
194.22778397219639
 31
0.0
  0
LINE
  5
13A9
  8
0
 10
169.96646879413791
 20
211.22778397219651
 30
0.0
 11
97.134513752374431
 21
211.22778397219651
 31
0.0
  0
LINE
  5
13AB
  8
0
 10
171.55049127325819
 20
192.22778397219639
 30
0.0
 11
171.55049127325819
 21
191.22778397219639
 31
0.0
  0
LINE
  5
13AC
  8
0
 10
95.550491273258189
 20
192.22778397219639
 30
0.0
 11
95.550491273258189
 21
191.22778397219639
 31
0.0
  0
LINE
  5
13AD
  8
0
 10
173.3314014635408
 20
201.67391479477519
 30
0.0
 11
93.769581082974014
 21
201.67391479477519
 31
0.0
  0
ARC
  5
13AE
  8
0
 10
98.840623916780942
 20
195.91578340826001
 30
0.0
 40
74.712997641543154
 50
0.5244849256030918
 51
10.265875226847781
  0
ARC
  5
13AF
  8
0
 10
169.966468794138
 20
208.79778397220471
 30
0.0
 40
2.4300000000000002
 50
10.26587522684798
 51
89.999999999803364
  0
LINE
  5
13B0
  8
0
 10
173.55049127325699
 20
196.5996958024825
 30
0.0
 11
173.55049127325759
 21
194.22778397220549
 31
0.0
  0
LINE
  5
13E3
  8
0
 10
95.550491273258189
 20
59.884892151790332
 30
0.0
 11
95.550491273258217
 21
46.884892151790041
 31
0.0
  0
LINE
  5
13E4
  8
0
 10
171.5504912732583
 20
59.884892151792492
 30
0.0
 11
171.55049127325901
 21
46.884892151792187
 31
0.0
  0
TEXT
  5
152D
  8
0
 62
     3
 10
0.0
 20
0.0
 30
0.0
 40
10.0
  1
EFPH90SL
  7
STANDARD1
  0
ENDSEC
  0
EOF
