  0
SECTION
  2
HEADER
  9
$ACADVER
  1
AC1009
  9
$INSBASE
 10
0.0
 20
0.0
 30
0.0
  9
$EXTMIN
 10
0.0
 20
-2.960436562073669
 30
0.0
  9
$EXTMAX
 10
254.3384632301092
 20
334.07948283510473
 30
0.0
  9
$LIMMIN
 10
0.0
 20
0.0
  9
$LIMMAX
 10
375.0
 20
270.0
  9
$ORTHOMODE
 70
     1
  9
$REGENMODE
 70
     1
  9
$FILLMODE
 70
     1
  9
$QTEXTMODE
 70
     0
  9
$MIRRTEXT
 70
     0
  9
$DRAGMODE
 70
     2
  9
$LTSCALE
 40
10.0
  9
$OSMODE
 70
  3071
  9
$ATTMODE
 70
     1
  9
$TEXTSIZE
 40
0.2
  9
$TRACEWID
 40
0.05
  9
$TEXTSTYLE
  7
STANDARD
  9
$CLAYER
  8
0
  9
$CELTYPE
  6
BYLAYER
  9
$CECOLOR
 62
   256
  9
$DIMSCALE
 40
1.0
  9
$DIMASZ
 40
3.0
  9
$DIMEXO
 40
2.0
  9
$DIMDLI
 40
0.38
  9
$DIMRND
 40
0.0
  9
$DIMDLE
 40
0.0
  9
$DIMEXE
 40
2.0
  9
$DIMTP
 40
0.0
  9
$DIMTM
 40
0.0
  9
$DIMTXT
 40
3.2000000000000002
  9
$DIMCEN
 40
0.09
  9
$DIMTSZ
 40
0.0
  9
$DIMTOL
 70
     0
  9
$DIMLIM
 70
     0
  9
$DIMTIH
 70
     0
  9
$DIMTOH
 70
     0
  9
$DIMSE1
 70
     0
  9
$DIMSE2
 70
     0
  9
$DIMTAD
 70
     1
  9
$DIMZIN
 70
     0
  9
$DIMBLK
  1

  9
$DIMASO
 70
     1
  9
$DIMSHO
 70
     0
  9
$DIMPOST
  1

  9
$DIMAPOST
  1

  9
$DIMALT
 70
     0
  9
$DIMALTD
 70
     2
  9
$DIMALTF
 40
25.399999999999999
  9
$DIMLFAC
 40
1.0
  9
$DIMTOFL
 70
     0
  9
$DIMTVP
 40
1.6000000000000001
  9
$DIMTIX
 70
     1
  9
$DIMSOXD
 70
     0
  9
$DIMSAH
 70
     0
  9
$DIMBLK1
  1

  9
$DIMBLK2
  1

  9
$DIMSTYLE
  2
STANDARD
  9
$DIMCLRD
 70
     0
  9
$DIMCLRE
 70
     0
  9
$DIMCLRT
 70
     0
  9
$DIMTFAC
 40
1.0
  9
$DIMGAP
 40
0.09
  9
$LUNITS
 70
     2
  9
$LUPREC
 70
     4
  9
$SKETCHINC
 40
0.1
  9
$FILLETRAD
 40
2.0
  9
$AUNITS
 70
     0
  9
$AUPREC
 70
     0
  9
$MENU
  1
E:\r13\win\SUPPORT\ACAD
  9
$ELEVATION
 40
0.0
  9
$PELEVATION
 40
0.0
  9
$THICKNESS
 40
0.0
  9
$LIMCHECK
 70
     0
  9
$BLIPMODE
 70
     0
  9
$CHAMFERA
 40
0.0
  9
$CHAMFERB
 40
0.0
  9
$SKPOLY
 70
     0
  9
$TDCREATE
 40
2447977.5416277782
  9
$TDUPDATE
 40
2456598.6582909259
  9
$TDINDWG
 40
0.0076634838
  9
$TDUSRTIMER
 40
0.0076634838
  9
$USRTIMER
 70
     1
  9
$ANGBASE
 50
0.0
  9
$ANGDIR
 70
     0
  9
$PDMODE
 70
     0
  9
$PDSIZE
 40
0.0
  9
$PLINEWID
 40
0.0
  9
$COORDS
 70
     1
  9
$SPLFRAME
 70
     0
  9
$SPLINETYPE
 70
     6
  9
$SPLINESEGS
 70
     8
  9
$ATTDIA
 70
     0
  9
$ATTREQ
 70
     1
  9
$HANDLING
 70
     1
  9
$HANDSEED
  5
58F
  9
$SURFTAB1
 70
     6
  9
$SURFTAB2
 70
     6
  9
$SURFTYPE
 70
     6
  9
$SURFU
 70
     6
  9
$SURFV
 70
     6
  9
$UCSNAME
  2

  9
$UCSORG
 10
0.0
 20
0.0
 30
0.0
  9
$UCSXDIR
 10
1.0
 20
0.0
 30
0.0
  9
$UCSYDIR
 10
0.0
 20
1.0
 30
0.0
  9
$PUCSNAME
  2

  9
$PUCSORG
 10
0.0
 20
0.0
 30
0.0
  9
$PUCSXDIR
 10
1.0
 20
0.0
 30
0.0
  9
$PUCSYDIR
 10
0.0
 20
1.0
 30
0.0
  9
$USERI1
 70
     0
  9
$USERI2
 70
     1
  9
$USERI3
 70
     1
  9
$USERI4
 70
     0
  9
$USERI5
 70
     0
  9
$USERR1
 40
0.0
  9
$USERR2
 40
0.0
  9
$USERR3
 40
0.0
  9
$USERR4
 40
0.0
  9
$USERR5
 40
0.0
  9
$WORLDVIEW
 70
     1
  9
$SHADEDGE
 70
     3
  9
$SHADEDIF
 70
    70
  9
$TILEMODE
 70
     1
  9
$MAXACTVP
 70
    16
  9
$PLIMCHECK
 70
     0
  9
$PEXTMIN
 10
1.0000000000000000E+020
 20
1.0000000000000000E+020
 30
1.0000000000000000E+020
  9
$PEXTMAX
 10
-1.0000000000000000E+020
 20
-1.0000000000000000E+020
 30
-1.0000000000000000E+020
  9
$PLIMMIN
 10
0.0
 20
0.0
  9
$PLIMMAX
 10
12.0
 20
9.0
  9
$UNITMODE
 70
     0
  9
$VISRETAIN
 70
     0
  9
$PLINEGEN
 70
     1
  9
$PSLTSCALE
 70
     0
  0
ENDSEC
  0
SECTION
  2
TABLES
  0
TABLE
  2
VPORT
 70
     1
  0
VPORT
  2
*ACTIVE
 70
     0
 10
0.0
 20
0.0
 11
1.0
 21
1.0
 12
187.49427839065231
 22
210.4985722654651
 13
0.0
 23
0.0
 14
10.0
 24
10.0
 15
10.0
 25
10.0
 16
0.0
 26
0.0
 36
1.0
 17
0.0
 27
0.0
 37
0.0
 40
430.80501842431818
 41
1.831871345029239
 42
50.0
 43
0.0
 44
0.0
 50
0.0
 51
0.0
 71
     0
 72
   500
 73
     1
 74
     0
 75
     0
 76
     0
 77
     0
 78
     2
  0
ENDTAB
  0
TABLE
  2
LTYPE
 70
     4
  0
LTYPE
  2
CONTINUOUS
 70
     0
  3
Solid Line
 72
    65
 73
     0
 40
0.0
  0
LTYPE
  2
CENTER
 70
     0
  3
____ _ ____ _ ____ _ ____ _ ____ _ ____ _ ____
 72
    65
 73
     4
 40
2.0
 49
1.25
 49
-0.25
 49
0.25
 49
-0.25
  0
LTYPE
  2
HIDDEN
 70
     0
  3
_ _ _ _ _ _ _ _ _ _ _ _ _ _ _ _ _ _ _ _ _ _ _
 72
    65
 73
     2
 40
0.375
 49
0.25
 49
-0.125
  0
LTYPE
  2
PHANTOM2
 70
     0
  3
___ _ _ ___ _ _ ___ _ _ ___ _ _
 72
    65
 73
     6
 40
1.25
 49
0.625
 49
-0.125
 49
0.125
 49
-0.125
 49
0.125
 49
-0.125
  0
ENDTAB
  0
TABLE
  2
LAYER
 70
     4
  0
LAYER
  2
0
 70
     0
 62
     7
  6
CONTINUOUS
  0
LAYER
  2
1
 70
     0
 62
     1
  6
CENTER
  0
LAYER
  2
3
 70
     0
 62
     3
  6
CONTINUOUS
  0
LAYER
  2
2
 70
     0
 62
     2
  6
HIDDEN
  0
ENDTAB
  0
TABLE
  2
STYLE
 70
     2
  0
STYLE
  2
STANDARD
 70
     0
 40
0.0
 41
1.0
 50
0.0
 71
     0
 42
0.2
  3
TXT
  4
BIGFONT
  0
STYLE
  2
STANDARD1
 70
     0
 40
0.0
 41
1.0
 50
0.0
 71
     0
 42
3.0
  3
txt
  4

  0
ENDTAB
  0
TABLE
  2
VIEW
 70
     1
  0
VIEW
  2
ALL
 70
     0
 40
270.0
 10
220.99159663865549
 20
135.0
 41
0.0
 11
0.0
 21
0.0
 31
1.0
 12
0.0
 22
0.0
 32
0.0
 42
0.0
 43
0.0
 44
0.0
 50
0.0
 71
     0
  0
ENDTAB
  0
TABLE
  2
UCS
 70
     0
  0
ENDTAB
  0
TABLE
  2
APPID
 70
     5
  0
APPID
  2
ACAD
 70
     0
  0
APPID
  2
GENIUS_GENODEF_13
 70
     0
  0
APPID
  2
GENIUS_GENOBJ-N-FIL_13
 70
     0
  0
APPID
  2
ACAD_MLEADERVER
 70
     0
  0
APPID
  2
ACAD_NAV_VCDISPLAY
 70
     0
  0
ENDTAB
  0
TABLE
  2
DIMSTYLE
 70
     1
  0
DIMSTYLE
  2
STANDARD
 70
     0
  3

  4

  5

  6

  7

 40
1.0
 41
0.18
 42
0.0625
 43
0.38
 44
0.18
 45
0.0
 46
0.0
 47
0.0
 48
0.0
140
0.18
141
0.09
142
0.0
143
25.399999999999999
144
1.0
145
0.0
146
1.0
147
0.09
 71
     0
 72
     0
 73
     1
 74
     1
 75
     0
 76
     0
 77
     0
 78
     0
170
     0
171
     2
172
     0
173
     0
174
     0
175
     0
176
     0
177
     0
178
     0
  0
ENDTAB
  0
ENDSEC
  0
SECTION
  2
BLOCKS
  0
BLOCK
  8
0
  2
$MODEL_SPACE
 70
     0
 10
0.0
 20
0.0
 30
0.0
  3
$MODEL_SPACE
  1

  0
ENDBLK
  5
19F
  8
0
  0
BLOCK
 67
     1
  8
0
  2
$PAPER_SPACE
 70
     0
 10
0.0
 20
0.0
 30
0.0
  3
$PAPER_SPACE
  1

  0
ENDBLK
  5
19D
 67
     1
  8
0
  0
ENDSEC
  0
SECTION
  2
ENTITIES
  0
LINE
  5
32D
  8
0
 10
57.838463229114332
 20
209.74144732597239
 30
0.0
 11
55.838463229117899
 21
209.74144732597239
 31
0.0
  0
LINE
  5
32E
  8
0
 10
57.838463229114723
 20
206.24144732597219
 30
0.0
 11
55.838463229118297
 21
206.24144732597219
 31
0.0
  0
LINE
  5
32F
  8
0
 10
55.83846322911824
 20
209.7414473259723
 30
0.0
 11
55.838463229118297
 21
206.24144732597219
 31
0.0
  0
LINE
  5
330
  8
0
 10
57.838463229114659
 20
209.74144732597239
 30
0.0
 11
59.838463229498409
 21
209.20554894100741
 31
0.0
  0
LINE
  5
331
  8
0
 10
57.838463229114723
 20
206.2414473259723
 30
0.0
 11
59.838463229498409
 21
205.70554894100729
 31
0.0
  0
LINE
  5
332
  8
0
 10
57.83846322911478
 20
209.74144732597239
 30
0.0
 11
57.838463229114723
 21
206.24144732597219
 31
0.0
  0
CIRCLE
  5
333
  8
0
 10
57.838463229498359
 20
145.23089752181409
 30
0.0
 40
1.0
  0
ARC
  5
334
  8
0
 10
59.538463229498348
 20
139.81134115372311
 30
0.0
 40
0.3000000001
 50
359.99999769100077
 51
43.052692429200292
  0
ARC
  5
335
  8
0
 10
144.7256212766396
 20
218.13051120956379
 30
0.0
 40
115.41839317029689
 50
204.1481880966835
 51
222.59354779019139
  0
LINE
  5
336
  8
0
 10
53.838463229379038
 20
136.57948283527861
 30
0.0
 11
59.838463229498359
 21
139.37732878426419
 31
0.0
  0
LINE
  5
337
  8
0
 10
50.838463229379052
 20
136.57948283527861
 30
0.0
 11
49.838463229379038
 21
137.57948283527861
 31
0.0
  0
LINE
  5
338
  8
0
 10
53.838463229379038
 20
136.57948283527861
 30
0.0
 11
50.838463229379052
 21
136.57948283527861
 31
0.0
  0
LINE
  5
339
  8
0
 10
49.838463229379038
 20
144.9811124472929
 30
0.0
 11
52.731007472968372
 21
148.42831244132819
 31
0.0
  0
LINE
  5
33A
  8
0
 10
49.838463229379038
 20
137.57948283527861
 30
0.0
 11
49.838463229379038
 21
144.98111244729279
 31
0.0
  0
LINE
  5
33B
  8
0
 10
150.3384632332444
 20
300.07948283543948
 30
0.0
 11
150.33846323317221
 21
302.07948283543948
 31
0.0
  0
LINE
  5
33C
  8
0
 10
149.3384632332444
 20
300.07948283544317
 30
0.0
 11
149.33846323317221
 21
302.07948283544317
 31
0.0
  0
LINE
  5
33D
  8
0
 10
150.33846323317221
 20
302.07948283543948
 30
0.0
 11
149.33846323317221
 21
302.07948283544312
 31
0.0
  0
LINE
  5
33E
  8
0
 10
151.8384632332444
 20
300.07948283548768
 30
0.0
 11
151.83846323305161
 21
304.07948283543402
 31
0.0
  0
LINE
  5
33F
  8
0
 10
151.83846323305161
 20
304.07948283543408
 30
0.0
 11
150.8384632330519
 21
304.07948283543948
 31
0.0
  0
LINE
  5
340
  8
0
 10
150.8384632330519
 20
304.07948283543948
 30
0.0
 11
149.53846323317219
 21
302.07948283544238
 31
0.0
  0
LINE
  5
341
  8
0
 10
237.8384632301686
 20
304.07948283543948
 30
0.0
 11
239.1384632300483
 21
302.07948283544238
 31
0.0
  0
LINE
  5
342
  8
0
 10
236.83846323016891
 20
304.07948283543408
 30
0.0
 11
237.8384632301686
 21
304.07948283543948
 31
0.0
  0
LINE
  5
343
  8
0
 10
236.8384632299761
 20
300.07948283548768
 30
0.0
 11
236.83846323016891
 21
304.07948283543402
 31
0.0
  0
LINE
  5
344
  8
0
 10
238.33846323004829
 20
302.07948283543948
 30
0.0
 11
239.33846323004829
 21
302.07948283544312
 31
0.0
  0
LINE
  5
345
  8
0
 10
239.3384632299761
 20
300.07948283544317
 30
0.0
 11
239.33846323004829
 21
302.07948283544317
 31
0.0
  0
LINE
  5
346
  8
0
 10
238.3384632299761
 20
300.07948283543948
 30
0.0
 11
238.33846323004829
 21
302.07948283543948
 31
0.0
  0
LINE
  5
347
  8
0
 10
221.58846323045699
 20
46.079482835179192
 30
0.0
 11
223.08846323045691
 21
46.079482835173678
 31
0.0
  0
LINE
  5
348
  8
0
 10
193.5884632304568
 20
46.07948283528151
 30
0.0
 11
195.0884632304568
 21
46.079482835276053
 31
0.0
  0
LINE
  5
349
  8
0
 10
165.58846323045671
 20
46.079482835383828
 30
0.0
 11
167.08846323045671
 21
46.079482835378371
 31
0.0
  0
LINE
  5
34A
  8
0
 10
165.5884632299761
 20
56.079482835383828
 30
0.0
 11
165.58846323045671
 21
46.079482835383828
 31
0.0
  0
LINE
  5
34B
  8
0
 10
223.08846322997621
 20
56.079482835173678
 30
0.0
 11
223.08846323045691
 21
46.079482835173678
 31
0.0
  0
LINE
  5
34C
  8
0
 10
167.0884632299761
 20
56.079482835378371
 30
0.0
 11
167.08846323045671
 21
46.079482835378307
 31
0.0
  0
LINE
  5
34D
  8
0
 10
221.5884632299761
 20
56.079482835179192
 30
0.0
 11
221.58846323045691
 21
46.079482835179192
 31
0.0
  0
LINE
  5
34E
  8
0
 10
193.5884632299761
 20
56.07948283528151
 30
0.0
 11
193.5884632304568
 21
46.07948283528151
 31
0.0
  0
LINE
  5
34F
  8
0
 10
195.08846322997621
 20
56.079482835275989
 30
0.0
 11
195.0884632304568
 21
46.079482835275989
 31
0.0
  0
LINE
  5
350
  8
1
 10
226.3384632292794
 20
207.36793383531329
 30
0.0
 11
226.3384632292794
 21
223.36793383531329
 31
0.0
  0
CIRCLE
  5
351
  8
2
 10
226.3384632292794
 20
215.36793383531329
 30
0.0
 40
1.5
  0
CIRCLE
  5
352
  8
2
 10
226.3384632292794
 20
215.36793383531329
 30
0.0
 40
3.0
  0
LINE
  5
353
  8
1
 10
218.33846322927951
 20
215.36793383531329
 30
0.0
 11
234.3384632292794
 21
215.36793383531329
 31
0.0
  0
LINE
  5
354
  8
1
 10
170.33846322927931
 20
215.36793383531329
 30
0.0
 11
154.33846322927931
 21
215.36793383531329
 31
0.0
  0
CIRCLE
  5
355
  8
2
 10
162.33846322927931
 20
215.36793383531329
 30
0.0
 40
3.0
  0
CIRCLE
  5
356
  8
2
 10
162.33846322927931
 20
215.36793383531329
 30
0.0
 40
1.5
  0
LINE
  5
357
  8
1
 10
162.33846322927931
 20
207.36793383531329
 30
0.0
 11
162.33846322927931
 21
223.36793383531329
 31
0.0
  0
LINE
  5
358
  8
0
 10
35.838463229498359
 20
185.9576353790786
 30
0.0
 11
35.838463229498359
 21
206.71122709297879
 31
0.0
  0
LINE
  5
359
  8
0
 10
254.33846322927931
 20
139.10049559949189
 30
0.0
 11
254.33846322927931
 21
217.05847007106561
 31
0.0
  0
LINE
  5
35A
  8
1
 10
194.33846322927931
 20
120.5794828352788
 30
0.0
 11
194.33846322927931
 21
235.5794828352787
 31
0.0
  0
LINE
  5
35B
  8
0
 10
134.33846322927931
 20
217.05847007106561
 30
0.0
 11
134.33846322927931
 21
139.10049559949189
 31
0.0
  0
ARC
  5
35C
  8
0
 10
194.33846322927931
 20
430.57948283527872
 30
0.0
 40
300.0
 50
258.93519272444018
 51
281.06480727555982
  0
LINE
  5
35D
  8
0
 10
63.338463229498359
 20
221.3150147082788
 30
0.0
 11
63.338463229498359
 21
134.6701568151787
 31
0.0
  0
ARC
  5
35E
  8
0
 10
61.03846322949834
 20
134.67015681527869
 30
0.0
 40
2.299999999999998
 50
311.0000000000004
 51
0.0000000000008142
  0
LINE
  5
35F
  8
0
 10
59.838463229498359
 20
130.57948283527861
 30
0.0
 11
62.54739900109837
 21
132.93432477507869
 31
0.0
  0
ARC
  5
360
  8
0
 10
194.33846322927931
 20
-74.420517164721332
 30
0.0
 40
300.0
 50
97.720192341415313
 51
101.0648072755596
  0
CIRCLE
  5
361
  8
0
 10
199.33846322927931
 20
213.30880409777879
 30
0.0
 40
1.5
  0
CIRCLE
  5
362
  8
0
 10
184.33846322927931
 20
213.30880409777879
 30
0.0
 40
1.5
  0
CIRCLE
  5
363
  8
0
 10
194.33846322927931
 20
213.30880409777879
 30
0.0
 40
1.5
  0
CIRCLE
  5
364
  8
0
 10
189.33846322927931
 20
213.30880409777879
 30
0.0
 40
1.5
  0
CIRCLE
  5
365
  8
0
 10
204.33846322927931
 20
213.30880409777879
 30
0.0
 40
1.5
  0
ARC
  5
366
  8
0
 10
39.838463229498359
 20
206.7112270928788
 30
0.0
 40
4.0
 50
89.999999889601256
 51
180.00000010760019
  0
LINE
  5
367
  8
0
 10
45.310522760998367
 20
210.71122709267871
 30
0.0
 11
39.838463229498359
 21
210.71122709267871
 31
0.0
  0
ARC
  5
368
  8
0
 10
45.310522760898372
 20
206.71122707657881
 30
0.0
 40
4.0000000001
 50
54.217509340488867
 51
90.000000003901761
  0
LINE
  5
369
  8
0
 10
55.838463229118297
 20
209.00157704016371
 30
0.0
 11
54.837501029985098
 21
209.57948283527881
 31
0.0
  0
LINE
  5
36A
  8
0
 10
47.649361921392419
 20
209.95619724318109
 30
0.0
 11
54.837501029985049
 21
209.57948283527881
 31
0.0
  0
LINE
  5
36B
  8
0
 10
59.838463229498359
 20
225.57948283527881
 30
0.0
 11
62.511280583498383
 21
223.1728672799787
 31
0.0
  0
ARC
  5
36C
  8
0
 10
60.838463229498359
 20
221.3150147082788
 30
0.0
 40
2.5
 50
0.0
 51
48.000010478700467
  0
ARC
  5
36D
  8
0
 10
194.33846322927931
 20
-74.420517164721332
 30
0.0
 40
300.0
 50
78.935192724440398
 51
82.279807658584488
  0
ARC
  5
36E
  8
0
 10
194.28434017284141
 20
-83.926972339889289
 30
0.0
 40
280.9399458645824
 50
80.358190890357037
 51
99.619417485670169
  0
ARC
  5
36F
  8
0
 10
194.28434017284141
 20
-76.021900095051251
 30
0.0
 40
280.9399458645824
 50
80.673827058959915
 51
99.303620926825033
  0
ARC
  5
370
  8
3
 10
194.28434017284121
 20
-59.4298918632702
 30
0.0
 40
280.9399458645824
 50
77.983954545949373
 51
101.9934758090416
  0
LINE
  5
371
  8
3
 10
135.90493256699841
 20
215.37749149821329
 30
0.0
 11
135.90493256699841
 21
141.28065156275201
 31
0.0
  0
LINE
  5
372
  8
3
 10
252.77199389156019
 20
215.3544736760991
 30
0.0
 11
252.77199389156019
 21
141.21478683155379
 31
0.0
  0
ARC
  5
373
  8
3
 10
194.5052198755136
 20
432.0687027613032
 30
0.0
 40
297.43799320916128
 50
258.79569557462548
 51
281.1385976742958
  0
ARC
  5
374
  8
3
 10
136.90493256699841
 20
141.28065156275201
 30
0.0
 40
1.0
 50
180.0
 51
258.79569557462219
1001
GENIUS_GENODEF_13
1002
{
1000
HIER
1070
     0
1002
}
1002
{
1000
MANEDIT
1070
     0
1002
}
1002
{
1000
NOSEL
1070
     0
1002
}
1002
{
1000
BEHIND
1070
     0
1002
}
1002
{
1000
REACTOR
1002
}
1001
GENIUS_GENOBJ-N-FIL_13
1002
{
1000
OWNER
1000
GEN
1002
}
  0
ARC
  5
375
  8
3
 10
251.77199389156019
 20
141.21478683155379
 30
0.0
 40
1.0
 50
281.13859767428261
 51
0.0000000000032569
1001
GENIUS_GENODEF_13
1002
{
1000
HIER
1070
     0
1002
}
1002
{
1000
MANEDIT
1070
     0
1002
}
1002
{
1000
NOSEL
1070
     0
1002
}
1002
{
1000
BEHIND
1070
     0
1002
}
1002
{
1000
REACTOR
1002
}
1001
GENIUS_GENOBJ-N-FIL_13
1002
{
1000
OWNER
1000
GEN
1002
}
  0
ARC
  5
376
  8
0
 10
194.33846322927931
 20
436.68502058403379
 30
0.0
 40
297.67205227274178
 50
260.1991100966851
 51
279.8008899033149
  0
LINE
  5
377
  8
0
 10
59.838463229498359
 20
225.57948283527881
 30
0.0
 11
59.838463229498359
 21
130.57948283527861
 31
0.0
  0
ARC
  5
378
  8
0
 10
137.33846322927931
 20
139.10049559949189
 30
0.0
 40
3.0
 50
180.00000000000011
 51
258.93519272443632
  0
ARC
  5
379
  8
0
 10
251.33846322927931
 20
139.10049559949189
 30
0.0
 40
3.0
 50
281.06480727556158
 51
0.0
  0
ARC
  5
37A
  8
0
 10
251.33846322927931
 20
217.05847007106561
 30
0.0
 40
3.0
 50
0.0
 51
78.935192724439375
  0
ARC
  5
37B
  8
0
 10
137.33846322927931
 20
217.05847007106561
 30
0.0
 40
3.0
 50
101.0648072755595
 51
180.0
  0
ARC
  5
37C
  8
0
 10
143.83843385881161
 20
144.34266325502139
 30
0.0
 40
1.0
 50
179.5608689714557
 51
260.14604017580109
  0
ARC
  5
37D
  8
0
 10
244.8384925997471
 20
144.34266325502139
 30
0.0
 40
1.0
 50
279.85395982419891
 51
0.4391310285442584
  0
ARC
  5
37E
  8
0
 10
450.96576887410112
 20
140.4499912549652
 30
0.0
 40
308.1519902685485
 50
164.48837830280621
 51
179.27477745484779
  0
ARC
  5
37F
  8
0
 10
-62.68383545878816
 20
140.3936458409863
 30
0.0
 40
308.54766911649398
 50
0.734756390011615
 51
15.50208785233162
  0
ARC
  5
380
  8
0
 10
194.33846322927911
 20
-74.420517164724515
 30
0.0
 40
300.00000000000318
 50
82.279807658584488
 51
97.720192341415313
  0
LINE
  5
381
  8
0
 10
240.33842575329379
 20
60.579482835278782
 30
0.0
 11
148.33842575322589
 21
60.579482835278782
 31
0.0
  0
ARC
  5
382
  8
0
 10
240.3384257532598
 20
59.579482835278782
 30
0.0
 40
1.0
 50
0.0
 51
89.999999998055216
  0
ARC
  5
383
  8
0
 10
148.3384257532598
 20
59.579482835278782
 30
0.0
 40
1.0
 50
90.00000000194477
 51
180.0
  0
ARC
  5
384
  8
0
 10
252.49866395335789
 20
57.779482835059753
 30
0.0
 40
1.8
 50
1.324911347910755
 51
89.999999999784237
  0
ARC
  5
385
  8
0
 10
136.17826250686059
 20
57.779482835497788
 30
0.0
 40
1.8
 50
89.999999999784436
 51
178.67508865209109
  0
LINE
  5
386
  8
1
 10
194.33846322927931
 20
70.579482835278782
 30
0.0
 11
194.33846323161021
 21
22.07948283545284
 31
0.0
  0
LINE
  5
387
  8
0
 10
136.1782625068673
 20
59.579482835497743
 30
0.0
 11
252.4986639533646
 21
59.579482835059757
 31
0.0
  0
LINE
  5
388
  8
0
 10
254.3384632301092
 20
56.079482835059473
 30
0.0
 11
254.2981827246449
 21
57.82110244324474
 31
0.0
  0
LINE
  5
389
  8
0
 10
134.3384632301092
 20
56.07948283549802
 30
0.0
 11
134.37874373557349
 21
57.821102443682769
 31
0.0
  0
LINE
  5
38A
  8
0
 10
134.3384632301092
 20
56.07948283549802
 30
0.0
 11
254.3384632301092
 21
56.079482835059473
 31
0.0
  0
LINE
  5
38B
  8
0
 10
141.0151308701052
 20
54.079482835498027
 30
0.0
 11
141.0151308701052
 21
56.07948283549802
 31
0.0
  0
ARC
  5
38C
  8
0
 10
251.69452343606281
 20
55.092641638669193
 30
0.0
 40
110.6859224319158
 50
180.52448492559
 51
190.26587522683471
  0
ARC
  5
38D
  8
0
 10
146.7164979379977
 20
36.079482835452843
 30
0.0
 40
4.0
 50
190.26587522683491
 51
269.99999999979042
  0
ARC
  5
38E
  8
0
 10
136.9824030231716
 20
55.092641638669193
 30
0.0
 40
110.6859224319158
 50
349.73412477316532
 51
359.47551507441
  0
LINE
  5
38F
  8
0
 10
247.6617955891293
 20
54.079482835498027
 30
0.0
 11
247.6617955891293
 21
56.07948283549802
 31
0.0
  0
ARC
  5
390
  8
0
 10
241.96042852123679
 20
36.079482835452843
 30
0.0
 40
4.0
 50
270.00000000020958
 51
349.73412477316498
  0
LINE
  5
391
  8
0
 10
241.9604285212514
 20
32.079482835452843
 30
0.0
 11
146.71649793798301
 21
32.079482835452843
 31
0.0
  0
LINE
  5
392
  8
0
 10
241.9604285212514
 20
324.07948283510473
 30
0.0
 11
146.71649793798301
 21
324.07948283510473
 31
0.0
  0
ARC
  5
393
  8
0
 10
241.96042852123679
 20
320.07948283510473
 30
0.0
 40
4.0
 50
10.26587522683495
 51
89.999999999790333
  0
LINE
  5
394
  8
0
 10
247.6617955891293
 20
302.07948283505948
 30
0.0
 11
247.6617955891293
 21
300.07948283505948
 31
0.0
  0
ARC
  5
395
  8
0
 10
136.9824030231716
 20
301.06632403188831
 30
0.0
 40
110.6859224319158
 50
0.5244849255900485
 51
10.26587522683475
  0
ARC
  5
396
  8
0
 10
146.7164979379977
 20
320.07948283510473
 30
0.0
 40
4.0
 50
90.000000000209667
 51
169.73412477316501
  0
ARC
  5
397
  8
0
 10
251.69452343606281
 20
301.06632403188831
 30
0.0
 40
110.6859224319158
 50
169.73412477316521
 51
179.47551507440991
  0
LINE
  5
398
  8
0
 10
141.0151308701052
 20
302.07948283505948
 30
0.0
 11
141.0151308701052
 21
300.07948283505948
 31
0.0
  0
LINE
  5
399
  8
0
 10
134.3384632301092
 20
300.07948283505948
 30
0.0
 11
254.3384632301092
 21
300.07948283549803
 31
0.0
  0
LINE
  5
39A
  8
0
 10
134.3384632301092
 20
300.07948283505948
 30
0.0
 11
134.37874373557349
 21
298.33786322687467
 31
0.0
  0
LINE
  5
39B
  8
0
 10
254.3384632301092
 20
300.07948283549803
 30
0.0
 11
254.2981827246449
 21
298.33786322731271
 31
0.0
  0
LINE
  5
39C
  8
0
 10
136.1782625068673
 20
296.57948283505971
 30
0.0
 11
252.4986639533646
 21
296.57948283549769
 31
0.0
  0
LINE
  5
39D
  8
1
 10
194.33846322927931
 20
285.57948283527872
 30
0.0
 11
194.33846323161021
 21
334.07948283510473
 31
0.0
  0
ARC
  5
39E
  8
0
 10
136.17826250686059
 20
298.37948283505972
 30
0.0
 40
1.8
 50
181.32491134790891
 51
270.00000000021549
  0
ARC
  5
39F
  8
0
 10
252.49866395335789
 20
298.3794828354977
 30
0.0
 40
1.8
 50
270.00000000021578
 51
358.6750886520893
  0
ARC
  5
3A0
  8
0
 10
148.3384257532598
 20
296.57948283527872
 30
0.0
 40
1.0
 50
180.0
 51
269.99999999805522
  0
ARC
  5
3A1
  8
0
 10
240.3384257532598
 20
296.57948283527872
 30
0.0
 40
1.0
 50
270.00000000194478
 51
0.0
  0
LINE
  5
3A2
  8
0
 10
240.33842575329379
 20
295.57948283527872
 30
0.0
 11
148.33842575322589
 21
295.57948283527872
 31
0.0
  0
LINE
  5
3A3
  8
3
 10
234.63908989288799
 20
296.57948283543038
 30
0.0
 11
234.63908989288799
 21
300.07948283542601
 31
0.0
  0
LINE
  5
3A4
  8
3
 10
154.0378365696449
 20
296.57948283512701
 30
0.0
 11
154.0378365696449
 21
300.0794828351315
 31
0.0
  0
LINE
  5
3A5
  8
0
 10
195.33846322997621
 20
300.07948283528242
 30
0.0
 11
195.33846323021649
 21
305.07948283528242
 31
0.0
  0
LINE
  5
3A6
  8
0
 10
193.33846322997621
 20
300.07948283527497
 30
0.0
 11
193.3384632302166
 21
305.07948283527497
 31
0.0
  0
LINE
  5
3A7
  8
0
 10
211.33846322997621
 20
300.07948283451339
 30
0.0
 11
211.3384632302166
 21
305.07948283534091
 31
0.0
  0
LINE
  5
3A8
  8
0
 10
213.33846322997621
 20
300.07948283441732
 30
0.0
 11
213.3384632302166
 21
305.07948283534819
 31
0.0
  0
LINE
  5
3A9
  8
0
 10
229.33846322997621
 20
300.07948283364829
 30
0.0
 11
229.33846323021641
 21
305.07948283540668
 31
0.0
  0
LINE
  5
3AA
  8
0
 10
231.33846322997621
 20
300.07948283355222
 30
0.0
 11
231.3384632302166
 21
305.07948283541401
 31
0.0
  0
LINE
  5
3AB
  8
3
 10
193.3384632302166
 20
305.07948283527497
 30
0.0
 11
195.33846323021649
 21
305.07948283528242
 31
0.0
  0
LINE
  5
3AC
  8
0
 10
193.60042888766759
 20
311.07948283527588
 30
0.0
 11
195.07649296087661
 21
311.0794828352814
 31
0.0
  0
LINE
  5
3AD
  8
0
 10
211.64408983057621
 20
312.07948283534188
 30
0.0
 11
213.0328320179683
 21
312.07948283534699
 31
0.0
  0
LINE
  5
3AE
  8
0
 10
229.68775077348459
 20
313.07948283540787
 30
0.0
 11
230.9891710750596
 21
313.07948283541259
 31
0.0
  0
LINE
  5
3AF
  8
3
 10
211.3384632302166
 20
305.07948283534091
 30
0.0
 11
213.3384632302166
 21
305.07948283534819
 31
0.0
  0
LINE
  5
3B0
  8
3
 10
229.3384632302166
 20
305.07948283540668
 30
0.0
 11
231.3384632302166
 21
305.07948283541401
 31
0.0
  0
LINE
  5
3B1
  8
0
 10
231.3384166078051
 20
305.08044503457302
 30
0.0
 11
230.9891710750596
 21
313.07948283541259
 31
0.0
  0
LINE
  5
3B2
  8
0
 10
229.33846323021641
 20
305.07948283540668
 30
0.0
 11
229.68775077348459
 21
313.07948283540787
 31
0.0
  0
LINE
  5
3B3
  8
0
 10
211.3384632302166
 20
305.07948283534091
 30
0.0
 11
211.64408983057621
 21
312.07948283534188
 31
0.0
  0
LINE
  5
3B4
  8
0
 10
213.3384166078053
 20
305.08044503450719
 30
0.0
 11
213.0328320179683
 21
312.07948283534699
 31
0.0
  0
LINE
  5
3B5
  8
0
 10
193.3384632302166
 20
305.07948283527497
 30
0.0
 11
193.60042888766759
 21
311.07948283527588
 31
0.0
  0
LINE
  5
3B6
  8
0
 10
195.33841660780519
 20
305.08044503444142
 30
0.0
 11
195.07649296087669
 21
311.0794828352814
 31
0.0
  0
LINE
  5
3B7
  8
0
 10
175.33850985075341
 20
305.08044503450719
 30
0.0
 11
175.64409444059041
 21
312.07948283534699
 31
0.0
  0
LINE
  5
3B8
  8
0
 10
177.33846322834211
 20
305.07948283534091
 30
0.0
 11
177.0328366279825
 21
312.07948283534188
 31
0.0
  0
LINE
  5
3B9
  8
0
 10
159.33846322834219
 20
305.07948283540668
 30
0.0
 11
158.98917568507409
 21
313.07948283540787
 31
0.0
  0
LINE
  5
3BA
  8
0
 10
157.3385098507535
 20
305.08044503457302
 30
0.0
 11
157.687755383499
 21
313.07948283541259
 31
0.0
  0
LINE
  5
3BB
  8
3
 10
159.33846322834211
 20
305.07948283540668
 30
0.0
 11
157.33846322834211
 21
305.07948283541401
 31
0.0
  0
LINE
  5
3BC
  8
3
 10
177.33846322834211
 20
305.07948283534091
 30
0.0
 11
175.33846322834211
 21
305.07948283534819
 31
0.0
  0
LINE
  5
3BD
  8
0
 10
158.98917568507409
 20
313.07948283540787
 30
0.0
 11
157.687755383499
 21
313.07948283541259
 31
0.0
  0
LINE
  5
3BE
  8
0
 10
177.0328366279825
 20
312.07948283534188
 30
0.0
 11
175.64409444059041
 21
312.07948283534699
 31
0.0
  0
LINE
  5
3BF
  8
0
 10
157.33846322858241
 20
300.07948283355222
 30
0.0
 11
157.33846322834211
 21
305.07948283541401
 31
0.0
  0
LINE
  5
3C0
  8
0
 10
159.33846322858241
 20
300.07948283364829
 30
0.0
 11
159.33846322834219
 21
305.07948283540668
 31
0.0
  0
LINE
  5
3C1
  8
0
 10
175.33846322858241
 20
300.07948283441732
 30
0.0
 11
175.33846322834211
 21
305.07948283534819
 31
0.0
  0
LINE
  5
3C2
  8
0
 10
177.33846322858241
 20
300.07948283451339
 30
0.0
 11
177.33846322834211
 21
305.07948283534091
 31
0.0
  0
LINE
  5
3C3
  8
0
 10
241.33846323060109
 20
313.07948283491532
 30
0.0
 11
241.33846323112971
 21
324.07948283510473
 31
0.0
  0
LINE
  5
3C4
  8
0
 10
147.33846323060101
 20
313.07948283943301
 30
0.0
 11
147.33846323112971
 21
324.07948283510473
 31
0.0
  0
LINE
  5
3C5
  8
3
 10
241.33846323060109
 20
313.07948283491532
 30
0.0
 11
147.33846323060101
 21
313.0794828394329
 31
0.0
  0
LINE
  5
3C6
  8
0
 10
241.33846323060109
 20
313.07948283491532
 30
0.0
 11
243.33846322997621
 21
300.07948283545778
 31
0.0
  0
LINE
  5
3C7
  8
0
 10
147.33846323060101
 20
313.0794828394329
 30
0.0
 11
145.33846322997621
 21
300.07948283509961
 31
0.0
  0
LINE
  5
3C8
  8
0
 10
242.1076939995408
 20
308.07948283545329
 30
0.0
 11
245.922548148826
 21
306.30058713091421
 31
0.0
  0
LINE
  5
3C9
  8
0
 10
245.922548148826
 20
306.30058713091421
 30
0.0
 11
246.87964111709681
 21
300.07948283547069
 31
0.0
  0
LINE
  5
3CA
  8
0
 10
142.75437830973269
 20
306.30058713091421
 30
0.0
 11
141.7972853414619
 21
300.07948283547069
 31
0.0
  0
LINE
  5
3CB
  8
0
 10
146.5692324590178
 20
308.07948283545329
 30
0.0
 11
142.75437830973269
 21
306.30058713091421
 31
0.0
  0
LINE
  5
3CC
  8
0
 10
63.338463229279341
 20
204.91804032890451
 30
0.0
 11
63.338463229498359
 21
204.91804032890451
 31
0.0
  0
ARC
  5
3CD
  8
0
 10
55.516049109416599
 20
197.1426143080968
 30
0.0
 40
8.8224141198627315
 50
332.45554966989198
 51
27.544450330107988
  0
ARC
  5
3CE
  8
0
 10
55.516288897804088
 20
200.83823293599369
 30
0.0
 40
8.8224141198627315
 50
347.90646059267482
 51
27.544450330107988
  0
ARC
  5
3CF
  8
0
 10
71.080099242025426
 20
186.3722953893049
 30
0.0
 40
35.244074873696462
 50
179.32595232252069
 51
206.01671010111761
  0
LINE
  5
3D0
  8
0
 10
51.838463229104832
 20
188.57095978517509
 30
0.0
 11
51.838463229104832
 21
187.26555249584811
 31
0.0
  0
LINE
  5
3D1
  8
0
 10
59.806610767502491
 20
180.57948283527861
 30
0.0
 11
51.838463229104832
 21
187.26555249584811
 31
0.0
  0
LINE
  5
3D2
  8
0
 10
59.838463229498359
 20
181.85816273549301
 30
0.0
 11
51.838463229104832
 21
188.57095978517509
 31
0.0
  0
LINE
  5
3D3
  8
0
 10
59.838463229498359
 20
155.57948283527861
 30
0.0
 11
51.838463229104832
 21
162.29227988496069
 31
0.0
  0
LINE
  5
3D4
  8
0
 10
59.806610767502491
 20
154.3008029350643
 30
0.0
 11
51.838463229104832
 21
160.9868725956338
 31
0.0
  0
LINE
  5
3D5
  8
0
 10
51.838463229104832
 20
162.29227988496069
 30
0.0
 11
51.838463229104832
 21
160.9868725956338
 31
0.0
  0
LINE
  5
3D6
  8
0
 10
46.838463225622483
 20
209.57948283527881
 30
0.0
 11
47.649361921392419
 21
209.95619724318121
 31
0.0
  0
LINE
  5
3D7
  8
0
 10
59.838463229498359
 20
198.67118762682981
 30
0.0
 11
46.838463225622483
 21
209.57948283527881
 31
0.0
  0
LINE
  5
3D8
  8
0
 10
59.838463229498359
 20
192.85816273549301
 30
0.0
 11
47.73510991390998
 21
207.28237753163981
 31
0.0
  0
LINE
  5
3D9
  8
0
 10
44.670932141446599
 20
208.71122709287869
 30
0.0
 11
39.838463237205652
 21
208.71122709287869
 31
0.0
  0
ARC
  5
3DA
  8
0
 10
39.838463229498359
 20
204.7112270928788
 30
0.0
 40
4.0
 50
89.999999889601256
 51
180.00000010760019
  0
ARC
  5
3DB
  8
0
 10
44.670932141446599
 20
204.7112270928788
 30
0.0
 40
4.0
 50
40.000000000279186
 51
90.0
  0
LINE
  5
3DC
  8
3
 10
46.838463225622483
 20
209.57948283527881
 30
0.0
 11
46.361405188400568
 21
208.3364582410295
 31
0.0
  0
TEXT
  5
4F8
  8
0
 62
     3
 10
0.0
 20
0.0
 30
0.0
 40
10.0
  1
EFPH120SC-OG
  7
STANDARD1
  0
ENDSEC
  0
EOF
