  0
SECTION
  2
HEADER
  9
$ACADVER
  1
AC1009
  9
$INSBASE
 10
0.0
 20
0.0
 30
0.0
  9
$EXTMIN
 10
0.0
 20
-2.960436562073669
 30
0.0
  9
$EXTMAX
 10
220.28681167432219
 20
276.0
 30
0.0
  9
$LIMMIN
 10
0.0
 20
0.0
  9
$LIMMAX
 10
375.0
 20
270.0
  9
$ORTHOMODE
 70
     1
  9
$REGENMODE
 70
     1
  9
$FILLMODE
 70
     1
  9
$QTEXTMODE
 70
     0
  9
$MIRRTEXT
 70
     0
  9
$DRAGMODE
 70
     2
  9
$LTSCALE
 40
10.0
  9
$OSMODE
 70
    37
  9
$ATTMODE
 70
     1
  9
$TEXTSIZE
 40
0.2
  9
$TRACEWID
 40
0.05
  9
$TEXTSTYLE
  7
STANDARD
  9
$CLAYER
  8
0
  9
$CELTYPE
  6
BYLAYER
  9
$CECOLOR
 62
   256
  9
$DIMSCALE
 40
1.0
  9
$DIMASZ
 40
3.0
  9
$DIMEXO
 40
2.0
  9
$DIMDLI
 40
0.38
  9
$DIMRND
 40
0.0
  9
$DIMDLE
 40
0.0
  9
$DIMEXE
 40
2.0
  9
$DIMTP
 40
0.0
  9
$DIMTM
 40
0.0
  9
$DIMTXT
 40
3.2000000000000002
  9
$DIMCEN
 40
0.09
  9
$DIMTSZ
 40
0.0
  9
$DIMTOL
 70
     0
  9
$DIMLIM
 70
     0
  9
$DIMTIH
 70
     0
  9
$DIMTOH
 70
     0
  9
$DIMSE1
 70
     0
  9
$DIMSE2
 70
     0
  9
$DIMTAD
 70
     1
  9
$DIMZIN
 70
     0
  9
$DIMBLK
  1

  9
$DIMASO
 70
     1
  9
$DIMSHO
 70
     0
  9
$DIMPOST
  1

  9
$DIMAPOST
  1

  9
$DIMALT
 70
     0
  9
$DIMALTD
 70
     2
  9
$DIMALTF
 40
25.399999999999999
  9
$DIMLFAC
 40
1.0
  9
$DIMTOFL
 70
     0
  9
$DIMTVP
 40
1.6000000000000001
  9
$DIMTIX
 70
     1
  9
$DIMSOXD
 70
     0
  9
$DIMSAH
 70
     0
  9
$DIMBLK1
  1

  9
$DIMBLK2
  1

  9
$DIMSTYLE
  2
STANDARD
  9
$DIMCLRD
 70
     0
  9
$DIMCLRE
 70
     0
  9
$DIMCLRT
 70
     0
  9
$DIMTFAC
 40
1.0
  9
$DIMGAP
 40
0.09
  9
$LUNITS
 70
     2
  9
$LUPREC
 70
     1
  9
$SKETCHINC
 40
0.1
  9
$FILLETRAD
 40
2.0
  9
$AUNITS
 70
     0
  9
$AUPREC
 70
     1
  9
$MENU
  1
E:\r13\win\SUPPORT\ACAD
  9
$ELEVATION
 40
0.0
  9
$PELEVATION
 40
0.0
  9
$THICKNESS
 40
0.0
  9
$LIMCHECK
 70
     0
  9
$BLIPMODE
 70
     0
  9
$CHAMFERA
 40
0.0
  9
$CHAMFERB
 40
0.0
  9
$SKPOLY
 70
     0
  9
$TDCREATE
 40
2447977.5416277782
  9
$TDUPDATE
 40
2457162.6412213189
  9
$TDINDWG
 40
0.1494321644
  9
$TDUSRTIMER
 40
0.1494321644
  9
$USRTIMER
 70
     1
  9
$ANGBASE
 50
0.0
  9
$ANGDIR
 70
     0
  9
$PDMODE
 70
     0
  9
$PDSIZE
 40
0.0
  9
$PLINEWID
 40
0.0
  9
$COORDS
 70
     1
  9
$SPLFRAME
 70
     0
  9
$SPLINETYPE
 70
     6
  9
$SPLINESEGS
 70
     8
  9
$ATTDIA
 70
     0
  9
$ATTREQ
 70
     1
  9
$HANDLING
 70
     1
  9
$HANDSEED
  5
1223
  9
$SURFTAB1
 70
     6
  9
$SURFTAB2
 70
     6
  9
$SURFTYPE
 70
     6
  9
$SURFU
 70
     6
  9
$SURFV
 70
     6
  9
$UCSNAME
  2

  9
$UCSORG
 10
0.0
 20
0.0
 30
0.0
  9
$UCSXDIR
 10
1.0
 20
0.0
 30
0.0
  9
$UCSYDIR
 10
0.0
 20
1.0
 30
0.0
  9
$PUCSNAME
  2

  9
$PUCSORG
 10
0.0
 20
0.0
 30
0.0
  9
$PUCSXDIR
 10
1.0
 20
0.0
 30
0.0
  9
$PUCSYDIR
 10
0.0
 20
1.0
 30
0.0
  9
$USERI1
 70
     0
  9
$USERI2
 70
     1
  9
$USERI3
 70
     1
  9
$USERI4
 70
     0
  9
$USERI5
 70
     0
  9
$USERR1
 40
0.0
  9
$USERR2
 40
0.0
  9
$USERR3
 40
0.0
  9
$USERR4
 40
0.0
  9
$USERR5
 40
0.0
  9
$WORLDVIEW
 70
     1
  9
$SHADEDGE
 70
     3
  9
$SHADEDIF
 70
    70
  9
$TILEMODE
 70
     1
  9
$MAXACTVP
 70
    16
  9
$PLIMCHECK
 70
     0
  9
$PEXTMIN
 10
1.0000000000000000E+020
 20
1.0000000000000000E+020
 30
1.0000000000000000E+020
  9
$PEXTMAX
 10
-1.0000000000000000E+020
 20
-1.0000000000000000E+020
 30
-1.0000000000000000E+020
  9
$PLIMMIN
 10
0.0
 20
0.0
  9
$PLIMMAX
 10
12.0
 20
9.0
  9
$UNITMODE
 70
     0
  9
$VISRETAIN
 70
     0
  9
$PLINEGEN
 70
     1
  9
$PSLTSCALE
 70
     0
  0
ENDSEC
  0
SECTION
  2
TABLES
  0
TABLE
  2
VPORT
 70
     1
  0
VPORT
  2
*ACTIVE
 70
     0
 10
0.0
 20
0.0
 11
1.0
 21
1.0
 12
326.92307692307691
 22
180.0
 13
0.0
 23
0.0
 14
10.0
 24
10.0
 15
10.0
 25
10.0
 16
0.0
 26
0.0
 36
1.0
 17
0.0
 27
0.0
 37
0.0
 40
360.0
 41
1.816239316239316
 42
50.0
 43
0.0
 44
0.0
 50
0.0
 51
0.0
 71
     0
 72
   500
 73
     1
 74
     0
 75
     0
 76
     0
 77
     0
 78
     2
  0
ENDTAB
  0
TABLE
  2
LTYPE
 70
     3
  0
LTYPE
  2
CONTINUOUS
 70
     0
  3
Solid Line
 72
    65
 73
     0
 40
0.0
  0
LTYPE
  2
CENTER
 70
     0
  3
____ _ ____ _ ____ _ ____ _ ____ _ ____ _ ____
 72
    65
 73
     4
 40
2.0
 49
1.25
 49
-0.25
 49
0.25
 49
-0.25
  0
LTYPE
  2
PHANTOM2
 70
     0
  3
___ _ _ ___ _ _ ___ _ _ ___ _ _
 72
    65
 73
     6
 40
1.25
 49
0.625
 49
-0.125
 49
0.125
 49
-0.125
 49
0.125
 49
-0.125
  0
ENDTAB
  0
TABLE
  2
LAYER
 70
     4
  0
LAYER
  2
0
 70
     0
 62
     7
  6
CONTINUOUS
  0
LAYER
  2
1
 70
     0
 62
     1
  6
CENTER
  0
LAYER
  2
3
 70
     0
 62
     3
  6
CONTINUOUS
  0
LAYER
  2
DEFPOINTS
 70
     0
 62
     7
  6
CONTINUOUS
  0
ENDTAB
  0
TABLE
  2
STYLE
 70
     2
  0
STYLE
  2
STANDARD
 70
     0
 40
0.0
 41
1.0
 50
0.0
 71
     0
 42
0.2
  3
TXT
  4
BIGFONT
  0
STYLE
  2
STANDARD1
 70
     0
 40
0.0
 41
1.0
 50
0.0
 71
     0
 42
3.0
  3
txt
  4

  0
ENDTAB
  0
TABLE
  2
VIEW
 70
     2
  0
VIEW
  2
ALL
 70
     0
 40
270.0
 10
220.99159663865549
 20
135.0
 41
0.0
 11
0.0
 21
0.0
 31
1.0
 12
0.0
 22
0.0
 32
0.0
 42
0.0
 43
0.0
 44
0.0
 50
0.0
 71
     0
  0
VIEW
  2
OLE1
 70
     0
 40
229.49669712302509
 10
559.72936766778628
 20
389.5336634281303
 41
291.64611323832878
 11
0.0
 21
0.0
 31
1.0
 12
0.0
 22
0.0
 32
0.0
 42
50.0
 43
0.0
 44
0.0
 50
0.0
 71
     0
  0
ENDTAB
  0
TABLE
  2
UCS
 70
     0
  0
ENDTAB
  0
TABLE
  2
APPID
 70
     8
  0
APPID
  2
ACAD
 70
     0
  0
APPID
  2
GENIUS_GENODEF_13
 70
     0
  0
APPID
  2
GENIUS_GENOBJ-N-FIL_13
 70
     0
  0
APPID
  2
ACAD_MLEADERVER
 70
     0
  0
APPID
  2
ACAD_EXEMPT_FROM_CAD_STANDARDS
 70
     0
  0
APPID
  2
ACAD_NAV_VCDISPLAY
 70
     0
  0
APPID
  2
ACAD_DSTYLE_DIMJAG
 70
     0
  0
APPID
  2
ACAD_DSTYLE_DIMTALN
 70
     0
  0
ENDTAB
  0
TABLE
  2
DIMSTYLE
 70
     1
  0
DIMSTYLE
  2
STANDARD
 70
     0
  3

  4

  5

  6

  7

 40
1.0
 41
0.18
 42
0.0625
 43
0.38
 44
0.18
 45
0.0
 46
0.0
 47
0.0
 48
0.0
140
0.18
141
0.09
142
0.0
143
25.399999999999999
144
1.0
145
0.0
146
1.0
147
0.09
 71
     0
 72
     0
 73
     1
 74
     1
 75
     0
 76
     0
 77
     0
 78
     0
170
     0
171
     2
172
     0
173
     0
174
     0
175
     0
176
     0
177
     0
178
     0
  0
ENDTAB
  0
ENDSEC
  0
SECTION
  2
BLOCKS
  0
BLOCK
  8
0
  2
$MODEL_SPACE
 70
     0
 10
0.0
 20
0.0
 30
0.0
  3
$MODEL_SPACE
  1

  0
ENDBLK
  5
19F
  8
0
  0
BLOCK
 67
     1
  8
0
  2
$PAPER_SPACE
 70
     0
 10
0.0
 20
0.0
 30
0.0
  3
$PAPER_SPACE
  1

  0
ENDBLK
  5
19D
 67
     1
  8
0
  0
ENDSEC
  0
SECTION
  2
ENTITIES
  0
TEXT
  5
4F8
  8
0
 62
     3
 10
0.0
 20
0.0
 30
0.0
 40
10.0
  1
EFPH110SL
  7
STANDARD1
  0
LINE
  5
651
  8
0
 10
69.858402726720442
 20
179.024133132869
 30
0.0
 11
69.999999999999943
 21
179.16573104878239
 31
0.0
  0
LINE
  5
652
  8
0
 10
69.401191999506068
 20
179.02413183579941
 30
0.0
 11
69.858402726720442
 21
179.024133132869
 31
0.0
  0
LINE
  5
653
  8
0
 10
69.208357152452379
 20
179.0943160697858
 30
0.0
 11
69.401191999506068
 21
179.02413183579941
 31
0.0
  0
LINE
  5
654
  8
0
 10
64.610953156161315
 20
182.9519963221519
 30
0.0
 11
69.208357152452379
 21
179.0943160697858
 31
0.0
  0
POLYLINE
  5
655
  8
0
 66
     1
 10
0.0
 20
0.0
 30
0.0
  0
VERTEX
  5
1219
  8
0
 10
64.610953156161315
 20
182.9519963221519
 30
0.0
  0
VERTEX
  5
121A
  8
0
 10
64.447614738981883
 20
183.0773303054012
 30
0.0
  0
VERTEX
  5
121B
  8
0
 10
64.273974297391362
 20
183.18795147393641
 30
0.0
  0
VERTEX
  5
121C
  8
0
 10
64.091353339997283
 20
183.2830179338701
 30
0.0
  0
VERTEX
  5
121D
  8
0
 10
63.901141722555003
 20
183.36180617203939
 30
0.0
  0
VERTEX
  5
121E
  8
0
 10
63.704787070326063
 20
183.4237165623781
 30
0.0
  0
VERTEX
  5
121F
  8
0
 10
63.50378376077618
 20
183.4682779294335
 30
0.0
  0
VERTEX
  5
1220
  8
0
 10
63.299661550460137
 20
183.49515113429521
 30
0.0
  0
VERTEX
  5
1221
  8
0
 10
63.09397393265084
 20
183.50413165564771
 30
0.0
  0
SEQEND
  5
1222
  8
0
  0
LINE
  5
656
  8
0
 10
62.514636825879222
 20
183.50413165563759
 30
0.0
 11
63.093973863774522
 21
183.50413165564771
 31
0.0
  0
LINE
  5
657
  8
0
 10
54.659999999985011
 20
138.43756960672781
 30
0.0
 11
61.3971936945631
 21
146.1878236568262
 31
0.0
  0
LINE
  5
658
  8
0
 10
54.660003577338557
 20
137.24834767564269
 30
0.0
 11
54.659999999985011
 21
138.43756960672781
 31
0.0
  0
ARC
  5
659
  8
0
 10
55.840003580810787
 20
137.24834628686239
 30
0.0
 40
1.1800000034730149
 50
179.9999325626915
 51
231.17460062376361
  0
ARC
  5
65A
  8
0
 10
72.522357432671583
 20
157.9782993381063
 30
0.0
 40
27.78886851653191
 50
231.1747484033441
 51
264.79217284793742
  0
ARC
  5
65B
  8
0
 10
70.999999999999943
 20
177.5406665740386
 30
0.0
 40
2.9999999999999978
 50
326.4426902380826
 51
33.557309761917423
  0
ARC
  5
65C
  8
0
 10
220.9751296401044
 20
250.08537284525011
 30
0.0
 40
190.4209977719652
 50
211.6011736177725
 51
213.06184884001399
  0
ARC
  5
65D
  8
0
 10
52.999999999999943
 20
183.22813165985929
 30
0.0
 40
3.0
 50
90.0
 51
180.0
  0
LINE
  5
65E
  8
0
 10
52.999999999999943
 20
186.22813165985929
 30
0.0
 11
58.171642332207512
 21
186.2281316513932
 31
0.0
  0
ARC
  5
65F
  8
0
 10
58.171642326604278
 20
183.22813165141221
 30
0.0
 40
2.9999999999809761
 50
50.055483779996067
 51
90.0
  0
LINE
  5
660
  8
0
 10
49.999999999999943
 20
171.9173999281636
 30
0.0
 11
49.999999999999943
 21
183.22813165985929
 31
0.0
  0
LINE
  5
661
  8
0
 10
69.999999999999943
 20
134.3055041240778
 30
0.0
 11
61.38668848635956
 21
146.2023336011631
 31
0.0
  0
LINE
  5
662
  8
0
 10
60.097778797797957
 20
185.5281312805912
 30
0.0
 11
69.999999999999943
 21
177.23550846893599
 31
0.0
  0
ARC
  5
663
  8
0
 10
221.4594246204405
 20
250.3849537118798
 30
0.0
 40
190.99046103612989
 50
207.9544560110651
 51
211.60158931324449
  0
ARC
  5
664
  8
0
 10
73.599999999999682
 20
171.91739992816349
 30
0.0
 40
23.599999999999749
 50
180.0
 51
207.95445601107829
  0
LINE
  5
665
  8
0
 10
73.499999999999943
 20
197.0
 30
0.0
 11
73.499999999999943
 21
123.9999999999999
 31
0.0
  0
LINE
  5
666
  8
0
 10
69.999999999999943
 20
197.0
 30
0.0
 11
69.999999999999943
 21
123.9999999999999
 31
0.0
  0
LINE
  5
667
  8
0
 10
69.999999999999943
 20
123.9999999999999
 30
0.0
 11
73.499999999999943
 21
123.9999999999999
 31
0.0
  0
LINE
  5
668
  8
0
 10
73.499999999999943
 20
197.0
 30
0.0
 11
69.999999999999943
 21
197.0
 31
0.0
  0
LINE
  5
67E
  8
3
 10
195.85979265870691
 20
251.5988080004939
 30
0.0
 11
192.78681167432219
 21
251.5988080004939
 31
0.0
  0
LINE
  5
67F
  8
3
 10
138.78681167432219
 20
251.5988080004939
 30
0.0
 11
135.71383068993751
 21
251.5988080004939
 31
0.0
  0
LINE
  5
680
  8
3
 10
175.85617113362679
 20
251.5988080004939
 30
0.0
 11
170.96778825327499
 21
251.5988080004939
 31
0.0
  0
LINE
  5
681
  8
3
 10
189.28681167432219
 20
251.5988080004939
 30
0.0
 11
186.2160276485647
 21
251.5988080004939
 31
0.0
  0
LINE
  5
682
  8
3
 10
160.6058350953694
 20
251.5988080004939
 30
0.0
 11
155.7174522150176
 21
251.5988080004939
 31
0.0
  0
LINE
  5
683
  8
3
 10
145.35759570007971
 20
251.5988080004939
 30
0.0
 11
142.28681167432219
 21
251.5988080004939
 31
0.0
  0
LINE
  5
684
  8
3
 10
195.86499755782961
 20
251.1415972732795
 30
0.0
 11
192.78681167432219
 21
251.1415972732795
 31
0.0
  0
LINE
  5
685
  8
3
 10
145.36279822815331
 20
251.1415972732795
 30
0.0
 11
142.28681167432219
 21
251.1415972732795
 31
0.0
  0
LINE
  5
686
  8
3
 10
175.86137509278811
 20
251.1415972732795
 30
0.0
 11
170.9625850095353
 21
251.1415972732795
 31
0.0
  0
LINE
  5
687
  8
3
 10
160.61103833910909
 20
251.1415972732795
 30
0.0
 11
155.71224825585631
 21
251.1415972732795
 31
0.0
  0
LINE
  5
688
  8
3
 10
138.78681167432219
 20
251.1415972732795
 30
0.0
 11
135.70862579081469
 21
251.1415972732795
 31
0.0
  0
LINE
  5
689
  8
3
 10
189.28681167432219
 20
251.1415972732795
 30
0.0
 11
186.21082512049111
 21
251.1415972732795
 31
0.0
  0
LINE
  5
68A
  8
0
 10
211.28681167432219
 20
247.5
 30
0.0
 11
211.28681167432219
 21
247.0
 31
0.0
  0
LINE
  5
68B
  8
0
 10
120.28681167432219
 20
247.5
 30
0.0
 11
120.28681167432219
 21
247.0
 31
0.0
  0
LINE
  5
68C
  8
0
 10
120.28681167432219
 20
247.0
 30
0.0
 11
211.28681167432219
 21
247.0
 31
0.0
  0
LINE
  5
695
  8
0
 10
195.86660950496821
 20
251.0
 30
0.0
 11
195.781395930781
 21
258.4853631749524
 31
0.0
  0
LINE
  5
696
  8
0
 10
192.78681167432219
 20
258.48536317412072
 30
0.0
 11
192.78681167432219
 21
251.0
 31
0.0
  0
LINE
  5
69A
  8
0
 10
155.79583478513791
 20
258.48536317412072
 30
0.0
 11
155.7106365998219
 21
251.0
 31
0.0
  0
LINE
  5
69C
  8
0
 10
160.61264977357891
 20
251.0
 30
0.0
 11
160.527463300992
 21
258.4853631749524
 31
0.0
  0
LINE
  5
69D
  8
0
 10
171.04616004764301
 20
258.48536317412072
 30
0.0
 11
170.96097357506551
 21
251.0
 31
0.0
  0
LINE
  5
69E
  8
0
 10
175.86298674882249
 20
251.0
 30
0.0
 11
175.7777885634969
 21
258.4853631749524
 31
0.0
  0
LINE
  5
69F
  8
0
 10
135.79222741785389
 20
258.48536317412072
 30
0.0
 11
135.70701384367621
 21
251.0
 31
0.0
  0
LINE
  5
6A0
  8
0
 10
138.78681167432219
 20
251.0
 30
0.0
 11
138.78681167432219
 21
258.48536317412072
 31
0.0
  0
LINE
  5
6A2
  8
0
 10
186.29438866349469
 20
258.48536317412072
 30
0.0
 11
186.20921390766171
 21
251.0
 31
0.0
  0
LINE
  5
6A3
  8
0
 10
189.28681167432219
 20
251.0
 30
0.0
 11
189.28681167432219
 21
258.48536317495262
 31
0.0
  0
LINE
  5
6A8
  8
0
 10
142.28681167432219
 20
258.48536317412072
 30
0.0
 11
142.28681167432219
 21
251.0
 31
0.0
  0
LINE
  5
6AA
  8
0
 10
145.36440944098271
 20
251.0
 30
0.0
 11
145.27923468514021
 21
258.4853631749524
 31
0.0
  0
LINE
  5
6AB
  8
0
 10
189.28681167432219
 20
258.48536317495262
 30
0.0
 11
186.29438866349469
 21
258.48536317412072
 31
0.0
  0
LINE
  5
6AC
  8
0
 10
195.781395930781
 20
258.4853631749524
 30
0.0
 11
192.78681167432219
 21
258.48536317412072
 31
0.0
  0
LINE
  5
6AD
  8
0
 10
138.78681167432219
 20
258.48536317412072
 30
0.0
 11
135.79222741785389
 21
258.48536317412072
 31
0.0
  0
LINE
  5
6AE
  8
0
 10
145.27923468514021
 20
258.4853631749524
 30
0.0
 11
142.28681167432219
 21
258.48536317412072
 31
0.0
  0
LINE
  5
6AF
  8
0
 10
160.527463300992
 20
258.4853631749524
 30
0.0
 11
155.79583478513791
 21
258.48536317412072
 31
0.0
  0
LINE
  5
6B0
  8
0
 10
175.7777885634969
 20
258.4853631749524
 30
0.0
 11
171.04616004764301
 21
258.48536317412072
 31
0.0
  0
LINE
  5
6B2
  8
3
 10
215.33158782980269
 20
262.82835766779249
 30
0.0
 11
116.2420355188416
 21
262.82835766779249
 31
0.0
  0
LINE
  5
6B4
  8
3
 10
214.9868116743223
 20
268.0
 30
0.0
 11
116.58681167432221
 21
268.0
 31
0.0
  0
LINE
  5
6B7
  8
0
 10
220.28681167432219
 20
251.0
 30
0.0
 11
220.28681167432219
 21
247.5
 31
0.0
  0
LINE
  5
6B8
  8
0
 10
220.28681167432219
 20
251.0
 30
0.0
 11
111.28681167432219
 21
251.0
 31
0.0
  0
LINE
  5
6B9
  8
0
 10
220.28681167432219
 20
247.5
 30
0.0
 11
111.28681167432219
 21
247.5
 31
0.0
  0
LINE
  5
6BA
  8
0
 10
111.28681167432219
 20
251.0
 30
0.0
 11
111.28681167432219
 21
247.5
 31
0.0
  0
LINE
  5
8DF
  8
0
 10
211.28681167432219
 20
74.0
 30
0.0
 11
120.28681167432219
 21
74.0
 31
0.0
  0
LINE
  5
8E0
  8
0
 10
120.28681167432219
 20
74.0
 30
0.0
 11
120.28681167432219
 21
73.5
 31
0.0
  0
LINE
  5
8E1
  8
0
 10
211.28681167432219
 20
74.0
 30
0.0
 11
211.28681167432219
 21
73.5
 31
0.0
  0
LINE
  5
8E2
  8
0
 10
214.78681167432219
 20
50.0
 30
0.0
 11
116.78681167432219
 21
50.0
 31
0.0
  0
LINE
  5
8E6
  8
0
 10
122.28681167432219
 20
70.0
 30
0.0
 11
122.28681167432219
 21
54.660003577338607
 31
0.0
  0
LINE
  5
8E7
  8
0
 10
209.28681167432219
 20
70.0
 30
0.0
 11
209.28681167432219
 21
54.660003577338607
 31
0.0
  0
LINE
  5
8E8
  8
0
 10
209.28681167432211
 20
54.660003577338557
 30
0.0
 11
122.28681167432219
 21
54.660003577338607
 31
0.0
  0
LINE
  5
8E9
  8
0
 10
215.78681167432219
 20
65.0
 30
0.0
 11
214.78681167432219
 21
50.0
 31
0.0
  0
LINE
  5
8EA
  8
0
 10
115.78681167432219
 20
65.0
 30
0.0
 11
116.78681167432219
 21
50.0
 31
0.0
  0
LINE
  5
8EE
  8
0
 10
111.28681167432219
 20
70.0
 30
0.0
 11
111.28681167432219
 21
73.5
 31
0.0
  0
LINE
  5
8EF
  8
0
 10
111.28681167432219
 20
73.5
 30
0.0
 11
220.28681167432219
 21
73.5
 31
0.0
  0
LINE
  5
8F0
  8
0
 10
111.28681167432219
 20
70.0
 30
0.0
 11
220.28681167432219
 21
70.0
 31
0.0
  0
LINE
  5
8F1
  8
0
 10
220.28681167432219
 20
70.0
 30
0.0
 11
220.28681167432219
 21
73.5
 31
0.0
  0
LINE
  5
9D1
  8
0
 10
204.28681167432219
 20
70.0
 30
0.0
 11
204.28681167432219
 21
57.0
 31
0.0
  0
LINE
  5
9D3
  8
0
 10
127.03681167432219
 20
70.0
 30
0.0
 11
127.03681167432219
 21
57.0
 31
0.0
  0
LINE
  5
9D4
  8
0
 10
192.53681167432219
 20
70.0
 30
0.0
 11
192.53681167432219
 21
57.0
 31
0.0
  0
LINE
  5
9D5
  8
0
 10
139.03681167432219
 20
70.0
 30
0.0
 11
139.03681167432219
 21
57.0
 31
0.0
  0
LINE
  5
9D7
  8
0
 10
202.78681167432219
 20
70.0
 30
0.0
 11
202.78681167432219
 21
57.0
 31
0.0
  0
LINE
  5
9D8
  8
0
 10
128.53681167432219
 20
70.0
 30
0.0
 11
128.53681167432219
 21
57.0
 31
0.0
  0
LINE
  5
9D9
  8
0
 10
140.53681167432219
 20
70.0
 30
0.0
 11
140.53681167432219
 21
57.0
 31
0.0
  0
LINE
  5
9DD
  8
0
 10
191.03681167432219
 20
70.0
 30
0.0
 11
191.03681167432219
 21
57.0
 31
0.0
  0
LINE
  5
9E5
  8
0
 10
148.53681167432219
 20
70.0
 30
0.0
 11
148.53681167432219
 21
57.0
 31
0.0
  0
LINE
  5
9E6
  8
0
 10
183.03681167432219
 20
70.0
 30
0.0
 11
183.03681167432219
 21
57.0
 31
0.0
  0
LINE
  5
9E7
  8
0
 10
150.03681167432219
 20
70.0
 30
0.0
 11
150.03681167432219
 21
57.0
 31
0.0
  0
LINE
  5
9E8
  8
0
 10
160.28681167432219
 20
70.0
 30
0.0
 11
160.28681167432219
 21
57.0
 31
0.0
  0
LINE
  5
9E9
  8
0
 10
161.78681167432219
 20
70.0
 30
0.0
 11
161.78681167432219
 21
57.0
 31
0.0
  0
LINE
  5
9EA
  8
0
 10
181.53681167432219
 20
70.0
 30
0.0
 11
181.53681167432219
 21
57.0
 31
0.0
  0
LINE
  5
9EB
  8
0
 10
171.28681167432219
 20
70.0
 30
0.0
 11
171.28681167432219
 21
57.0
 31
0.0
  0
LINE
  5
9EC
  8
0
 10
169.78681167432219
 20
70.0
 30
0.0
 11
169.78681167432219
 21
57.0
 31
0.0
  0
LINE
  5
B4A
  8
0
 10
204.28681167432219
 20
57.0
 30
0.0
 11
202.78681167432219
 21
57.0
 31
0.0
  0
LINE
  5
B4B
  8
0
 10
128.53681167432231
 20
56.999999999999943
 30
0.0
 11
127.03681167432219
 21
57.0
 31
0.0
  0
LINE
  5
B4C
  8
0
 10
140.53681167432219
 20
57.0
 30
0.0
 11
139.03681167432231
 21
56.999999999999943
 31
0.0
  0
LINE
  5
B4D
  8
0
 10
150.03681167432219
 20
56.999999999999943
 30
0.0
 11
148.53681167432219
 21
57.0
 31
0.0
  0
LINE
  5
B4E
  8
0
 10
161.78681167432219
 20
56.999999999999943
 30
0.0
 11
160.28681167432219
 21
56.999999999999943
 31
0.0
  0
LINE
  5
B4F
  8
0
 10
171.28681167432219
 20
56.999999999999943
 30
0.0
 11
169.78681167432219
 21
56.999999999999943
 31
0.0
  0
LINE
  5
B50
  8
0
 10
183.03681167432219
 20
56.999999999999943
 30
0.0
 11
181.53681167432219
 21
56.999999999999943
 31
0.0
  0
LINE
  5
B51
  8
0
 10
192.53681167432219
 20
57.0
 30
0.0
 11
191.03681167432219
 21
57.0
 31
0.0
  0
LINE
  5
B52
  8
3
 10
128.53681167432219
 20
61.5
 30
0.0
 11
139.03681167432219
 21
61.5
 31
0.0
  0
LINE
  5
B53
  8
0
 10
128.53681167432219
 20
65.0
 30
0.0
 11
139.03681167432219
 21
65.0
 31
0.0
  0
LINE
  5
B54
  8
3
 10
150.03681167432219
 20
61.5
 30
0.0
 11
160.28681167432219
 21
61.5
 31
0.0
  0
LINE
  5
B55
  8
0
 10
150.03681167432219
 20
65.0
 30
0.0
 11
160.28681167432219
 21
65.0
 31
0.0
  0
LINE
  5
B56
  8
3
 10
171.28681167432219
 20
61.5
 30
0.0
 11
181.53681167432219
 21
61.5
 31
0.0
  0
LINE
  5
B57
  8
0
 10
171.28681167432219
 20
65.0
 30
0.0
 11
181.53681167432219
 21
65.0
 31
0.0
  0
LINE
  5
B58
  8
3
 10
192.53681167432219
 20
61.5
 30
0.0
 11
202.78681167432219
 21
61.5
 31
0.0
  0
LINE
  5
B59
  8
0
 10
192.53681167432219
 20
65.0
 30
0.0
 11
202.78681167432219
 21
65.0
 31
0.0
  0
LINE
  5
D62
  8
0
 10
115.78681167432219
 20
70.0
 30
0.0
 11
115.78681167432219
 21
65.0
 31
0.0
  0
LINE
  5
D63
  8
0
 10
215.78681167432219
 20
70.0
 30
0.0
 11
215.78681167432219
 21
65.0
 31
0.0
  0
LINE
  5
DAE
  8
0
 10
115.78681167432219
 20
68.000000000024386
 30
0.0
 11
115.78681167432219
 21
70.000000000024386
 31
0.0
  0
LINE
  5
E60
  8
0
 10
214.78681167432219
 20
271.0
 30
0.0
 11
116.78681167432219
 21
271.0
 31
0.0
  0
LINE
  5
E61
  8
0
 10
215.78681167432219
 20
256.0
 30
0.0
 11
214.78681167432219
 21
271.0
 31
0.0
  0
LINE
  5
E62
  8
0
 10
115.78681167432219
 20
256.0
 30
0.0
 11
116.78681167432219
 21
271.0
 31
0.0
  0
LINE
  5
E63
  8
0
 10
115.78681167432219
 20
251.0
 30
0.0
 11
115.78681167432219
 21
256.0
 31
0.0
  0
LINE
  5
E64
  8
0
 10
215.78681167432219
 20
251.0
 30
0.0
 11
215.78681167432219
 21
256.0
 31
0.0
  0
LINE
  5
E65
  8
1
 10
165.78681167432171
 20
276.0
 30
0.0
 11
165.78681167432171
 21
242.0
 31
0.0
  0
LINE
  5
E6D
  8
1
 10
165.78681167432171
 20
79.0
 30
0.0
 11
165.78681167432171
 21
45.0
 31
0.0
  0
LINE
  5
1110
  8
1
 10
165.7868116743216
 20
201.99586834437599
 30
0.0
 11
165.7868116743216
 21
118.9999999999999
 31
0.0
  0
ARC
  5
1111
  8
0
 10
165.78681167432239
 20
-452.99999999999193
 30
0.0
 40
649.99999999999181
 50
90.204288180218526
 51
94.565467495531578
  0
ARC
  5
1112
  8
3
 10
165.78681167432239
 20
-452.99999999999193
 30
0.0
 40
646.49999999999181
 50
90.204288180218526
 51
94.583214629924129
  0
ARC
  5
1113
  8
0
 10
165.7904760110342
 20
-453.06010966094681
 30
0.0
 40
633.06021025698215
 50
90.208956858761894
 51
94.044947968562084
  0
ARC
  5
1114
  8
0
 10
165.79187911606161
 20
-453.08312615043633
 30
0.0
 40
628.0832652661004
 50
90.210740641355571
 51
94.154759109685841
  0
ARC
  5
1115
  8
3
 10
114.2868116743217
 20
189.43910217233801
 30
0.0
 40
2.0
 50
94.583214629920846
 51
180.0
  0
LINE
  5
1116
  8
0
 10
163.4692406957812
 20
196.99586834437599
 30
0.0
 11
168.1043826528622
 21
196.99586834437599
 31
0.0
  0
LINE
  5
1117
  8
3
 10
163.48171992412659
 20
193.49589059175241
 30
0.0
 11
168.0919034245166
 21
193.4958905917525
 31
0.0
  0
LINE
  5
1118
  8
0
 10
163.48171992412691
 20
179.99589059175241
 30
0.0
 11
168.09190342451689
 21
179.9958905917525
 31
0.0
  0
LINE
  5
1119
  8
0
 10
163.48171992412699
 20
174.99589059175241
 30
0.0
 11
168.091903424517
 21
174.9958905917525
 31
0.0
  0
ARC
  5
111A
  8
0
 10
165.78681167432049
 20
-453.00000000002149
 30
0.0
 40
650.00000000002137
 50
85.434532504471704
 51
89.795711819781474
  0
ARC
  5
111B
  8
3
 10
165.78681167432049
 20
-453.00000000002149
 30
0.0
 40
646.50000000002137
 50
85.416785370075885
 51
89.795711819781474
  0
ARC
  5
111C
  8
0
 10
165.78314733760709
 20
-453.06010966104299
 30
0.0
 40
633.06021025707832
 50
85.955052031437916
 51
89.791043141238092
  0
ARC
  5
111D
  8
0
 10
165.7817442325815
 20
-453.08312615045082
 30
0.0
 40
628.08326526611506
 50
85.845240890314145
 51
89.789259358644429
  0
ARC
  5
111E
  8
3
 10
217.2868116743218
 20
189.43910217233821
 30
0.0
 40
2.0
 50
0.0
 51
85.416785370075885
  0
ARC
  5
111F
  8
0
 10
114.2868116743217
 20
191.94709085319539
 30
0.0
 40
2.9999999999999578
 50
94.56546749552831
 51
180.0
  0
LINE
  5
1120
  8
0
 10
111.2868116743217
 20
129.05290914680441
 30
0.0
 11
111.2868116743217
 21
191.94709085319539
 31
0.0
  0
LINE
  5
1121
  8
3
 10
112.2868116743217
 20
131.05929511346059
 30
0.0
 11
112.2868116743217
 21
189.43910217233801
 31
0.0
  0
ARC
  5
1122
  8
0
 10
114.2868116743218
 20
129.05290914680441
 30
0.0
 40
3.0000000000000502
 50
180.0
 51
265.43453250447823
  0
ARC
  5
1123
  8
0
 10
165.78681167432171
 20
774.00000000000557
 30
0.0
 40
650.00000000000557
 50
265.43453250446851
 51
274.56546749552831
  0
ARC
  5
1124
  8
3
 10
165.78681167432171
 20
774.00000000000557
 30
0.0
 40
647.00000000000557
 50
265.42034583820788
 51
274.57965416179212
  0
ARC
  5
1125
  8
0
 10
165.78681167432171
 20
774.00000000000557
 30
0.0
 40
641.00000000000557
 50
265.70550047460421
 51
274.29449952539579
  0
ARC
  5
1126
  8
3
 10
217.2868116743218
 20
131.05929511346059
 30
0.0
 40
2.0
 50
274.5796541617953
 51
0.0
  0
ARC
  5
1127
  8
3
 10
114.2868116743217
 20
131.05929511346059
 30
0.0
 40
2.0
 50
180.0
 51
265.42034583819822
  0
ARC
  5
1128
  8
0
 10
217.2868116743218
 20
129.0529091468043
 30
0.0
 40
2.9999999999999729
 50
274.56546749552831
 51
0.0
  0
LINE
  5
1129
  8
0
 10
220.2868116743218
 20
191.94709089789879
 30
0.0
 11
220.2868116743218
 21
129.0529091468043
 31
0.0
  0
LINE
  5
112A
  8
3
 10
219.2868116743218
 20
189.43910217233821
 30
0.0
 11
219.2868116743218
 21
131.05929511346059
 31
0.0
  0
ARC
  5
112B
  8
0
 10
217.28681167432171
 20
191.94709085319531
 30
0.0
 40
3.0000000000000782
 50
0.0000008537736463
 51
85.434532504468436
  0
LINE
  5
112C
  8
0
 10
207.78681167432171
 20
195.64165761998339
 30
0.0
 11
207.5151740951047
 21
192.15191526467601
 31
0.0
  0
LINE
  5
112D
  8
0
 10
123.7868116743217
 20
195.64165761998339
 30
0.0
 11
124.0584492535387
 21
192.15191526467589
 31
0.0
  0
ARC
  5
112E
  8
0
 10
-3.3508732699214931
 20
140.07406033162309
 30
0.0
 40
217.2017332015966
 50
358.60854130643418
 51
13.872801689300591
  0
ARC
  5
112F
  8
0
 10
334.92449661856489
 20
140.07406033162309
 30
0.0
 40
217.2017332015966
 50
166.12719831069941
 51
181.3914586935658
  0
CIRCLE
  5
1130
  8
0
 10
170.78681167432171
 20
186.7458905917525
 30
0.0
 40
1.5
  0
CIRCLE
  5
1131
  8
0
 10
155.78681167432171
 20
186.7458905917525
 30
0.0
 40
1.5
  0
CIRCLE
  5
1132
  8
0
 10
165.78681167432171
 20
186.7458905917525
 30
0.0
 40
1.5
  0
CIRCLE
  5
1133
  8
0
 10
160.78681167432171
 20
186.7458905917525
 30
0.0
 40
1.5
  0
CIRCLE
  5
1134
  8
0
 10
175.78681167432171
 20
186.7458905917525
 30
0.0
 40
1.5
  0
ENDSEC
  0
EOF
