  0
SECTION
  2
HEADER
  9
$ACADVER
  1
AC1009
  9
$INSBASE
 10
0.0
 20
0.0
 30
0.0
  9
$EXTMIN
 10
0.0
 20
-2.960436562073669
 30
0.0
  9
$EXTMAX
 10
229.0
 20
192.4999999403953
 30
0.0
  9
$LIMMIN
 10
0.0
 20
0.0
  9
$LIMMAX
 10
420.0
 20
330.0
  9
$ORTHOMODE
 70
     1
  9
$REGENMODE
 70
     1
  9
$FILLMODE
 70
     1
  9
$QTEXTMODE
 70
     0
  9
$MIRRTEXT
 70
     0
  9
$DRAGMODE
 70
     2
  9
$LTSCALE
 40
5.0
  9
$OSMODE
 70
    37
  9
$ATTMODE
 70
     1
  9
$TEXTSIZE
 40
0.2
  9
$TRACEWID
 40
0.05
  9
$TEXTSTYLE
  7
STANDARD
  9
$CLAYER
  8
0
  9
$CELTYPE
  6
BYLAYER
  9
$CECOLOR
 62
   256
  9
$DIMSCALE
 40
1.0
  9
$DIMASZ
 40
3.0
  9
$DIMEXO
 40
1.0
  9
$DIMDLI
 40
0.3799999999999999
  9
$DIMRND
 40
0.0
  9
$DIMDLE
 40
0.0
  9
$DIMEXE
 40
1.0
  9
$DIMTP
 40
0.0
  9
$DIMTM
 40
0.0
  9
$DIMTXT
 40
3.0
  9
$DIMCEN
 40
0.09
  9
$DIMTSZ
 40
0.0
  9
$DIMTOL
 70
     0
  9
$DIMLIM
 70
     0
  9
$DIMTIH
 70
     0
  9
$DIMTOH
 70
     0
  9
$DIMSE1
 70
     0
  9
$DIMSE2
 70
     0
  9
$DIMTAD
 70
     1
  9
$DIMZIN
 70
     8
  9
$DIMBLK
  1

  9
$DIMASO
 70
     0
  9
$DIMSHO
 70
     1
  9
$DIMPOST
  1

  9
$DIMAPOST
  1

  9
$DIMALT
 70
     0
  9
$DIMALTD
 70
     2
  9
$DIMALTF
 40
25.399999999999999
  9
$DIMLFAC
 40
1.0
  9
$DIMTOFL
 70
     0
  9
$DIMTVP
 40
0.0
  9
$DIMTIX
 70
     0
  9
$DIMSOXD
 70
     0
  9
$DIMSAH
 70
     0
  9
$DIMBLK1
  1

  9
$DIMBLK2
  1

  9
$DIMSTYLE
  2
STANDARD
  9
$DIMCLRD
 70
     0
  9
$DIMCLRE
 70
     0
  9
$DIMCLRT
 70
     0
  9
$DIMTFAC
 40
1.0
  9
$DIMGAP
 40
0.5
  9
$LUNITS
 70
     2
  9
$LUPREC
 70
     1
  9
$SKETCHINC
 40
0.1
  9
$FILLETRAD
 40
0.5
  9
$AUNITS
 70
     0
  9
$AUPREC
 70
     1
  9
$MENU
  1
ACAD
  9
$ELEVATION
 40
0.0
  9
$PELEVATION
 40
0.0
  9
$THICKNESS
 40
0.0
  9
$LIMCHECK
 70
     0
  9
$BLIPMODE
 70
     0
  9
$CHAMFERA
 40
0.1
  9
$CHAMFERB
 40
0.1
  9
$SKPOLY
 70
     0
  9
$TDCREATE
 40
2449640.5627083331
  9
$TDUPDATE
 40
2457893.6527237962
  9
$TDINDWG
 40
1.5922073148
  9
$TDUSRTIMER
 40
1.5922073148
  9
$USRTIMER
 70
     1
  9
$ANGBASE
 50
0.0
  9
$ANGDIR
 70
     0
  9
$PDMODE
 70
     0
  9
$PDSIZE
 40
0.0
  9
$PLINEWID
 40
0.0
  9
$COORDS
 70
     1
  9
$SPLFRAME
 70
     0
  9
$SPLINETYPE
 70
     6
  9
$SPLINESEGS
 70
     8
  9
$ATTDIA
 70
     0
  9
$ATTREQ
 70
     1
  9
$HANDLING
 70
     1
  9
$HANDSEED
  5
6EEF
  9
$SURFTAB1
 70
     6
  9
$SURFTAB2
 70
     6
  9
$SURFTYPE
 70
     6
  9
$SURFU
 70
     6
  9
$SURFV
 70
     6
  9
$UCSNAME
  2

  9
$UCSORG
 10
0.0
 20
0.0
 30
0.0
  9
$UCSXDIR
 10
1.0
 20
0.0
 30
0.0
  9
$UCSYDIR
 10
0.0
 20
1.0
 30
0.0
  9
$PUCSNAME
  2

  9
$PUCSORG
 10
0.0
 20
0.0
 30
0.0
  9
$PUCSXDIR
 10
1.0
 20
0.0
 30
0.0
  9
$PUCSYDIR
 10
0.0
 20
1.0
 30
0.0
  9
$USERI1
 70
     0
  9
$USERI2
 70
     1
  9
$USERI3
 70
     1
  9
$USERI4
 70
     0
  9
$USERI5
 70
     0
  9
$USERR1
 40
0.0
  9
$USERR2
 40
0.0
  9
$USERR3
 40
0.0
  9
$USERR4
 40
0.0
  9
$USERR5
 40
10.0
  9
$WORLDVIEW
 70
     1
  9
$SHADEDGE
 70
     3
  9
$SHADEDIF
 70
    70
  9
$TILEMODE
 70
     1
  9
$MAXACTVP
 70
    16
  9
$PLIMCHECK
 70
     0
  9
$PEXTMIN
 10
1.0000000000000000E+020
 20
1.0000000000000000E+020
 30
1.0000000000000000E+020
  9
$PEXTMAX
 10
-1.0000000000000000E+020
 20
-1.0000000000000000E+020
 30
-1.0000000000000000E+020
  9
$PLIMMIN
 10
0.0
 20
0.0
  9
$PLIMMAX
 10
12.0
 20
9.0
  9
$UNITMODE
 70
     0
  9
$VISRETAIN
 70
     0
  9
$PLINEGEN
 70
     0
  9
$PSLTSCALE
 70
     0
  0
ENDSEC
  0
SECTION
  2
TABLES
  0
TABLE
  2
VPORT
 70
     1
  0
VPORT
  2
*ACTIVE
 70
     0
 10
0.0
 20
0.0
 11
1.0
 21
1.0
 12
181.62393162393161
 22
100.0
 13
0.0
 23
0.0
 14
1.8999999999999999
 24
1.8999999999999999
 15
10.0
 25
10.0
 16
0.0
 26
0.0
 36
1.0
 17
0.0
 27
0.0
 37
0.0
 40
200.0
 41
1.816239316239316
 42
50.0
 43
0.0
 44
0.0
 50
0.0
 51
0.0
 71
     0
 72
   100
 73
     1
 74
     0
 75
     0
 76
     0
 77
     0
 78
     1
  0
ENDTAB
  0
TABLE
  2
LTYPE
 70
     4
  0
LTYPE
  2
CONTINUOUS
 70
     0
  3
Solid Line
 72
    65
 73
     0
 40
0.0
  0
LTYPE
  2
CENTER
 70
     0
  3
____ _ ____ _ ____ _ ____ _ ____ _ ____ _ ____
 72
    65
 73
     4
 40
2.0
 49
1.25
 49
-0.25
 49
0.25
 49
-0.25
  0
LTYPE
  2
HIDDEN
 70
     0
  3
_ _ _ _ _ _ _ _ _ _ _ _ _ _ _ _ _ _ _ _ _ _ _
 72
    65
 73
     2
 40
0.375
 49
0.25
 49
-0.125
  0
LTYPE
  2
PHANTOM2
 70
     0
  3
___ _ _ ___ _ _ ___ _ _ ___ _ _
 72
    65
 73
     6
 40
1.25
 49
0.625
 49
-0.125
 49
0.125
 49
-0.125
 49
0.125
 49
-0.125
  0
ENDTAB
  0
TABLE
  2
LAYER
 70
     5
  0
LAYER
  2
0
 70
     0
 62
     7
  6
CONTINUOUS
  0
LAYER
  2
WAKU
 70
     0
 62
     7
  6
CONTINUOUS
  0
LAYER
  2
1
 70
     0
 62
     1
  6
CENTER
  0
LAYER
  2
2
 70
     0
 62
     2
  6
HIDDEN
  0
LAYER
  2
DEFPOINTS
 70
     0
 62
     7
  6
CONTINUOUS
  0
ENDTAB
  0
TABLE
  2
STYLE
 70
     2
  0
STYLE
  2
STANDARD
 70
     0
 40
0.0
 41
1.0
 50
0.0
 71
     0
 42
0.2
  3
ROMANS
  4
EXTFONT
  0
STYLE
  2
STANDARD1
 70
     0
 40
0.0
 41
1.0
 50
0.0
 71
     0
 42
3.0
  3
txt
  4

  0
ENDTAB
  0
TABLE
  2
VIEW
 70
     0
  0
ENDTAB
  0
TABLE
  2
UCS
 70
     0
  0
ENDTAB
  0
TABLE
  2
APPID
 70
    11
  0
APPID
  2
ACAD
 70
     0
  0
APPID
  2
GENIUS_GENOREF_13
 70
     0
  0
APPID
  2
ACAD_NAV_VCDISPLAY
 70
     0
  0
APPID
  2
ACADANNOTATIVE
 70
     0
  0
APPID
  2
ACAD_EXEMPT_FROM_CAD_STANDARDS
 70
     0
  0
APPID
  2
GENIUS_GENODEF_13
 70
     0
  0
APPID
  2
GENIUS_GENOBJ-N-FIL_13
 70
     0
  0
APPID
  2
ACAD_MLEADERVER
 70
     0
  0
APPID
  2
ACAD_DSTYLE_DIMRADIAL_EXTENSION
 70
     0
  0
APPID
  2
ACAD_DSTYLE_DIMJAG
 70
     0
  0
APPID
  2
ACAD_DSTYLE_DIMTALN
 70
     0
  0
ENDTAB
  0
TABLE
  2
DIMSTYLE
 70
     1
  0
DIMSTYLE
  2
STANDARD
 70
     0
  3

  4

  5

  6

  7

 40
1.0
 41
0.18
 42
0.0625
 43
0.38
 44
0.18
 45
0.0
 46
0.0
 47
0.0
 48
0.0
140
0.18
141
0.09
142
0.0
143
25.399999999999999
144
1.0
145
0.0
146
1.0
147
0.09
 71
     0
 72
     0
 73
     1
 74
     1
 75
     0
 76
     0
 77
     0
 78
     0
170
     0
171
     2
172
     0
173
     0
174
     0
175
     0
176
     0
177
     0
178
     0
  0
ENDTAB
  0
ENDSEC
  0
SECTION
  2
BLOCKS
  0
BLOCK
  8
0
  2
$MODEL_SPACE
 70
     0
 10
0.0
 20
0.0
 30
0.0
  3
$MODEL_SPACE
  1

  0
ENDBLK
  5
9
  8
0
  0
BLOCK
 67
     1
  8
0
  2
$PAPER_SPACE
 70
     0
 10
0.0
 20
0.0
 30
0.0
  3
$PAPER_SPACE
  1

  0
ENDBLK
  5
E
 67
     1
  8
0
  0
BLOCK
  8
0
  2
ARROW1
 70
     0
 10
0.0
 20
0.0
 30
0.0
  3
ARROW1
  1

  0
SOLID
  5
24
  8
WAKU
  6
CONTINUOUS
 62
     4
 10
-1.0
 20
0.1666666666666714
 30
0.0
 11
-1.0
 21
-0.1666666666666714
 31
0.0
 12
0.0
 22
0.0
 32
0.0
 13
0.0
 23
0.0
 33
0.0
  0
ENDBLK
  5
27
  8
0
  0
ENDSEC
  0
SECTION
  2
ENTITIES
  0
CIRCLE
  5
300C
  8
2
 10
102.0
 20
175.4999999403953
 30
0.0
 40
2.458500000000003
  0
CIRCLE
  5
300D
  8
2
 10
102.0
 20
135.4999999403953
 30
0.0
 40
2.458500000000003
  0
CIRCLE
  5
3025
  8
2
 10
62.0
 20
175.4999999403953
 30
0.0
 40
2.458500000000003
  0
CIRCLE
  5
3026
  8
2
 10
62.0
 20
135.4999999403953
 30
0.0
 40
2.458500000000003
  0
LINE
  5
3038
  8
1
 10
82.0
 20
118.4999999403953
 30
0.0
 11
81.999999999999986
 21
192.4999999403953
 31
0.0
  0
LINE
  5
3039
  8
1
 10
97.0
 20
135.4999999403953
 30
0.0
 11
107.0
 21
135.4999999403953
 31
0.0
  0
LINE
  5
303A
  8
1
 10
102.0
 20
130.4999999403953
 30
0.0
 11
102.0
 21
140.4999999403953
 31
0.0
  0
LINE
  5
303B
  8
1
 10
97.0
 20
175.4999999403953
 30
0.0
 11
107.0
 21
175.4999999403953
 31
0.0
  0
LINE
  5
303C
  8
1
 10
102.0
 20
170.4999999403953
 30
0.0
 11
102.0
 21
180.4999999403953
 31
0.0
  0
LINE
  5
303D
  8
1
 10
57.0
 20
135.4999999403953
 30
0.0
 11
67.0
 21
135.4999999403953
 31
0.0
  0
LINE
  5
303E
  8
1
 10
62.0
 20
130.4999999403953
 30
0.0
 11
62.0
 21
140.4999999403953
 31
0.0
  0
LINE
  5
303F
  8
1
 10
57.0
 20
175.4999999403953
 30
0.0
 11
67.0
 21
175.4999999403953
 31
0.0
  0
LINE
  5
3040
  8
1
 10
62.0
 20
170.4999999403953
 30
0.0
 11
62.0
 21
180.4999999403953
 31
0.0
  0
LINE
  5
3041
  8
0
 10
87.714285714285722
 20
187.9999999403953
 30
0.0
 11
87.714285714285722
 21
187.4999999403953
 31
0.0
  0
LINE
  5
3042
  8
0
 10
114.0
 20
187.9999999403953
 30
0.0
 11
114.0
 21
122.9999999403953
 31
0.0
  0
LINE
  5
3043
  8
0
 10
87.714285714285722
 20
187.9999999403953
 30
0.0
 11
114.0
 21
187.9999999403953
 31
0.0
  0
LINE
  5
3044
  8
0
 10
98.830495217218129
 20
187.9999999403953
 30
0.0
 11
98.830495217218129
 21
179.4999999403953
 31
0.0
  0
LINE
  5
3045
  8
0
 10
98.830495217218129
 20
171.4999999403953
 30
0.0
 11
98.830495217218129
 21
163.4999999403953
 31
0.0
  0
LINE
  5
3046
  8
0
 10
98.830495217218129
 20
155.4999999403953
 30
0.0
 11
98.830495217218129
 21
147.4999999403953
 31
0.0
  0
LINE
  5
3048
  8
0
 10
87.714285714285722
 20
123.4999999403953
 30
0.0
 11
87.714285714285722
 21
122.9999999403953
 31
0.0
  0
LINE
  5
3049
  8
0
 10
87.714285714285722
 20
122.9999999403953
 30
0.0
 11
114.0
 21
122.9999999403953
 31
0.0
  0
LINE
  5
304A
  8
0
 10
98.830495217218129
 20
123.4999999403953
 30
0.0
 11
98.830495217218129
 21
122.9999999403953
 31
0.0
  0
LINE
  5
304B
  8
0
 10
98.830495217218129
 20
139.4999999403953
 30
0.0
 11
98.830495217218129
 21
131.4999999403953
 31
0.0
  0
LINE
  5
304C
  8
0
 10
63.401923788646677
 20
139.4999999403953
 30
0.0
 11
100.5980762113533
 21
139.4999999403953
 31
0.0
  0
LINE
  5
304D
  8
0
 10
63.401923788646677
 20
147.4999999403953
 30
0.0
 11
100.5980762113533
 21
147.4999999403953
 31
0.0
  0
LINE
  5
304E
  8
0
 10
100.5980762113533
 20
147.4999999403953
 30
0.0
 11
100.5980762113533
 21
139.4999999403953
 31
0.0
  0
LINE
  5
304F
  8
0
 10
63.401923788646677
 20
179.4999999403953
 30
0.0
 11
100.5980762113533
 21
179.4999999403953
 31
0.0
  0
LINE
  5
3050
  8
0
 10
63.401923788646677
 20
171.4999999403953
 30
0.0
 11
100.5980762113533
 21
171.4999999403953
 31
0.0
  0
LINE
  5
3051
  8
0
 10
100.5980762113533
 20
171.4999999403953
 30
0.0
 11
100.5980762113533
 21
179.4999999403953
 31
0.0
  0
LINE
  5
3052
  8
0
 10
63.401923788646677
 20
155.4999999403953
 30
0.0
 11
100.5980762113533
 21
155.4999999403953
 31
0.0
  0
LINE
  5
3053
  8
0
 10
63.401923788646677
 20
163.4999999403953
 30
0.0
 11
100.5980762113533
 21
163.4999999403953
 31
0.0
  0
LINE
  5
3054
  8
0
 10
100.5980762113533
 20
155.4999999403953
 30
0.0
 11
100.5980762113533
 21
163.4999999403953
 31
0.0
  0
LINE
  5
3055
  8
0
 10
74.000000103238278
 20
123.4999999403953
 30
0.0
 11
100.5980762113533
 21
123.4999999403953
 31
0.0
  0
LINE
  5
3056
  8
0
 10
63.401923788646677
 20
131.4999999403953
 30
0.0
 11
100.5980762113533
 21
131.4999999403953
 31
0.0
  0
LINE
  5
3057
  8
0
 10
100.5980762113533
 20
131.4999999403953
 30
0.0
 11
100.5980762113533
 21
123.4999999403953
 31
0.0
  0
LINE
  5
3059
  8
0
 10
74.000000103238278
 20
179.4999999403953
 30
0.0
 11
74.000000103238278
 21
171.4999999403953
 31
0.0
  0
LINE
  5
305B
  8
0
 10
74.000000103238278
 20
163.4999999403953
 30
0.0
 11
74.000000103238278
 21
155.4999999403953
 31
0.0
  0
LINE
  5
305D
  8
0
 10
74.000000103238278
 20
147.4999999403953
 30
0.0
 11
74.000000103238278
 21
139.4999999403953
 31
0.0
  0
LINE
  5
305F
  8
0
 10
74.000000103238278
 20
131.4999999403953
 30
0.0
 11
74.000000103238278
 21
123.4999999403953
 31
0.0
  0
LINE
  5
3062
  8
0
 10
76.285714285714278
 20
187.4999999403953
 30
0.0
 11
76.285714285714278
 21
187.9999999403953
 31
0.0
  0
LINE
  5
3063
  8
0
 10
76.285714285714278
 20
122.9999999403953
 30
0.0
 11
76.285714285714278
 21
123.4999999403953
 31
0.0
  0
LINE
  5
3064
  8
0
 10
76.285714285714278
 20
122.9999999403953
 30
0.0
 11
50.0
 21
122.9999999403953
 31
0.0
  0
LINE
  5
3065
  8
0
 10
76.285714285714278
 20
187.9999999403953
 30
0.0
 11
50.0
 21
187.9999999403953
 31
0.0
  0
LINE
  5
3066
  8
0
 10
50.0
 20
122.9999999403953
 30
0.0
 11
50.0
 21
187.9999999403953
 31
0.0
  0
LINE
  5
3067
  8
0
 10
65.169504782781871
 20
122.9999999403953
 30
0.0
 11
65.169504782781871
 21
131.4999999403953
 31
0.0
  0
LINE
  5
3068
  8
0
 10
65.169504782781871
 20
155.4999999403953
 30
0.0
 11
65.169504782781871
 21
163.4999999403953
 31
0.0
  0
LINE
  5
3069
  8
0
 10
65.169504782781871
 20
171.4999999403953
 30
0.0
 11
65.169504782781871
 21
179.4999999403953
 31
0.0
  0
LINE
  5
306A
  8
0
 10
65.169504782781871
 20
187.4999999403953
 30
0.0
 11
65.169504782781871
 21
187.9999999403953
 31
0.0
  0
LINE
  5
306C
  8
0
 10
65.169504782781871
 20
139.4999999403953
 30
0.0
 11
65.169504782781871
 21
147.4999999403953
 31
0.0
  0
LINE
  5
306F
  8
0
 10
63.401923788646677
 20
163.4999999403953
 30
0.0
 11
63.401923788646677
 21
171.4999999403953
 31
0.0
  0
LINE
  5
3072
  8
0
 10
63.401923788646677
 20
155.4999999403953
 30
0.0
 11
63.401923788646677
 21
147.4999999403953
 31
0.0
  0
LINE
  5
3074
  8
0
 10
89.999999896761722
 20
187.4999999403953
 30
0.0
 11
63.401923788646677
 21
187.4999999403953
 31
0.0
  0
LINE
  5
3075
  8
0
 10
63.401923788646677
 20
179.4999999403953
 30
0.0
 11
63.401923788646677
 21
187.4999999403953
 31
0.0
  0
LINE
  5
3078
  8
0
 10
63.401923788646677
 20
139.4999999403953
 30
0.0
 11
63.401923788646677
 21
131.4999999403953
 31
0.0
  0
LINE
  5
307A
  8
0
 10
89.999999896761722
 20
131.4999999403953
 30
0.0
 11
89.999999896761722
 21
139.4999999403953
 31
0.0
  0
LINE
  5
307C
  8
0
 10
89.999999896761722
 20
179.4999999403953
 30
0.0
 11
89.999999896761722
 21
187.4999999403953
 31
0.0
  0
LINE
  5
307E
  8
0
 10
89.999999896761722
 20
147.4999999403953
 30
0.0
 11
89.999999896761722
 21
155.4999999403953
 31
0.0
  0
LINE
  5
3080
  8
0
 10
89.999999896761722
 20
163.4999999403953
 30
0.0
 11
89.999999896761722
 21
171.4999999403953
 31
0.0
  0
LINE
  5
3086
  8
2
 10
105.0
 20
59.0
 30
0.0
 11
99.0
 21
59.0
 31
0.0
  0
LINE
  5
3087
  8
2
 10
99.541499999999985
 20
59.0
 30
0.0
 11
99.541499999999985
 21
50.541500000000042
 31
0.0
  0
LINE
  5
3088
  8
2
 10
104.4585
 20
50.541500000000042
 30
0.0
 11
104.4585
 21
59.0
 31
0.0
  0
LINE
  5
3089
  8
2
 10
104.4585
 20
50.541500000000042
 30
0.0
 11
99.541499999999985
 21
50.541500000000042
 31
0.0
  0
LINE
  5
308A
  8
2
 10
99.541499999999985
 20
50.541500000000042
 30
0.0
 11
99.0
 21
50.0
 31
0.0
  0
LINE
  5
308B
  8
2
 10
105.0
 20
50.0
 30
0.0
 11
104.4585
 21
50.541500000000042
 31
0.0
  0
LINE
  5
308C
  8
2
 10
105.0
 20
50.0
 30
0.0
 11
105.0
 21
59.0
 31
0.0
  0
LINE
  5
308D
  8
2
 10
99.0
 20
50.0
 30
0.0
 11
99.0
 21
59.0
 31
0.0
  0
LINE
  5
308E
  8
2
 10
59.541499999999978
 20
59.0
 30
0.0
 11
59.541499999999978
 21
50.541500000000042
 31
0.0
  0
LINE
  5
308F
  8
2
 10
64.458500000000015
 20
50.541500000000042
 30
0.0
 11
64.458500000000015
 21
59.0
 31
0.0
  0
LINE
  5
3090
  8
2
 10
65.0
 20
59.0
 30
0.0
 11
59.0
 21
59.0
 31
0.0
  0
LINE
  5
3091
  8
2
 10
59.541499999999978
 20
50.541500000000042
 30
0.0
 11
59.0
 21
50.0
 31
0.0
  0
LINE
  5
3092
  8
2
 10
65.0
 20
50.0
 30
0.0
 11
64.458500000000015
 21
50.541500000000042
 31
0.0
  0
LINE
  5
3093
  8
2
 10
64.458500000000015
 20
50.541500000000042
 30
0.0
 11
59.541499999999978
 21
50.541500000000042
 31
0.0
  0
LINE
  5
3096
  8
2
 10
65.0
 20
59.0
 30
0.0
 11
65.0
 21
50.0
 31
0.0
  0
LINE
  5
3097
  8
2
 10
59.0
 20
59.0
 30
0.0
 11
59.0
 21
50.0
 31
0.0
  0
LINE
  5
3098
  8
1
 10
77.5
 20
65.0
 30
0.0
 11
86.5
 21
65.0
 31
0.0
  0
LINE
  5
3099
  8
1
 10
82.0
 20
60.5
 30
0.0
 11
82.0
 21
69.5
 31
0.0
  0
LINE
  5
309A
  8
1
 10
102.0
 20
61.0
 30
0.0
 11
102.0
 21
48.0
 31
0.0
  0
LINE
  5
309B
  8
1
 10
62.0
 20
61.0
 30
0.0
 11
62.0
 21
48.0
 31
0.0
  0
LINE
  5
309C
  8
0
 10
90.0
 20
51.14359353944895
 30
0.0
 11
78.0
 21
58.071796769724422
 31
0.0
  0
CIRCLE
  5
309D
  8
0
 10
82.0
 20
65.0
 30
0.0
 40
2.5
  0
LINE
  5
309E
  8
0
 10
86.0
 20
71.928203230275471
 30
0.0
 11
100.5980762113533
 21
63.5
 31
0.0
  0
ARC
  5
309F
  8
0
 10
82.000000103238278
 20
64.999999940395355
 30
0.0
 40
8.0000000000000036
 50
60.000000853774203
 51
239.99999914622589
  0
LINE
  5
30A0
  8
0
 10
87.714285714285722
 20
52.463251297596678
 30
0.0
 11
87.714285714285722
 21
57.082053451113659
 31
0.0
  0
LINE
  5
30A1
  8
0
 10
87.714285714285722
 20
57.082053451113659
 30
0.0
 11
98.830495217218129
 21
63.5
 31
0.0
  0
LINE
  5
30A2
  8
0
 10
98.830495217218129
 20
63.5
 30
0.0
 11
111.0
 21
63.5
 31
0.0
  0
ARC
  5
30A3
  8
0
 10
111.0
 20
60.5
 30
0.0
 40
3.0
 50
0.0
 51
90.0
  0
LINE
  5
30A4
  8
0
 10
90.0
 20
50.0
 30
0.0
 11
90.0
 21
51.14359353944895
 31
0.0
  0
LINE
  5
30A5
  8
0
 10
114.0
 20
50.0
 30
0.0
 11
90.0
 21
50.0
 31
0.0
  0
LINE
  5
30A6
  8
0
 10
114.0
 20
60.5
 30
0.0
 11
114.0
 21
50.0
 31
0.0
  0
LINE
  5
30A7
  8
0
 10
74.0
 20
51.14359353944895
 30
0.0
 11
82.0
 21
55.762395692966031
 31
0.0
  0
LINE
  5
30A8
  8
0
 10
78.0
 20
71.928203230275471
 30
0.0
 11
63.401923788646677
 21
63.5
 31
0.0
  0
LINE
  5
30A9
  8
0
 10
50.0
 20
50.0
 30
0.0
 11
74.0
 21
50.0
 31
0.0
  0
LINE
  5
30AA
  8
0
 10
65.169504782781871
 20
63.5
 30
0.0
 11
53.0
 21
63.5
 31
0.0
  0
ARC
  5
30AB
  8
0
 10
53.0
 20
60.5
 30
0.0
 40
3.0000000000000031
 50
90.0
 51
180.0
  0
LINE
  5
30AC
  8
0
 10
50.0
 20
60.5
 30
0.0
 11
50.0
 21
50.0
 31
0.0
  0
LINE
  5
30AD
  8
0
 10
74.0
 20
50.0
 30
0.0
 11
74.0
 21
51.14359353944895
 31
0.0
  0
LINE
  5
30AE
  8
0
 10
76.285714285714278
 20
52.463251297596678
 30
0.0
 11
76.285714285714278
 21
57.082053451113659
 31
0.0
  0
LINE
  5
30AF
  8
0
 10
76.285714285714278
 20
57.082053451113659
 30
0.0
 11
65.169504782781871
 21
63.5
 31
0.0
  0
LINE
  5
3401
  8
2
 10
179.5
 20
50.0
 30
0.0
 11
179.5
 21
59.0
 31
0.0
  0
LINE
  5
3402
  8
2
 10
173.5
 20
50.0
 30
0.0
 11
173.5
 21
59.0
 31
0.0
  0
LINE
  5
3403
  8
2
 10
219.5
 20
50.0
 30
0.0
 11
219.5
 21
59.0
 31
0.0
  0
LINE
  5
3404
  8
2
 10
213.5
 20
50.0
 30
0.0
 11
213.5
 21
59.0
 31
0.0
  0
LINE
  5
3424
  8
2
 10
174.04150000000001
 20
59.0
 30
0.0
 11
174.04150000000001
 21
50.541500000000042
 31
0.0
  0
LINE
  5
3425
  8
2
 10
178.95849999999999
 20
50.541500000000042
 30
0.0
 11
178.95849999999999
 21
59.0
 31
0.0
  0
LINE
  5
3426
  8
2
 10
214.04150000000001
 20
59.0
 30
0.0
 11
214.04150000000001
 21
50.541500000000042
 31
0.0
  0
LINE
  5
3427
  8
2
 10
218.95849999999999
 20
50.541500000000042
 30
0.0
 11
218.95849999999999
 21
59.0
 31
0.0
  0
LINE
  5
3428
  8
2
 10
174.04150000000001
 20
50.541500000000042
 30
0.0
 11
173.5
 21
50.0
 31
0.0
  0
LINE
  5
3429
  8
2
 10
179.5
 20
50.0
 30
0.0
 11
178.95849999999999
 21
50.541500000000042
 31
0.0
  0
LINE
  5
342A
  8
2
 10
178.95849999999999
 20
50.541500000000042
 30
0.0
 11
174.04150000000001
 21
50.541500000000042
 31
0.0
  0
LINE
  5
342B
  8
2
 10
214.04150000000001
 20
50.541500000000042
 30
0.0
 11
213.5
 21
50.0
 31
0.0
  0
LINE
  5
342C
  8
2
 10
219.5
 20
50.0
 30
0.0
 11
218.95849999999999
 21
50.541500000000042
 31
0.0
  0
LINE
  5
342D
  8
2
 10
218.95849999999999
 20
50.541500000000042
 30
0.0
 11
214.04150000000001
 21
50.541500000000042
 31
0.0
  0
LINE
  5
3433
  8
1
 10
216.5
 20
61.0
 30
0.0
 11
216.5
 21
48.0
 31
0.0
  0
LINE
  5
3434
  8
1
 10
176.5
 20
61.0
 30
0.0
 11
176.5
 21
48.0
 31
0.0
  0
LINE
  5
343F
  8
0
 10
228.5
 20
63.5
 30
0.0
 11
228.5
 21
72.999999940395355
 31
0.0
  0
LINE
  5
3440
  8
0
 10
228.5
 20
72.999999940395355
 30
0.0
 11
164.5
 21
72.999999940395355
 31
0.0
  0
LINE
  5
3442
  8
0
 10
172.5
 20
72.999999940395355
 30
0.0
 11
172.5
 21
63.5
 31
0.0
  0
LINE
  5
3443
  8
0
 10
164.5
 20
72.999999940395355
 30
0.0
 11
164.5
 21
63.5
 31
0.0
  0
LINE
  5
3445
  8
0
 10
188.5
 20
72.999999940395355
 30
0.0
 11
188.5
 21
63.5
 31
0.0
  0
LINE
  5
3446
  8
0
 10
180.5
 20
72.999999940395355
 30
0.0
 11
180.5
 21
63.5
 31
0.0
  0
LINE
  5
3448
  8
0
 10
196.5
 20
72.999999940395355
 30
0.0
 11
196.5
 21
63.5
 31
0.0
  0
LINE
  5
3449
  8
0
 10
204.5
 20
72.999999940395355
 30
0.0
 11
204.5
 21
63.5
 31
0.0
  0
LINE
  5
344B
  8
0
 10
212.5
 20
72.999999940395355
 30
0.0
 11
212.5
 21
63.5
 31
0.0
  0
LINE
  5
344C
  8
0
 10
220.5
 20
72.999999940395355
 30
0.0
 11
220.5
 21
63.5
 31
0.0
  0
LINE
  5
3451
  8
0
 10
229.0
 20
50.0
 30
0.0
 11
164.0
 21
50.0
 31
0.0
  0
LINE
  5
3452
  8
0
 10
164.0
 20
63.5
 30
0.0
 11
164.0
 21
50.0
 31
0.0
  0
LINE
  5
3453
  8
0
 10
229.0
 20
63.5
 30
0.0
 11
229.0
 21
50.0
 31
0.0
  0
LINE
  5
3455
  8
0
 10
229.0
 20
63.5
 30
0.0
 11
164.0
 21
63.5
 31
0.0
  0
LINE
  5
5989
  8
2
 10
179.5
 20
59.0
 30
0.0
 11
173.5
 21
59.0
 31
0.0
  0
LINE
  5
598A
  8
2
 10
219.5
 20
59.0
 30
0.0
 11
213.5
 21
59.0
 31
0.0
  0
CIRCLE
  5
59D0
  8
2
 10
62.0
 20
135.4999999403953
 30
0.0
 40
3.0
  0
CIRCLE
  5
59D1
  8
2
 10
102.0
 20
135.4999999403953
 30
0.0
 40
3.0
  0
CIRCLE
  5
59D2
  8
2
 10
62.0
 20
175.4999999403953
 30
0.0
 40
3.0
  0
CIRCLE
  5
59D3
  8
2
 10
102.0
 20
175.4999999403953
 30
0.0
 40
3.0
  0
LINE
  5
5AA7
  8
1
 10
45.0
 20
155.4999999403953
 30
0.0
 11
119.0
 21
155.4999999403953
 31
0.0
  0
LINE
  5
5BE0
  8
1
 10
196.5
 20
77.999999940395355
 30
0.0
 11
196.5
 21
45.0
 31
0.0
  0
TEXT
  5
6C58
  8
0
 62
     3
 10
0.0
 20
0.0
 30
0.0
 40
10.0
  1
EFHX6565SS
  7
STANDARD1
  0
ENDSEC
  0
EOF
