  0
SECTION
  2
HEADER
  9
$ACADVER
  1
AC1009
  9
$INSBASE
 10
0.0
 20
0.0
 30
0.0
  9
$EXTMIN
 10
0.0
 20
-2.960436562073669
 30
0.0
  9
$EXTMAX
 10
272.73293169468081
 20
217.01453768119771
 30
0.0
  9
$LIMMIN
 10
0.0
 20
0.0
  9
$LIMMAX
 10
375.0
 20
278.0
  9
$ORTHOMODE
 70
     0
  9
$REGENMODE
 70
     1
  9
$FILLMODE
 70
     1
  9
$QTEXTMODE
 70
     0
  9
$MIRRTEXT
 70
     0
  9
$DRAGMODE
 70
     2
  9
$LTSCALE
 40
10.0
  9
$OSMODE
 70
  3071
  9
$ATTMODE
 70
     1
  9
$TEXTSIZE
 40
0.2
  9
$TRACEWID
 40
0.05
  9
$TEXTSTYLE
  7
STANDARD
  9
$CLAYER
  8
0
  9
$CELTYPE
  6
BYLAYER
  9
$CECOLOR
 62
   256
  9
$DIMSCALE
 40
1.0
  9
$DIMASZ
 40
3.0
  9
$DIMEXO
 40
1.0
  9
$DIMDLI
 40
6.0
  9
$DIMRND
 40
0.0
  9
$DIMDLE
 40
0.0
  9
$DIMEXE
 40
1.0
  9
$DIMTP
 40
495.0
  9
$DIMTM
 40
0.0
  9
$DIMTXT
 40
3.0
  9
$DIMCEN
 40
0.0
  9
$DIMTSZ
 40
0.0
  9
$DIMTOL
 70
     0
  9
$DIMLIM
 70
     0
  9
$DIMTIH
 70
     0
  9
$DIMTOH
 70
     0
  9
$DIMSE1
 70
     0
  9
$DIMSE2
 70
     0
  9
$DIMTAD
 70
     1
  9
$DIMZIN
 70
     0
  9
$DIMBLK
  1

  9
$DIMASO
 70
     0
  9
$DIMSHO
 70
     0
  9
$DIMPOST
  1

  9
$DIMAPOST
  1

  9
$DIMALT
 70
     0
  9
$DIMALTD
 70
     2
  9
$DIMALTF
 40
25.399999999999999
  9
$DIMLFAC
 40
1.0
  9
$DIMTOFL
 70
     1
  9
$DIMTVP
 40
0.0
  9
$DIMTIX
 70
     1
  9
$DIMSOXD
 70
     0
  9
$DIMSAH
 70
     0
  9
$DIMBLK1
  1

  9
$DIMBLK2
  1

  9
$DIMSTYLE
  2
STANDARD
  9
$DIMCLRD
 70
     0
  9
$DIMCLRE
 70
     0
  9
$DIMCLRT
 70
     4
  9
$DIMTFAC
 40
1.0
  9
$DIMGAP
 40
1.0
  9
$LUNITS
 70
     2
  9
$LUPREC
 70
     4
  9
$SKETCHINC
 40
0.1
  9
$FILLETRAD
 40
0.0
  9
$AUNITS
 70
     0
  9
$AUPREC
 70
     0
  9
$MENU
  1
C:\R13\WIN\SUPPORT\ACAD-I
  9
$ELEVATION
 40
0.0
  9
$PELEVATION
 40
0.0
  9
$THICKNESS
 40
0.0
  9
$LIMCHECK
 70
     0
  9
$BLIPMODE
 70
     0
  9
$CHAMFERA
 40
0.0
  9
$CHAMFERB
 40
0.0
  9
$SKPOLY
 70
     0
  9
$TDCREATE
 40
2450834.4199027782
  9
$TDUPDATE
 40
2456598.6579457638
  9
$TDINDWG
 40
0.0612874421
  9
$TDUSRTIMER
 40
0.0612874421
  9
$USRTIMER
 70
     1
  9
$ANGBASE
 50
0.0
  9
$ANGDIR
 70
     0
  9
$PDMODE
 70
     0
  9
$PDSIZE
 40
0.0
  9
$PLINEWID
 40
0.0
  9
$COORDS
 70
     1
  9
$SPLFRAME
 70
     0
  9
$SPLINETYPE
 70
     6
  9
$SPLINESEGS
 70
     8
  9
$ATTDIA
 70
     0
  9
$ATTREQ
 70
     1
  9
$HANDLING
 70
     1
  9
$HANDSEED
  5
30B3
  9
$SURFTAB1
 70
     6
  9
$SURFTAB2
 70
     6
  9
$SURFTYPE
 70
     6
  9
$SURFU
 70
     6
  9
$SURFV
 70
     6
  9
$UCSNAME
  2

  9
$UCSORG
 10
0.0
 20
0.0
 30
0.0
  9
$UCSXDIR
 10
1.0
 20
0.0
 30
0.0
  9
$UCSYDIR
 10
0.0
 20
1.0
 30
0.0
  9
$PUCSNAME
  2

  9
$PUCSORG
 10
0.0
 20
0.0
 30
0.0
  9
$PUCSXDIR
 10
1.0
 20
0.0
 30
0.0
  9
$PUCSYDIR
 10
0.0
 20
1.0
 30
0.0
  9
$USERI1
 70
     4
  9
$USERI2
 70
     1
  9
$USERI3
 70
     1
  9
$USERI4
 70
     0
  9
$USERI5
 70
     0
  9
$USERR1
 40
1.0
  9
$USERR2
 40
3.0
  9
$USERR3
 40
3.0
  9
$USERR4
 40
3.0
  9
$USERR5
 40
10.0
  9
$WORLDVIEW
 70
     1
  9
$SHADEDGE
 70
     3
  9
$SHADEDIF
 70
    70
  9
$TILEMODE
 70
     1
  9
$MAXACTVP
 70
    16
  9
$PLIMCHECK
 70
     0
  9
$PEXTMIN
 10
1.0000000000000000E+020
 20
1.0000000000000000E+020
 30
1.0000000000000000E+020
  9
$PEXTMAX
 10
-1.0000000000000000E+020
 20
-1.0000000000000000E+020
 30
-1.0000000000000000E+020
  9
$PLIMMIN
 10
0.0
 20
0.0
  9
$PLIMMAX
 10
12.0
 20
9.0
  9
$UNITMODE
 70
     0
  9
$VISRETAIN
 70
     0
  9
$PLINEGEN
 70
     0
  9
$PSLTSCALE
 70
     0
  0
ENDSEC
  0
SECTION
  2
TABLES
  0
TABLE
  2
VPORT
 70
     1
  0
VPORT
  2
*ACTIVE
 70
     0
 10
0.0
 20
0.0
 11
1.0
 21
1.0
 12
187.49427839065231
 22
174.97168974450321
 13
0.0
 23
0.0
 14
10.0
 24
10.0
 15
10.0
 25
10.0
 16
0.0
 26
0.0
 36
1.0
 17
0.0
 27
0.0
 37
0.0
 40
359.12869706410731
 41
1.831871345029239
 42
50.0
 43
0.0
 44
0.0
 50
0.0
 51
0.0
 71
     0
 72
   100
 73
     1
 74
     0
 75
     0
 76
     0
 77
     0
 78
     0
  0
ENDTAB
  0
TABLE
  2
LTYPE
 70
     4
  0
LTYPE
  2
CONTINUOUS
 70
     0
  3
Solid Line
 72
    65
 73
     0
 40
0.0
  0
LTYPE
  2
CENTER
 70
     0
  3
____ _ ____ _ ____ _ ____ _ ____ _ ____ _ ____
 72
    65
 73
     4
 40
2.0
 49
1.25
 49
-0.25
 49
0.25
 49
-0.25
  0
LTYPE
  2
HIDDEN
 70
     0
  3
__ __ __ __ __ __ __ __ __ __ __ __ __ __ __ __
 72
    65
 73
     2
 40
0.375
 49
0.25
 49
-0.125
  0
LTYPE
  2
PHANTOM2
 70
     0
  3
___ _ _ ___ _ _ ___ _ _ ___ _ _
 72
    65
 73
     6
 40
1.25
 49
0.625
 49
-0.125
 49
0.125
 49
-0.125
 49
0.125
 49
-0.125
  0
ENDTAB
  0
TABLE
  2
LAYER
 70
     4
  0
LAYER
  2
0
 70
     0
 62
     7
  6
CONTINUOUS
  0
LAYER
  2
1
 70
     0
 62
     1
  6
CENTER
  0
LAYER
  2
3
 70
     0
 62
     3
  6
CONTINUOUS
  0
LAYER
  2
2
 70
     0
 62
     2
  6
HIDDEN
  0
ENDTAB
  0
TABLE
  2
STYLE
 70
     2
  0
STYLE
  2
STANDARD
 70
     0
 40
0.0
 41
1.0
 50
0.0
 71
     0
 42
0.2
  3
SIMPLEX
  4
BIGFONT
  0
STYLE
  2
STANDARD1
 70
     0
 40
0.0
 41
1.0
 50
0.0
 71
     0
 42
3.0
  3
txt
  4

  0
ENDTAB
  0
TABLE
  2
VIEW
 70
     0
  0
ENDTAB
  0
TABLE
  2
UCS
 70
     0
  0
ENDTAB
  0
TABLE
  2
APPID
 70
    38
  0
APPID
  2
ACAD
 70
     0
  0
APPID
  2
GENIUS_GENOBJ_13
 70
     0
  0
APPID
  2
GENIUS_GENODEF_13
 70
     0
  0
APPID
  2
GENIUS_GENOENT_13
 70
     0
  0
APPID
  2
GENIUS_GENOLIS_13
 70
     0
  0
APPID
  2
GENIUS_GENOREF_13
 70
     0
  0
APPID
  2
GENIUS_GENOBJ-N-TIT_13
 70
     0
  0
APPID
  2
GENIUS_GENTITLE_13
 70
     0
  0
APPID
  2
GENIUS_GENZVEED_13
 70
     0
  0
APPID
  2
GENIUS_GENOBJ-N-FIL_13
 70
     0
  0
APPID
  2
GENIUS_GENOBJ-N-CRS_13
 70
     0
  0
APPID
  2
GENIUS_GEFINERT_13
 70
     0
  0
APPID
  2
GENIUS_GENOBJ-F-INER_13
 70
     0
  0
APPID
  2
GENIUS_GENOBJ-N-ZOO_13
 70
     0
  0
APPID
  2
GENIUS_GENZOO_13
 70
     0
  0
APPID
  2
GENIUS_GENOBJ-F-TOL_13
 70
     0
  0
APPID
  2
GENIUS_GENOBJ-N-RSSYM_13
 70
     0
  0
APPID
  2
GENIUS_GENSYMENT_13
 70
     0
  0
APPID
  2
GENIUS_GENBH_13
 70
     0
  0
APPID
  2
GENIUS_GENOBJ-NBEHI-BHF_13
 70
     0
  0
APPID
  2
GENIUS_GENOBJ-NBEHI-BHB_13
 70
     0
  0
APPID
  2
GENIUS_GENOBJ-F-PART_13
 70
     0
  0
APPID
  2
GENIUS_GEFSTDP_13
 70
     0
  0
APPID
  2
GENIUS_GENOBJ-N-LEADER_13
 70
     0
  0
APPID
  2
GENIUS_GENOBJ-N-REV_13
 70
     0
  0
APPID
  2
GENIUS_GENCFG_13
 70
     0
  0
APPID
  2
GENIUS_GENCFG0_13
 70
     0
  0
APPID
  2
GENIUS_GENCFG1_13
 70
     0
  0
APPID
  2
GENIUS_GENCFG2_13
 70
     0
  0
APPID
  2
GENIUS_GENCFG3_13
 70
     0
  0
APPID
  2
GENIUS_GEVCFG0_13
 70
     0
  0
APPID
  2
GENIUS_GENCFG4_13
 70
     0
  0
APPID
  2
GENIUS_GENOBJ-N-REC_13
 70
     0
  0
APPID
  2
GENIUS_GENFIL_13
 70
     0
  0
APPID
  2
GENIUS_GENOBJ-N-CHA_13
 70
     0
  0
APPID
  2
GENIUS_GENREC_13
 70
     0
  0
APPID
  2
ACAD_MLEADERVER
 70
     0
  0
APPID
  2
ACAD_NAV_VCDISPLAY
 70
     0
  0
ENDTAB
  0
TABLE
  2
DIMSTYLE
 70
     1
  0
DIMSTYLE
  2
STANDARD
 70
     0
  3

  4

  5

  6

  7

 40
1.0
 41
0.18
 42
0.0625
 43
0.38
 44
0.18
 45
0.0
 46
0.0
 47
0.0
 48
0.0
140
0.18
141
0.09
142
0.0
143
25.399999999999999
144
1.0
145
0.0
146
1.0
147
0.09
 71
     0
 72
     0
 73
     1
 74
     1
 75
     0
 76
     0
 77
     0
 78
     0
170
     0
171
     2
172
     0
173
     0
174
     0
175
     0
176
     0
177
     0
178
     0
  0
ENDTAB
  0
ENDSEC
  0
SECTION
  2
BLOCKS
  0
BLOCK
  8
0
  2
$MODEL_SPACE
 70
     0
 10
0.0
 20
0.0
 30
0.0
  3
$MODEL_SPACE
  1

  0
ENDBLK
  5
2A76
  8
0
  0
BLOCK
 67
     1
  8
0
  2
$PAPER_SPACE
 70
     0
 10
0.0
 20
0.0
 30
0.0
  3
$PAPER_SPACE
  1

  0
ENDBLK
  5
2A74
 67
     1
  8
0
  0
BLOCK
  8
0
  2
STDGX5
 70
     0
 10
0.0
 20
0.0
 30
0.0
  3
STDGX5
  1

  0
ENDBLK
  5
4F
  8
0
  0
ENDSEC
  0
SECTION
  2
ENTITIES
  0
INSERT
  5
DE
  8
0
  2
STDGX5
 10
0.0
 20
0.0
 30
0.0
  0
INSERT
  5
DF
  8
0
  2
STDGX5
 10
0.0
 20
0.0
 30
0.0
  0
INSERT
  5
15C
  8
0
  2
STDGX5
 10
275.0
 20
0.0
 30
0.0
  0
INSERT
  5
15D
  8
0
  2
STDGX5
 10
275.0
 20
0.0
 30
0.0
  0
INSERT
  5
314
  8
0
  2
STDGX5
 10
0.0
 20
0.0
 30
0.0
  0
INSERT
  5
315
  8
0
  2
STDGX5
 10
0.0
 20
0.0
 30
0.0
  0
INSERT
  5
316
  8
0
  2
STDGX5
 10
275.0
 20
0.0
 30
0.0
  0
INSERT
  5
317
  8
0
  2
STDGX5
 10
275.0
 20
0.0
 30
0.0
  0
INSERT
  5
4EF
  8
0
  2
STDGX5
 10
0.0
 20
0.0
 30
0.0
  0
INSERT
  5
4F0
  8
0
  2
STDGX5
 10
0.0
 20
0.0
 30
0.0
  0
INSERT
  5
4F1
  8
0
  2
STDGX5
 10
275.0
 20
0.0
 30
0.0
  0
INSERT
  5
4F2
  8
0
  2
STDGX5
 10
275.0
 20
0.0
 30
0.0
  0
ARC
  5
2D98
  8
0
 10
124.88667245061831
 20
108.9624347314989
 30
0.0
 40
1.4778329999999991
 50
270.0
 51
354.6451400000015
  0
ARC
  5
2D99
  8
0
 10
135.3187774506182
 20
107.9846027314989
 30
0.0
 40
9.0
 50
0.0000930000002405
 51
174.6451400000015
  0
LINE
  5
2D9A
  8
0
 10
100.3187774506183
 20
97.484602731498853
 30
0.0
 11
130.95765645061829
 21
97.484602731498853
 31
0.0
  0
ARC
  5
2D9B
  8
0
 10
127.79659745061829
 20
210.5367046811977
 30
0.0
 40
1.4778329999999991
 50
90.0
 51
180.0
  0
ARC
  5
2D9C
  8
0
 10
127.79659745061829
 20
201.48645868119769
 30
0.0
 40
1.4778329999999991
 50
180.0
 51
270.0
  0
LINE
  5
2D9D
  8
0
 10
125.3187644506183
 20
199.02041968119769
 30
0.0
 11
135.31876445061829
 21
199.02041968119769
 31
0.0
  0
ARC
  5
2D9E
  8
0
 10
127.79659745061829
 20
185.04261668119781
 30
0.0
 40
1.4778329999999991
 50
90.0
 51
180.0
  0
ARC
  5
2D9F
  8
0
 10
127.79659745061829
 20
176.4864586811978
 30
0.0
 40
1.4778329999999991
 50
180.0
 51
270.0
  0
LINE
  5
2DA0
  8
0
 10
125.3187644506183
 20
174.02041968119769
 30
0.0
 11
135.31876445061829
 21
174.02041968119781
 31
0.0
  0
LINE
  5
2DA1
  8
0
 10
125.3187644506183
 20
187.5085976811977
 30
0.0
 11
135.31876445061829
 21
187.50859768119761
 31
0.0
  0
LINE
  5
2DA2
  8
0
 10
110.1709814506182
 20
162.0145086811977
 30
0.0
 11
142.8409324506182
 21
162.0145086811977
 31
0.0
  0
ARC
  5
2DA3
  8
0
 10
111.93425145061831
 20
171.86672568119781
 30
0.0
 40
9.8522169999999996
 50
180.0
 51
270.0
  0
ARC
  5
2DA4
  8
0
 10
110.1709814506182
 20
171.86672568119781
 30
0.0
 40
9.8522169999999996
 50
180.0
 51
270.0
  0
ARC
  5
2DA5
  8
0
 10
111.93425145061831
 20
202.1622916811977
 30
0.0
 40
9.8522169999999996
 50
90.0
 51
180.0
  0
ARC
  5
2DA6
  8
0
 10
110.1709814506182
 20
202.1622916811977
 30
0.0
 40
9.8522169999999996
 50
90.0
 51
180.0
  0
LINE
  5
2DA7
  8
0
 10
124.3187644506183
 20
210.53667568119769
 30
0.0
 11
124.3187644506183
 21
200.02041968119769
 31
0.0
  0
LINE
  5
2DA8
  8
0
 10
126.3187654506183
 20
201.4864586811976
 30
0.0
 11
126.3187654506183
 21
210.5367046811977
 31
0.0
  0
LINE
  5
2DA9
  8
3
 10
104.56352845061819
 20
184.87640168119771
 30
0.0
 11
104.56352845061819
 21
183.5964266811977
 31
0.0
  0
LINE
  5
2DAA
  8
3
 10
104.7476194506181
 20
184.8989246811976
 30
0.0
 11
104.7476194506181
 21
183.96093768119781
 31
0.0
  0
LINE
  5
2DAB
  8
3
 10
105.5073594506182
 20
184.4634666811977
 30
0.0
 11
105.5073594506182
 21
183.96093768119781
 31
0.0
  0
ARC
  5
2DAC
  8
3
 10
104.0602384506182
 20
184.03760368119779
 30
0.0
 40
0.978204
 50
59.035687999999311
 51
214.838177000001
  0
LINE
  5
2DAD
  8
0
 10
100.3187644506183
 20
171.86672568119769
 30
0.0
 11
100.3187644506183
 21
202.16229168119759
 31
0.0
  0
LINE
  5
2DAE
  8
0
 10
102.0820344506182
 20
202.16229168119759
 30
0.0
 11
102.0820344506182
 21
171.86672568119769
 31
0.0
  0
LINE
  5
2DAF
  8
0
 10
126.3187654506183
 20
176.48645868119769
 30
0.0
 11
126.3187654506183
 21
185.0426166811977
 31
0.0
  0
LINE
  5
2DB0
  8
0
 10
124.3187644506183
 20
186.50859768119761
 30
0.0
 11
124.3187644506183
 21
175.02041968119769
 31
0.0
  0
LINE
  5
2DB1
  8
1
 10
119.1443009021673
 20
172.11661418022109
 30
0.0
 11
105.731158753391
 21
172.11661418022109
 31
0.0
  0
LINE
  5
2DB2
  8
3
 10
103.5495674506182
 20
182.7482746811977
 30
0.0
 11
104.2946974506182
 21
182.7482746811977
 31
0.0
  0
ARC
  5
2DB3
  8
3
 10
103.5495674506182
 20
182.16385968119769
 30
0.0
 40
0.5844160000000001
 50
90.0
 51
143.13010199999869
  0
ARC
  5
2DB4
  8
3
 10
-104.0784634506182
 20
184.34218968119779
 30
0.0
 40
0.029221
210
0.0
220
0.0
230
-1.0
 50
90.0
 51
180.0
  0
ARC
  5
2DB5
  8
3
 10
-104.0784634506182
 20
184.1376446811978
 30
0.0
 40
0.233766
210
0.0
220
0.0
230
-1.0
 50
0.0
 51
90.0
  0
ARC
  5
2DB6
  8
3
 10
-104.42911245061821
 20
184.02531968119769
 30
0.0
 40
0.5844160000000001
210
0.0
220
0.0
230
-1.0
 50
303.36701300000112
 51
0.0
  0
ARC
  5
2DB7
  8
3
 10
103.41550245061821
 20
183.1658316811978
 30
0.0
 40
0.350649
 50
116.807868
 51
161.98954300000059
  0
LINE
  5
2DB8
  8
3
 10
103.8446974506182
 20
184.13764468119771
 30
0.0
 11
103.8446974506182
 21
184.02531968119769
 31
0.0
  0
LINE
  5
2DB9
  8
3
 10
104.10768445061819
 20
184.34218968119779
 30
0.0
 11
104.10768445061819
 21
183.5372356811977
 31
0.0
  0
LINE
  5
2DBA
  8
3
 10
103.0820344506182
 20
183.27424868119769
 30
0.0
 11
103.0820344506182
 21
182.5145086811977
 31
0.0
  0
CIRCLE
  5
2DBB
  8
3
 10
105.3237144506182
 20
182.7787066811978
 30
0.0
 40
0.131494
  0
ARC
  5
2DBC
  8
3
 10
104.2946974506182
 20
183.96093768119781
 30
0.0
 40
0.4529220000000001
 50
306.40921800000001
 51
0.0
  0
ARC
  5
2DBD
  8
3
 10
104.2946974506182
 20
183.96093768119781
 30
0.0
 40
1.2126619999999999
 50
270.0
 51
0.0
  0
LINE
  5
2DBE
  8
1
 10
112.3187644506183
 20
179.62095262240291
 30
0.0
 11
112.3187644506183
 21
164.28588867287689
 31
0.0
  0
ARC
  5
2DBF
  8
0
 10
125.3187644506183
 20
175.02041968119781
 30
0.0
 40
1.0
 50
180.0
 51
270.0
  0
LINE
  5
2DC0
  8
1
 10
119.2651397833164
 20
202.11661418022129
 30
0.0
 11
105.4894805032924
 21
202.11661418022129
 31
0.0
  0
ARC
  5
2DC1
  8
3
 10
103.3742424506181
 20
186.7690536811977
 30
0.0
 40
0.292208
 50
180.0
 51
270.0
  0
LINE
  5
2DC2
  8
3
 10
103.0820344506182
 20
186.7690536811977
 30
0.0
 11
103.0820344506182
 21
187.23658668119771
 31
0.0
  0
LINE
  5
2DC3
  8
3
 10
103.3742424506181
 20
186.47684668119771
 30
0.0
 11
103.7591264506182
 21
186.47684668119771
 31
0.0
  0
LINE
  5
2DC4
  8
3
 10
103.8417754506181
 20
186.4184046811977
 30
0.0
 11
103.8417754506181
 21
187.23658668119771
 31
0.0
  0
ARC
  5
2DC5
  8
3
 10
104.2946974506182
 20
187.23658668119771
 30
0.0
 40
0.4529220000000001
 50
126.409218
 51
180.0
  0
LINE
  5
2DC6
  8
3
 10
104.0258664506182
 20
186.5352876811977
 30
0.0
 11
104.0258664506182
 21
187.6010976811977
 31
0.0
  0
ARC
  5
2DC7
  8
3
 10
104.29996345061819
 20
186.9297686811978
 30
0.0
 40
1.636363999999999
 50
90.0
 51
138.09810799999821
  0
ARC
  5
2DC8
  8
3
 10
103.8856064506182
 20
185.91288568119779
 30
0.0
 40
0.043831
 50
180.0
 51
320.75318400000123
  0
LINE
  5
2DC9
  8
3
 10
103.8417754506181
 20
186.33074268119771
 30
0.0
 11
103.8417754506181
 21
185.91288568119779
 31
0.0
  0
LINE
  5
2DCA
  8
3
 10
103.0820344506182
 20
186.33074268119771
 30
0.0
 11
103.0820344506182
 21
185.9804876811977
 31
0.0
  0
LINE
  5
2DCB
  8
3
 10
103.0820344506182
 20
186.33074268119771
 30
0.0
 11
103.8417754506181
 21
186.33074268119771
 31
0.0
  0
ARC
  5
2DCC
  8
3
 10
103.7591264506182
 20
186.38918368119781
 30
0.0
 40
0.087662
 50
19.47122100000179
 51
90.0
  0
LINE
  5
2DCD
  8
3
 10
103.0820344506182
 20
188.02262568119781
 30
0.0
 11
103.0820344506182
 21
188.9869116811978
 31
0.0
  0
ARC
  5
2DCE
  8
3
 10
103.3742424506181
 20
189.76381968119779
 30
0.0
 40
0.292208
 50
180.0
 51
267.58742199999892
  0
LINE
  5
2DCF
  8
3
 10
103.3619424506182
 20
189.4718716811978
 30
0.0
 11
103.7625984506182
 21
189.45499068119781
 31
0.0
  0
ARC
  5
2DD0
  8
3
 10
104.2946974506182
 20
190.30184668119779
 30
0.0
 40
0.4529220000000001
 50
126.409218
 51
180.0
  0
LINE
  5
2DD1
  8
3
 10
104.0258664506182
 20
189.6005476811977
 30
0.0
 11
104.0258664506182
 21
190.6663576811977
 31
0.0
  0
LINE
  5
2DD2
  8
3
 10
103.8417754506181
 20
189.39600268119781
 30
0.0
 11
103.8417754506181
 21
190.30184668119779
 31
0.0
  0
LINE
  5
2DD3
  8
3
 10
103.0820344506182
 20
189.7638196811977
 30
0.0
 11
103.0820344506182
 21
190.30184668119779
 31
0.0
  0
ARC
  5
2DD4
  8
3
 10
103.75890845061819
 20
189.36740668119779
 30
0.0
 40
0.087662
 50
19.038680000000301
 51
87.587421999998838
  0
ARC
  5
2DD5
  8
3
 10
104.3594204506182
 20
187.02911868119779
 30
0.0
 40
2.337661999999999
 50
90.0
 51
123.1229400000006
  0
LINE
  5
2DD6
  8
3
 10
104.56352845061819
 20
186.5352876811977
 30
0.0
 11
104.56352845061819
 21
187.6010976811977
 31
0.0
  0
ARC
  5
2DD7
  8
3
 10
104.2946974506182
 20
187.23658668119771
 30
0.0
 40
0.4529220000000001
 50
0.0
 51
53.590782000000019
  0
LINE
  5
2DD8
  8
3
 10
104.7476194506181
 20
186.4184046811977
 30
0.0
 11
104.7476194506181
 21
187.23658668119771
 31
0.0
  0
LINE
  5
2DD9
  8
3
 10
104.7476194506181
 20
186.4184046811977
 30
0.0
 11
105.5073594506182
 21
186.4184046811977
 31
0.0
  0
LINE
  5
2DDA
  8
3
 10
105.5073594506182
 20
186.4184046811977
 30
0.0
 11
105.5073594506182
 21
187.23658668119771
 31
0.0
  0
LINE
  5
2DDB
  8
3
 10
104.7330084506182
 20
189.48366468119769
 30
0.0
 11
105.5073594506182
 21
189.48366468119769
 31
0.0
  0
LINE
  5
2DDC
  8
3
 10
104.56352845061819
 20
189.6005476811977
 30
0.0
 11
104.56352845061819
 21
190.6663576811977
 31
0.0
  0
ARC
  5
2DDD
  8
3
 10
104.2946974506182
 20
190.30184668119779
 30
0.0
 40
0.4529220000000001
 50
0.0
 51
53.590782000000019
  0
LINE
  5
2DDE
  8
3
 10
104.7476194506181
 20
189.48366468119769
 30
0.0
 11
104.7476194506181
 21
190.30184668119779
 31
0.0
  0
LINE
  5
2DDF
  8
3
 10
105.5073594506182
 20
189.48366468119769
 30
0.0
 11
105.5073594506182
 21
190.30184668119779
 31
0.0
  0
LINE
  5
2DE0
  8
3
 10
106.22034645061819
 20
188.5661316811977
 30
0.0
 11
106.22034645061819
 21
189.36678168119769
 31
0.0
  0
ARC
  5
2DE1
  8
3
 10
104.6599564506181
 20
185.39567768119781
 30
0.0
 40
0.087662
 50
0.0
 51
141.3061910000005
  0
ARC
  5
2DE2
  8
3
 10
105.15671045061811
 20
184.46346668119779
 30
0.0
 40
0.350649
 50
0.0
 51
85.000000000000227
  0
LINE
  5
2DE3
  8
3
 10
105.1872714506182
 20
184.81278168119769
 30
0.0
 11
104.8630174506182
 21
184.84114968119769
 31
0.0
  0
ARC
  5
2DE4
  8
3
 10
-104.8782984506182
 20
185.01580768119771
 30
0.0
 40
0.175325
210
0.0
220
0.0
230
-1.0
 50
270.0
 51
318.18968500000187
  0
LINE
  5
2DE5
  8
3
 10
104.7476194506181
 20
184.98658668119771
 30
0.0
 11
105.5073594506182
 21
184.98658668119771
 31
0.0
  0
LINE
  5
2DE6
  8
3
 10
104.7476194506181
 20
184.98658668119771
 30
0.0
 11
104.7476194506181
 21
185.39567768119781
 31
0.0
  0
LINE
  5
2DE7
  8
3
 10
105.5073594506182
 20
185.31903068119769
 30
0.0
 11
105.5073594506182
 21
184.98658668119771
 31
0.0
  0
ARC
  5
2DE8
  8
3
 10
103.92983245061821
 20
185.98048768119779
 30
0.0
 40
0.8477979999999998
 50
180.0
 51
321.30619100000052
  0
ARC
  5
2DE9
  8
3
 10
104.61253045061819
 20
185.31903068119769
 30
0.0
 40
0.894829
 50
0.0
 51
140.75318400000111
  0
LINE
  5
2DEA
  8
3
 10
104.0258664506182
 20
186.5352876811977
 30
0.0
 11
104.56352845061819
 21
186.5352876811977
 31
0.0
  0
ARC
  5
2DEB
  8
3
 10
104.2946974506182
 20
187.23658668119771
 30
0.0
 40
1.2126619999999999
 50
0.0
 51
180.0
  0
LINE
  5
2DEC
  8
3
 10
104.29996345061819
 20
188.5661316811977
 30
0.0
 11
106.22034645061819
 21
188.5661316811977
 31
0.0
  0
LINE
  5
2DED
  8
3
 10
104.0258664506182
 20
189.6005476811977
 30
0.0
 11
104.56352845061819
 21
189.6005476811977
 31
0.0
  0
LINE
  5
2DEE
  8
3
 10
104.3594204506182
 20
189.36678168119769
 30
0.0
 11
106.22034645061819
 21
189.36678168119769
 31
0.0
  0
ARC
  5
2DEF
  8
3
 10
104.2946974506182
 20
190.30184668119779
 30
0.0
 40
1.2126619999999999
 50
0.0
 51
180.0
  0
LINE
  5
2DF0
  8
1
 10
112.3187644506183
 20
209.4951501570788
 30
0.0
 11
112.3187644506183
 21
194.2808350008942
 31
0.0
  0
ARC
  5
2DF1
  8
0
 10
125.3187644506183
 20
186.5085976811977
 30
0.0
 40
1.0
 50
90.0
 51
180.0
  0
ARC
  5
2DF2
  8
0
 10
125.3187644506183
 20
200.02041968119781
 30
0.0
 40
1.0
 50
180.0
 51
270.0
  0
LINE
  5
2DF3
  8
0
 10
110.1709814506182
 20
212.0145086811977
 30
0.0
 11
122.8409324506182
 21
212.0145086811977
 31
0.0
  0
ARC
  5
2DF4
  8
0
 10
122.8409324506182
 20
210.53667568119781
 30
0.0
 40
1.4778329999999991
 50
0.0
 51
90.0
  0
LINE
  5
2DF5
  8
2
 10
106.54527445061829
 20
105.4845887314989
 30
0.0
 11
118.09227945061831
 21
105.4845887314989
 31
0.0
  0
LINE
  5
2DF6
  8
2
 10
109.91877745061829
 20
98.084588731498854
 30
0.0
 11
112.3187774506183
 21
98.084588731498854
 31
0.0
  0
LINE
  5
2DF7
  8
0
 10
102.8009504506183
 20
107.4846027314988
 30
0.0
 11
124.88667245061831
 21
107.4846027314988
 31
0.0
  0
LINE
  5
2DF8
  8
2
 10
109.91877745061829
 20
105.4845887314989
 30
0.0
 11
109.91877745061829
 21
98.084588731498854
 31
0.0
  0
LINE
  5
2DF9
  8
2
 10
109.3187774506183
 20
105.4845887314989
 30
0.0
 11
109.3187774506183
 21
97.484588731498846
 31
0.0
  0
LINE
  5
2DFA
  8
2
 10
106.54527445061829
 20
105.4845887314989
 30
0.0
 11
106.54527445061829
 21
101.4845887314988
 31
0.0
  0
LINE
  5
2DFB
  8
0
 10
100.4684694506182
 20
101.2891157314988
 30
0.0
 11
101.3455694506183
 21
106.2633927314988
 31
0.0
  0
ARC
  5
2DFC
  8
0
 10
110.1710094506182
 20
99.57829573149894
 30
0.0
 40
9.8522169999999996
 50
170.00000000000139
 51
180.0
  0
LINE
  5
2DFD
  8
0
 10
100.3187924506182
 20
97.484588731498846
 30
0.0
 11
100.3187924506182
 21
99.578295731498883
 31
0.0
  0
LINE
  5
2DFE
  8
2
 10
107.8187774506183
 20
101.4845887314988
 30
0.0
 11
107.8187774506183
 21
97.484588731498846
 31
0.0
  0
LINE
  5
2DFF
  8
2
 10
109.3187774506183
 20
97.484588731498846
 30
0.0
 11
109.91877745061829
 21
98.084588731498854
 31
0.0
  0
LINE
  5
2E00
  8
2
 10
106.54527445061829
 20
101.4845887314988
 30
0.0
 11
107.8187774506183
 21
101.4845887314988
 31
0.0
  0
ARC
  5
2E01
  8
0
 10
102.8009504506182
 20
106.00676973149881
 30
0.0
 40
1.4778329999999991
 50
90.0
 51
170.00000000000139
  0
LINE
  5
2E02
  8
2
 10
114.7187774506183
 20
105.4845887314989
 30
0.0
 11
114.7187774506183
 21
98.084588731498854
 31
0.0
  0
LINE
  5
2E03
  8
1
 10
112.3187774506183
 20
109.9846027314988
 30
0.0
 11
112.3187774506183
 21
94.984602731498853
 31
0.0
  0
LINE
  5
2E04
  8
2
 10
118.0922804506183
 20
105.4845887314989
 30
0.0
 11
118.0922804506183
 21
101.4845887314988
 31
0.0
  0
LINE
  5
2E05
  8
2
 10
115.3187774506183
 20
105.4845887314989
 30
0.0
 11
115.3187774506183
 21
97.484588731498846
 31
0.0
  0
LINE
  5
2E06
  8
0
 10
123.8680964506183
 20
105.9294257314988
 30
0.0
 11
123.8680964506183
 21
97.484602731498853
 31
0.0
  0
LINE
  5
2E07
  8
2
 10
115.3187774506183
 20
97.484588731498846
 30
0.0
 11
114.7187774506183
 21
98.084588731498854
 31
0.0
  0
LINE
  5
2E08
  8
2
 10
114.7187774506183
 20
98.084588731498854
 30
0.0
 11
112.3187774506183
 21
98.084588731498854
 31
0.0
  0
LINE
  5
2E09
  8
2
 10
118.0922804506183
 20
101.4845887314988
 30
0.0
 11
116.8187774506183
 21
101.4845887314988
 31
0.0
  0
LINE
  5
2E0A
  8
2
 10
116.8187774506183
 20
101.4845887314988
 30
0.0
 11
116.8187774506183
 21
97.484588731498846
 31
0.0
  0
ARC
  5
2E0B
  8
0
 10
122.39228945061831
 20
106.00676973149881
 30
0.0
 40
1.4778329999999991
 50
357.00000000000091
 51
90.0
  0
LINE
  5
2E0C
  8
1
 10
135.31876445061829
 20
217.01453768119771
 30
0.0
 11
135.31876445061829
 21
157.01450868119781
 31
0.0
  0
ARC
  5
2E0D
  8
0
 10
158.7032784506182
 20
171.8667546811977
 30
0.0
 40
9.8522169999999996
 50
270.0
 51
0.0
  0
ARC
  5
2E0E
  8
0
 10
160.46654845061829
 20
171.8667546811977
 30
0.0
 40
9.8522169999999996
 50
270.0
 51
0.0
  0
LINE
  5
2E0F
  8
0
 10
145.77103745061831
 20
200.69171568119771
 30
0.0
 11
145.77103745061831
 21
211.25091468119771
 31
0.0
  0
ARC
  5
2E10
  8
0
 10
158.7032784506182
 20
202.16232068119771
 30
0.0
 40
9.8522169999999996
 50
0.0
 51
90.0
  0
ARC
  5
2E11
  8
0
 10
160.46654845061829
 20
202.16232068119771
 30
0.0
 40
9.8522169999999996
 50
0.0
 51
90.0
  0
LINE
  5
2E12
  8
1
 10
165.0631650063138
 20
202.11661418022129
 30
0.0
 11
151.52918397638851
 21
202.11661418022129
 31
0.0
  0
LINE
  5
2E13
  8
1
 10
164.94232563736421
 20
172.11661418022109
 30
0.0
 11
151.65002285753761
 21
172.11661418022109
 31
0.0
  0
LINE
  5
2E14
  8
0
 10
160.46654845061829
 20
162.01453768119771
 30
0.0
 11
147.79659745061829
 21
162.01453768119771
 31
0.0
  0
LINE
  5
2E15
  8
0
 10
145.77103745061831
 20
175.1736486811977
 30
0.0
 11
145.77103745061831
 21
186.1099626811976
 31
0.0
  0
LINE
  5
2E16
  8
0
 10
145.31876545061829
 20
175.00862668119771
 30
0.0
 11
135.31876445061829
 21
175.00862668119771
 31
0.0
  0
LINE
  5
2E17
  8
0
 10
135.31876445061829
 20
174.02041968119769
 30
0.0
 11
142.8409324506182
 21
174.02041968119769
 31
0.0
  0
LINE
  5
2E18
  8
0
 10
135.31876445061829
 20
175.00862668119771
 30
0.0
 11
127.79659745061829
 21
175.00862668119771
 31
0.0
  0
LINE
  5
2E19
  8
1
 10
158.31876445061829
 20
179.62095262240291
 30
0.0
 11
158.31876445061829
 21
164.76888296754171
 31
0.0
  0
ARC
  5
2E1A
  8
0
 10
142.8409324506182
 20
172.54258768119769
 30
0.0
 40
1.4778329999999991
 50
0.0
 51
90.0
  0
LINE
  5
2E1B
  8
0
 10
146.31876545061829
 20
163.49237068119771
 30
0.0
 11
146.31876545061829
 21
174.00862668119771
 31
0.0
  0
ARC
  5
2E1C
  8
0
 10
142.8409324506182
 20
163.4923406811977
 30
0.0
 40
1.4778329999999991
 50
270.0
 51
0.0
  0
LINE
  5
2E1D
  8
0
 10
144.31876445061829
 20
172.54258768119769
 30
0.0
 11
144.31876445061829
 21
163.49234068119759
 31
0.0
  0
ARC
  5
2E1E
  8
0
 10
147.79659745061829
 20
163.49237068119771
 30
0.0
 40
1.4778329999999991
 50
180.0
 51
270.0
  0
ARC
  5
2E1F
  8
0
 10
145.31876545061829
 20
174.00862668119771
 30
0.0
 40
1.0
 50
0.0
 51
90.0
  0
LINE
  5
2E20
  8
0
 10
145.31876545061829
 20
200.00862668119771
 30
0.0
 11
135.31876445061829
 21
200.00862668119771
 31
0.0
  0
LINE
  5
2E21
  8
0
 10
135.31876445061829
 20
199.02041968119769
 30
0.0
 11
142.8409324506182
 21
199.02041968119769
 31
0.0
  0
LINE
  5
2E22
  8
0
 10
142.8409324506182
 20
187.5085976811977
 30
0.0
 11
135.31876445061829
 21
187.5085976811977
 31
0.0
  0
LINE
  5
2E23
  8
0
 10
145.31876545061829
 20
186.52044868119771
 30
0.0
 11
135.31876445061829
 21
186.52044868119771
 31
0.0
  0
LINE
  5
2E24
  8
0
 10
135.31876445061829
 20
186.52044868119771
 30
0.0
 11
127.79659745061829
 21
186.52044868119771
 31
0.0
  0
LINE
  5
2E25
  8
0
 10
135.31876445061829
 20
200.00862668119771
 30
0.0
 11
127.79659745061829
 21
200.00862668119771
 31
0.0
  0
LINE
  5
2E26
  8
1
 10
158.31876445061829
 20
209.7366474508614
 30
0.0
 11
158.3187644506184
 21
194.28083500089431
 31
0.0
  0
LINE
  5
2E27
  8
0
 10
144.31876445061829
 20
197.54258768119769
 30
0.0
 11
144.31876445061829
 21
188.98642968119771
 31
0.0
  0
LINE
  5
2E28
  8
0
 10
146.31876545061829
 20
187.52044868119771
 30
0.0
 11
146.31876545061829
 21
199.00862668119771
 31
0.0
  0
ARC
  5
2E29
  8
0
 10
142.8409324506182
 20
188.98642968119771
 30
0.0
 40
1.4778329999999991
 50
270.0
 51
0.0
  0
ARC
  5
2E2A
  8
0
 10
145.31876545061829
 20
187.52044868119779
 30
0.0
 40
1.0
 50
270.0
 51
0.0
  0
ARC
  5
2E2B
  8
0
 10
142.8409324506182
 20
197.54258768119769
 30
0.0
 40
1.4778329999999991
 50
0.0
 51
90.0
  0
ARC
  5
2E2C
  8
0
 10
145.31876545061829
 20
199.00862668119771
 30
0.0
 40
1.0
 50
0.0
 51
90.0
  0
LINE
  5
2E2D
  8
3
 10
165.1301694506183
 20
184.5453526811977
 30
0.0
 11
165.1301694506183
 21
183.72717068119761
 31
0.0
  0
LINE
  5
2E2E
  8
3
 10
165.88990945061829
 20
184.5453526811977
 30
0.0
 11
165.88990945061829
 21
183.72717068119761
 31
0.0
  0
ARC
  5
2E2F
  8
3
 10
167.2632864506183
 20
184.26519768119769
 30
0.0
 40
0.292208
 50
0.0
 51
87.587421999998838
  0
LINE
  5
2E30
  8
3
 10
166.79575345061829
 20
184.63301468119761
 30
0.0
 11
166.79575345061829
 21
183.72717068119761
 31
0.0
  0
LINE
  5
2E31
  8
0
 10
170.31876545061829
 20
202.16232068119771
 30
0.0
 11
170.31876545061829
 21
171.86675468119759
 31
0.0
  0
LINE
  5
2E32
  8
0
 10
168.5554954506182
 20
171.86675468119759
 30
0.0
 11
168.5554954506182
 21
202.16232068119771
 31
0.0
  0
ARC
  5
2E33
  8
3
 10
166.34283145061821
 20
183.72717068119761
 30
0.0
 40
1.2126619999999999
 50
180.0
 51
0.0
  0
LINE
  5
2E34
  8
3
 10
166.6116624506183
 20
184.4284696811977
 30
0.0
 11
166.0740004506182
 21
184.4284696811977
 31
0.0
  0
LINE
  5
2E35
  8
3
 10
166.0740004506182
 20
184.4284696811977
 30
0.0
 11
166.0740004506182
 21
183.36265968119761
 31
0.0
  0
ARC
  5
2E36
  8
3
 10
166.34283145061821
 20
183.72717068119761
 30
0.0
 40
0.4529220000000001
 50
180.0
 51
233.5907820000001
  0
ARC
  5
2E37
  8
3
 10
166.34283145061821
 20
183.72717068119761
 30
0.0
 40
0.4529220000000001
 50
306.40921800000001
 51
0.0
  0
LINE
  5
2E38
  8
3
 10
166.6116624506183
 20
184.4284696811977
 30
0.0
 11
166.6116624506183
 21
183.36265968119761
 31
0.0
  0
LINE
  5
2E39
  8
3
 10
167.5554944506182
 20
184.26519768119761
 30
0.0
 11
167.5554944506182
 21
183.72717068119761
 31
0.0
  0
LINE
  5
2E3A
  8
3
 10
167.0879614506182
 20
191.28074268119761
 30
0.0
 11
166.34283145061821
 21
191.28074268119761
 31
0.0
  0
ARC
  5
2E3B
  8
3
 10
166.57729045061819
 20
189.99141368119771
 30
0.0
 40
0.978204
 50
239.03568799999931
 51
34.838177000000918
  0
ARC
  5
2E3C
  8
3
 10
166.34283145061821
 20
186.79243068119769
 30
0.0
 40
1.2126619999999999
 50
180.0
 51
0.0
  0
ARC
  5
2E3D
  8
3
 10
166.70769645061819
 20
188.04852968119769
 30
0.0
 40
0.8477979999999998
 50
0.0
 51
141.3061910000005
  0
LINE
  5
2E3E
  8
3
 10
167.2632864506183
 20
187.55217068119759
 30
0.0
 11
166.87840245061821
 21
187.55217068119759
 31
0.0
  0
ARC
  5
2E3F
  8
3
 10
166.3375654506182
 20
187.09924868119759
 30
0.0
 40
1.636363999999999
 50
270.0
 51
318.09810799999832
  0
LINE
  5
2E40
  8
3
 10
167.5554944506182
 20
187.69827468119769
 30
0.0
 11
166.79575345061829
 21
187.69827468119769
 31
0.0
  0
LINE
  5
2E41
  8
3
 10
167.27558645061831
 20
184.5571456811976
 30
0.0
 11
166.87493045061819
 21
184.57402668119761
 31
0.0
  0
ARC
  5
2E42
  8
3
 10
166.2781084506183
 20
186.99989868119769
 30
0.0
 40
2.337661999999999
 50
270.0
 51
303.12294000000071
  0
CIRCLE
  5
2E43
  8
3
 10
165.31381445061831
 20
191.2503106811977
 30
0.0
 40
0.131494
  0
LINE
  5
2E44
  8
3
 10
166.6116624506183
 20
187.49372968119761
 30
0.0
 11
166.0740004506182
 21
187.49372968119761
 31
0.0
  0
LINE
  5
2E45
  8
3
 10
166.3375654506182
 20
185.4628856811976
 30
0.0
 11
164.4171824506183
 21
185.4628856811976
 31
0.0
  0
ARC
  5
2E46
  8
3
 10
166.02499845061831
 20
188.70998668119771
 30
0.0
 40
0.894829
 50
180.0
 51
320.75318400000123
  0
LINE
  5
2E47
  8
3
 10
165.1301694506183
 20
188.70998668119759
 30
0.0
 11
165.1301694506183
 21
189.04243068119769
 31
0.0
  0
LINE
  5
2E48
  8
3
 10
165.88990945061829
 20
189.04243068119769
 30
0.0
 11
165.88990945061829
 21
188.6333396811975
 31
0.0
  0
LINE
  5
2E49
  8
3
 10
165.1301694506183
 20
189.56555068119761
 30
0.0
 11
165.1301694506183
 21
190.06807968119759
 31
0.0
  0
LINE
  5
2E4A
  8
3
 10
165.45025745061821
 20
189.2162356811977
 30
0.0
 11
165.77451145061821
 21
189.1878676811977
 31
0.0
  0
ARC
  5
2E4B
  8
3
 10
-165.7592304506183
 20
189.01320968119771
 30
0.0
 40
0.175325
210
0.0
220
0.0
230
-1.0
 50
90.0
 51
138.1896850000019
  0
LINE
  5
2E4C
  8
3
 10
166.0740004506182
 20
189.15261568119769
 30
0.0
 11
166.0740004506182
 21
190.43259068119761
 31
0.0
  0
LINE
  5
2E4D
  8
3
 10
165.88990945061829
 20
189.13009268119771
 30
0.0
 11
165.88990945061829
 21
190.06807968119759
 31
0.0
  0
ARC
  5
2E4E
  8
3
 10
166.34283145061821
 20
190.06807968119759
 30
0.0
 40
0.4529220000000001
 50
126.409218
 51
180.0
  0
ARC
  5
2E4F
  8
3
 10
165.4808184506183
 20
189.56555068119769
 30
0.0
 40
0.350649
 50
180.0
 51
265.00000000000023
  0
LINE
  5
2E50
  8
3
 10
165.88990945061829
 20
189.04243068119769
 30
0.0
 11
165.1301694506183
 21
189.04243068119769
 31
0.0
  0
ARC
  5
2E51
  8
3
 10
165.97757245061831
 20
188.63333968119761
 30
0.0
 40
0.087662
 50
180.0
 51
321.30619100000052
  0
LINE
  5
2E52
  8
3
 10
165.1301694506183
 20
187.61061268119761
 30
0.0
 11
165.1301694506183
 21
186.79243068119769
 31
0.0
  0
LINE
  5
2E53
  8
3
 10
166.0740004506182
 20
187.49372968119761
 30
0.0
 11
166.0740004506182
 21
186.42791968119769
 31
0.0
  0
ARC
  5
2E54
  8
3
 10
166.34283145061821
 20
186.79243068119769
 30
0.0
 40
0.4529220000000001
 50
180.0
 51
233.5907820000001
  0
LINE
  5
2E55
  8
3
 10
165.88990945061829
 20
187.61061268119761
 30
0.0
 11
165.88990945061829
 21
186.79243068119769
 31
0.0
  0
LINE
  5
2E56
  8
3
 10
165.88990945061829
 20
187.61061268119761
 30
0.0
 11
165.1301694506183
 21
187.61061268119761
 31
0.0
  0
ARC
  5
2E57
  8
3
 10
-166.55906545061831
 20
189.6868276811976
 30
0.0
 40
0.029221
210
0.0
220
0.0
230
-1.0
 50
270.0
 51
0.0
  0
ARC
  5
2E58
  8
3
 10
-166.55906545061831
 20
189.89137268119771
 30
0.0
 40
0.233766
210
0.0
220
0.0
230
-1.0
 50
180.0
 51
270.0
  0
ARC
  5
2E59
  8
3
 10
-166.20841645061819
 20
190.00369768119771
 30
0.0
 40
0.5844160000000001
210
0.0
220
0.0
230
-1.0
 50
123.36701300000109
 51
180.0
  0
LINE
  5
2E5A
  8
3
 10
166.79283145061819
 20
189.89137268119759
 30
0.0
 11
166.79283145061819
 21
190.00369768119771
 31
0.0
  0
LINE
  5
2E5B
  8
3
 10
166.5298444506183
 20
189.6868276811976
 30
0.0
 11
166.5298444506183
 21
190.49178168119769
 31
0.0
  0
LINE
  5
2E5C
  8
3
 10
166.79575345061829
 20
187.61061268119761
 30
0.0
 11
166.79575345061829
 21
186.79243068119769
 31
0.0
  0
ARC
  5
2E5D
  8
3
 10
166.34283145061821
 20
186.79243068119769
 30
0.0
 40
0.4529220000000001
 50
306.40921800000001
 51
0.0
  0
LINE
  5
2E5E
  8
3
 10
166.6116624506183
 20
187.49372968119761
 30
0.0
 11
166.6116624506183
 21
186.42791968119769
 31
0.0
  0
ARC
  5
2E5F
  8
3
 10
166.75192245061831
 20
188.1161316811976
 30
0.0
 40
0.043831
 50
0.0
 51
140.75318400000111
  0
LINE
  5
2E60
  8
3
 10
166.79575345061829
 20
187.69827468119769
 30
0.0
 11
166.79575345061829
 21
188.1161316811976
 31
0.0
  0
ARC
  5
2E61
  8
3
 10
166.87840245061821
 20
187.6398336811977
 30
0.0
 40
0.087662
 50
199.4712210000018
 51
270.0
  0
LINE
  5
2E62
  8
3
 10
166.2781084506183
 20
184.66223568119759
 30
0.0
 11
164.4171824506183
 21
184.66223568119759
 31
0.0
  0
LINE
  5
2E63
  8
3
 10
165.90452045061821
 20
184.5453526811977
 30
0.0
 11
165.1301694506183
 21
184.5453526811977
 31
0.0
  0
ARC
  5
2E64
  8
3
 10
166.8786204506182
 20
184.6616106811976
 30
0.0
 40
0.087662
 50
199.03868000000031
 51
267.58742199999892
  0
LINE
  5
2E65
  8
3
 10
164.4171824506183
 20
185.4628856811976
 30
0.0
 11
164.4171824506183
 21
184.66223568119759
 31
0.0
  0
ARC
  5
2E66
  8
3
 10
166.34283145061821
 20
190.06807968119759
 30
0.0
 40
1.2126619999999999
 50
90.0
 51
180.0
  0
ARC
  5
2E67
  8
3
 10
167.0879614506182
 20
191.8651576811977
 30
0.0
 40
0.5844160000000001
 50
270.0
 51
323.13010199999871
  0
ARC
  5
2E68
  8
3
 10
167.2220264506183
 20
190.86318568119771
 30
0.0
 40
0.350649
 50
296.8078680000001
 51
341.98954300000059
  0
ARC
  5
2E69
  8
3
 10
167.2632864506183
 20
187.25996368119769
 30
0.0
 40
0.292208
 50
0.0
 51
90.0
  0
LINE
  5
2E6A
  8
3
 10
167.5554944506182
 20
187.2599636811976
 30
0.0
 11
167.5554944506182
 21
186.79243068119769
 31
0.0
  0
LINE
  5
2E6B
  8
3
 10
167.5554944506182
 20
187.69827468119769
 30
0.0
 11
167.5554944506182
 21
188.04852968119761
 31
0.0
  0
LINE
  5
2E6C
  8
3
 10
167.5554944506182
 20
186.00639168119761
 30
0.0
 11
167.5554944506182
 21
185.0421056811976
 31
0.0
  0
LINE
  5
2E6D
  8
3
 10
167.5554944506182
 20
190.75476868119759
 30
0.0
 11
167.5554944506182
 21
191.5145086811977
 31
0.0
  0
LINE
  5
2E6E
  8
0
 10
160.46654845061829
 20
212.01453768119771
 30
0.0
 11
127.79659745061829
 21
212.01453768119771
 31
0.0
  0
LINE
  5
2E6F
  8
0
 10
167.83660845061829
 20
107.4845887314989
 30
0.0
 11
145.75088445061829
 21
107.4845887314989
 31
0.0
  0
LINE
  5
2E70
  8
2
 10
164.09228045061829
 20
105.4845887314989
 30
0.0
 11
152.54527545061831
 21
105.4845887314989
 31
0.0
  0
LINE
  5
2E71
  8
2
 10
160.71877745061829
 20
98.084588731498854
 30
0.0
 11
158.31877745061831
 21
98.084588731498854
 31
0.0
  0
LINE
  5
2E72
  8
0
 10
170.31876345061829
 20
97.484588731498846
 30
0.0
 11
139.67995245061829
 21
97.484588731498846
 31
0.0
  0
ARC
  5
2E75
  8
0
 10
137.97896645061829
 20
105.9294117314989
 30
0.0
 40
6.3398110000000001
 50
285.00000000000119
 51
0.0
  0
LINE
  5
2E76
  8
0
 10
130.95765645061829
 20
97.484602731498853
 30
0.0
 11
139.61983045061831
 21
99.805625731498822
 31
0.0
  0
LINE
  5
2E77
  8
0
 10
139.67995245061829
 20
97.484588731498846
 30
0.0
 11
135.31877745061831
 21
98.653161731498869
 31
0.0
  0
CIRCLE
  5
2E79
  8
0
 10
135.3187774506182
 20
107.9846167314989
 30
0.0
 40
4.9261080000000002
  0
LINE
  5
2E7B
  8
2
 10
152.54527445061831
 20
105.4845887314989
 30
0.0
 11
152.54527445061831
 21
101.4845887314988
 31
0.0
  0
LINE
  5
2E7C
  8
2
 10
155.31877745061831
 20
105.4845887314989
 30
0.0
 11
155.31877745061831
 21
97.484588731498846
 31
0.0
  0
LINE
  5
2E7D
  8
2
 10
155.91877745061831
 20
105.4845887314989
 30
0.0
 11
155.91877745061831
 21
98.084588731498854
 31
0.0
  0
LINE
  5
2E7E
  8
1
 10
158.31877745061831
 20
109.9845887314989
 30
0.0
 11
158.31877745061831
 21
94.984588731498846
 31
0.0
  0
LINE
  5
2E7F
  8
0
 10
146.76944445061841
 20
105.9294117314988
 30
0.0
 11
146.76944445061841
 21
97.484588731498846
 31
0.0
  0
LINE
  5
2E80
  8
2
 10
152.54527445061831
 20
101.4845887314988
 30
0.0
 11
153.81877745061831
 21
101.4845887314988
 31
0.0
  0
LINE
  5
2E81
  8
2
 10
155.31877745061831
 20
97.484588731498846
 30
0.0
 11
155.91877745061831
 21
98.084588731498854
 31
0.0
  0
LINE
  5
2E82
  8
2
 10
155.91877745061831
 20
98.084588731498854
 30
0.0
 11
158.31877745061831
 21
98.084588731498854
 31
0.0
  0
LINE
  5
2E83
  8
2
 10
153.81877745061831
 20
101.4845887314988
 30
0.0
 11
153.81877745061831
 21
97.484588731498846
 31
0.0
  0
LINE
  5
2E84
  8
0
 10
144.31877745061831
 20
107.9846167314988
 30
0.0
 11
144.31877745061831
 21
105.9294117314988
 31
0.0
  0
ARC
  5
2E85
  8
0
 10
148.2452514506183
 20
106.0067557314989
 30
0.0
 40
1.4778329999999991
 50
90.0
 51
182.99999999999909
  0
ARC
  5
2E86
  8
0
 10
145.7508844506182
 20
108.9624207314988
 30
0.0
 40
1.4778329999999991
 50
185.35478200000051
 51
270.0
  0
LINE
  5
2E87
  8
2
 10
164.09228045061829
 20
105.4845887314989
 30
0.0
 11
164.09228045061829
 21
101.4845887314988
 31
0.0
  0
LINE
  5
2E88
  8
0
 10
170.1690854506183
 20
101.2891157314988
 30
0.0
 11
169.2919894506183
 21
106.2633787314988
 31
0.0
  0
LINE
  5
2E89
  8
2
 10
161.31877745061831
 20
105.4845887314989
 30
0.0
 11
161.31877745061831
 21
97.484588731498846
 31
0.0
  0
LINE
  5
2E8A
  8
2
 10
160.71877745061829
 20
105.4845887314989
 30
0.0
 11
160.71877745061829
 21
98.084588731498854
 31
0.0
  0
LINE
  5
2E8B
  8
2
 10
164.09228045061829
 20
101.4845887314988
 30
0.0
 11
162.81877745061831
 21
101.4845887314988
 31
0.0
  0
LINE
  5
2E8C
  8
2
 10
161.31877745061831
 20
97.484588731498846
 30
0.0
 11
160.71877745061829
 21
98.084588731498854
 31
0.0
  0
LINE
  5
2E8D
  8
2
 10
162.81877745061831
 20
101.4845887314988
 30
0.0
 11
162.81877745061831
 21
97.484588731498846
 31
0.0
  0
ARC
  5
2E8E
  8
0
 10
160.4665464506183
 20
99.57829573149894
 30
0.0
 40
9.8522169999999996
 50
0.0
 51
9.9999999999986091
  0
LINE
  5
2E8F
  8
0
 10
170.31876345061829
 20
97.484588731498846
 30
0.0
 11
170.31876345061829
 21
99.578295731498883
 31
0.0
  0
ARC
  5
2E90
  8
0
 10
167.8366084506182
 20
106.0067557314989
 30
0.0
 40
1.4778329999999991
 50
9.9999999999986091
 51
90.0
  0
LINE
  5
2E91
  8
0
 10
236.72703519468061
 20
116.9798481972838
 30
0.0
 11
246.23885719468129
 21
116.9798481972836
 31
0.0
  0
LINE
  5
2E92
  8
0
 10
224.73293169468079
 20
107.4798481972838
 30
0.0
 11
270.73293169468081
 21
107.4798481972838
 31
0.0
  0
LINE
  5
2E93
  8
0
 10
222.73293169468079
 20
97.479848197283843
 30
0.0
 11
272.73293169468081
 21
97.479848197283843
 31
0.0
  0
LINE
  5
2E94
  8
0
 10
222.73293169468079
 20
114.9798481972838
 30
0.0
 11
222.73293169468079
 21
105.4798481972838
 31
0.0
  0
LINE
  5
2E95
  8
0
 10
234.73882819468051
 20
115.9798481972838
 30
0.0
 11
234.73882819468059
 21
107.4798481972838
 31
0.0
  0
LINE
  5
2E96
  8
0
 10
235.7270351946807
 20
107.4798481972838
 30
0.0
 11
235.7270351946807
 21
115.9798481972838
 31
0.0
  0
LINE
  5
2E97
  8
0
 10
222.73293169468079
 20
97.479848197283843
 30
0.0
 11
222.73293169468079
 21
105.4798481972838
 31
0.0
  0
ARC
  5
2E98
  8
0
 10
224.73293169468079
 20
105.4798481972838
 30
0.0
 40
2.0
 50
90.0
 51
180.0
1001
GENIUS_GENODEF_13
1002
{
1000
HIER
1070
     0
1002
}
1002
{
1000
MANEDIT
1070
     0
1002
}
1002
{
1000
NOSEL
1070
     0
1002
}
1002
{
1000
BEHIND
1070
     0
1002
}
1002
{
1000
REACTOR
1002
}
1001
GENIUS_GENOBJ-N-FIL_13
1002
{
1000
OWNER
1000
GEN
1002
}
  0
LINE
  5
2E99
  8
2
 10
235.13293169468059
 20
105.4798481972838
 30
0.0
 11
235.13293169468059
 21
98.079848197283752
 31
0.0
  0
LINE
  5
2E9A
  8
2
 10
235.7329316946807
 20
105.4798481972838
 30
0.0
 11
235.7329316946807
 21
97.479848197283715
 31
0.0
  0
LINE
  5
2E9B
  8
2
 10
238.50643469468071
 20
105.4798481972838
 30
0.0
 11
238.50643469468071
 21
101.4798481972837
 31
0.0
  0
LINE
  5
2E9C
  8
2
 10
230.3329316946807
 20
105.4798481972838
 30
0.0
 11
230.3329316946807
 21
98.079848197283752
 31
0.0
  0
LINE
  5
2E9D
  8
1
 10
232.73293169468059
 20
109.9798481972838
 30
0.0
 11
232.73293169468059
 21
94.979848197283843
 31
0.0
  0
LINE
  5
2E9E
  8
2
 10
226.95942869468061
 20
105.4798481972838
 30
0.0
 11
226.95942869468061
 21
101.4798481972837
 31
0.0
  0
LINE
  5
2E9F
  8
2
 10
229.73293169468059
 20
105.4798481972838
 30
0.0
 11
229.73293169468059
 21
97.479848197283715
 31
0.0
  0
LINE
  5
2EA0
  8
2
 10
235.13293169468059
 20
98.079848197283752
 30
0.0
 11
232.73293169468059
 21
98.079848197283752
 31
0.0
  0
LINE
  5
2EA1
  8
2
 10
229.73293169468059
 20
97.479848197283715
 30
0.0
 11
230.3329316946807
 21
98.079848197283752
 31
0.0
  0
LINE
  5
2EA2
  8
2
 10
230.3329316946807
 20
98.079848197283752
 30
0.0
 11
232.73293169468059
 21
98.079848197283752
 31
0.0
  0
LINE
  5
2EA3
  8
2
 10
226.95942869468061
 20
101.4798481972837
 30
0.0
 11
228.23293169468059
 21
101.4798481972837
 31
0.0
  0
LINE
  5
2EA4
  8
2
 10
228.23293169468059
 20
101.4798481972837
 30
0.0
 11
228.23293169468059
 21
97.479848197283715
 31
0.0
  0
LINE
  5
2EA5
  8
2
 10
237.2329316946807
 20
101.4798481972837
 30
0.0
 11
237.2329316946807
 21
97.479848197283715
 31
0.0
  0
LINE
  5
2EA6
  8
2
 10
235.7329316946807
 20
97.479848197283715
 30
0.0
 11
235.13293169468059
 21
98.079848197283752
 31
0.0
  0
LINE
  5
2EA7
  8
2
 10
238.50643469468071
 20
101.4798481972837
 30
0.0
 11
237.2329316946807
 21
101.4798481972837
 31
0.0
  0
LINE
  5
2EA8
  8
2
 10
238.50643469468071
 20
105.4798481972838
 30
0.0
 11
226.95942969468061
 21
105.4798481972838
 31
0.0
  0
LINE
  5
2EA9
  8
0
 10
224.73293169468079
 20
116.9798481972838
 30
0.0
 11
233.73882819468051
 21
116.9798481972838
 31
0.0
  0
ARC
  5
2EAA
  8
0
 10
224.73293169468079
 20
114.9798481972838
 30
0.0
 40
2.0
 50
90.0
 51
180.0
1001
GENIUS_GENODEF_13
1002
{
1000
HIER
1070
     0
1002
}
1002
{
1000
MANEDIT
1070
     0
1002
}
1002
{
1000
NOSEL
1070
     0
1002
}
1002
{
1000
BEHIND
1070
     0
1002
}
1002
{
1000
REACTOR
1002
}
1001
GENIUS_GENOBJ-N-FIL_13
1002
{
1000
OWNER
1000
GEN
1002
}
  0
ARC
  5
2EAB
  8
0
 10
236.72703519468061
 20
115.9798481972838
 30
0.0
 40
1.0
 50
90.0
 51
180.0
1001
GENIUS_GENODEF_13
1002
{
1000
HIER
1070
     0
1002
}
1002
{
1000
MANEDIT
1070
     0
1002
}
1002
{
1000
NOSEL
1070
     0
1002
}
1002
{
1000
BEHIND
1070
     0
1002
}
1002
{
1000
REACTOR
1002
}
1001
GENIUS_GENOBJ-N-FIL_13
1002
{
1000
OWNER
1000
GEN
1002
}
  0
ARC
  5
2EAC
  8
0
 10
233.73882819468051
 20
115.9798481972838
 30
0.0
 40
1.0
 50
0.0
 51
90.0
1001
GENIUS_GENODEF_13
1002
{
1000
HIER
1070
     0
1002
}
1002
{
1000
MANEDIT
1070
     0
1002
}
1002
{
1000
NOSEL
1070
     0
1002
}
1002
{
1000
BEHIND
1070
     0
1002
}
1002
{
1000
REACTOR
1002
}
1001
GENIUS_GENOBJ-N-FIL_13
1002
{
1000
OWNER
1000
GEN
1002
}
  0
LINE
  5
2EAD
  8
0
 10
272.73293169468081
 20
114.9798481972838
 30
0.0
 11
272.73293169468081
 21
105.4798481972838
 31
0.0
  0
LINE
  5
2EAE
  8
0
 10
248.2270061946806
 20
115.9798481972838
 30
0.0
 11
248.2270061946806
 21
107.4798481972838
 31
0.0
  0
LINE
  5
2EAF
  8
0
 10
259.73882819468059
 20
115.9798481972838
 30
0.0
 11
259.73882819468059
 21
107.4798481972838
 31
0.0
  0
LINE
  5
2EB0
  8
0
 10
260.7270351946803
 20
107.4798481972838
 30
0.0
 11
260.72703519468013
 21
115.9798481972838
 31
0.0
  0
LINE
  5
2EB1
  8
0
 10
247.23885719468109
 20
107.4798481972838
 30
0.0
 11
247.23885719468129
 21
115.9798481972837
 31
0.0
  0
LINE
  5
2EB2
  8
2
 10
256.95942869468092
 20
105.4798481972838
 30
0.0
 11
268.50643369468088
 21
105.4798481972838
 31
0.0
  0
LINE
  5
2EB3
  8
2
 10
260.33293169468089
 20
98.079848197283752
 30
0.0
 11
262.73293169468087
 21
98.079848197283752
 31
0.0
  0
LINE
  5
2EB4
  8
2
 10
256.95942869468092
 20
105.4798481972838
 30
0.0
 11
256.95942869468092
 21
101.4798481972837
 31
0.0
  0
LINE
  5
2EB5
  8
2
 10
259.73293169468087
 20
105.4798481972838
 30
0.0
 11
259.73293169468087
 21
97.479848197283715
 31
0.0
  0
LINE
  5
2EB6
  8
2
 10
260.33293169468089
 20
105.4798481972838
 30
0.0
 11
260.33293169468089
 21
98.079848197283752
 31
0.0
  0
LINE
  5
2EB7
  8
2
 10
256.95942869468092
 20
101.4798481972837
 30
0.0
 11
258.23293169468087
 21
101.4798481972837
 31
0.0
  0
LINE
  5
2EB8
  8
2
 10
259.73293169468087
 20
97.479848197283715
 30
0.0
 11
260.33293169468089
 21
98.079848197283752
 31
0.0
  0
LINE
  5
2EB9
  8
2
 10
258.23293169468087
 20
101.4798481972837
 30
0.0
 11
258.23293169468087
 21
97.479848197283715
 31
0.0
  0
LINE
  5
2EBA
  8
2
 10
265.73293169468087
 20
105.4798481972838
 30
0.0
 11
265.73293169468087
 21
97.479848197283715
 31
0.0
  0
LINE
  5
2EBB
  8
2
 10
268.50643469468088
 20
105.4798481972838
 30
0.0
 11
268.50643469468088
 21
101.4798481972837
 31
0.0
  0
LINE
  5
2EBC
  8
1
 10
262.73293169468081
 20
109.9798481972838
 30
0.0
 11
262.73293169468087
 21
94.979848197283843
 31
0.0
  0
LINE
  5
2EBD
  8
2
 10
265.13293169468079
 20
105.4798481972838
 30
0.0
 11
265.13293169468079
 21
98.079848197283752
 31
0.0
  0
LINE
  5
2EBE
  8
0
 10
272.73293169468081
 20
105.4798481972838
 30
0.0
 11
272.73293169468081
 21
97.479848197283843
 31
0.0
  0
LINE
  5
2EBF
  8
2
 10
267.23293169468087
 20
101.4798481972837
 30
0.0
 11
267.23293169468087
 21
97.479848197283715
 31
0.0
  0
LINE
  5
2EC0
  8
2
 10
268.50643469468088
 20
101.4798481972837
 30
0.0
 11
267.23293169468087
 21
101.4798481972837
 31
0.0
  0
LINE
  5
2EC1
  8
2
 10
265.13293169468079
 20
98.079848197283752
 30
0.0
 11
262.73293169468087
 21
98.079848197283752
 31
0.0
  0
LINE
  5
2EC2
  8
2
 10
265.73293169468087
 20
97.479848197283715
 30
0.0
 11
265.13293169468079
 21
98.079848197283752
 31
0.0
  0
ARC
  5
2EC3
  8
0
 10
270.73293169468081
 20
105.4798481972838
 30
0.0
 40
2.0
 50
0.0
 51
90.0
1001
GENIUS_GENODEF_13
1002
{
1000
HIER
1070
     0
1002
}
1002
{
1000
MANEDIT
1070
     0
1002
}
1002
{
1000
NOSEL
1070
     0
1002
}
1002
{
1000
BEHIND
1070
     0
1002
}
1002
{
1000
REACTOR
1002
}
1001
GENIUS_GENOBJ-N-FIL_13
1002
{
1000
OWNER
1000
GEN
1002
}
  0
LINE
  5
2EC4
  8
0
 10
249.22700619468071
 20
116.9798481972838
 30
0.0
 11
258.73882819468059
 21
116.9798481972838
 31
0.0
  0
ARC
  5
2EC5
  8
0
 10
249.22700619468071
 20
115.9798481972838
 30
0.0
 40
1.0
 50
90.0
 51
180.0
1001
GENIUS_GENODEF_13
1002
{
1000
HIER
1070
     0
1002
}
1002
{
1000
MANEDIT
1070
     0
1002
}
1002
{
1000
NOSEL
1070
     0
1002
}
1002
{
1000
BEHIND
1070
     0
1002
}
1002
{
1000
REACTOR
1002
}
1001
GENIUS_GENOBJ-N-FIL_13
1002
{
1000
OWNER
1000
GEN
1002
}
  0
ARC
  5
2EC6
  8
0
 10
246.23885719468129
 20
115.9798481972837
 30
0.0
 40
1.0
 50
0.0
 51
90.0
1001
GENIUS_GENODEF_13
1002
{
1000
HIER
1070
     0
1002
}
1002
{
1000
MANEDIT
1070
     0
1002
}
1002
{
1000
NOSEL
1070
     0
1002
}
1002
{
1000
BEHIND
1070
     0
1002
}
1002
{
1000
REACTOR
1002
}
1001
GENIUS_GENOBJ-N-FIL_13
1002
{
1000
OWNER
1000
GEN
1002
}
  0
ARC
  5
2EC7
  8
0
 10
258.73882819468059
 20
115.9798481972838
 30
0.0
 40
1.0
 50
0.0
 51
90.0
1001
GENIUS_GENODEF_13
1002
{
1000
HIER
1070
     0
1002
}
1002
{
1000
MANEDIT
1070
     0
1002
}
1002
{
1000
NOSEL
1070
     0
1002
}
1002
{
1000
BEHIND
1070
     0
1002
}
1002
{
1000
REACTOR
1002
}
1001
GENIUS_GENOBJ-N-FIL_13
1002
{
1000
OWNER
1000
GEN
1002
}
  0
LINE
  5
2EC8
  8
0
 10
261.72703519468013
 20
116.9798481972838
 30
0.0
 11
270.73293169468081
 21
116.9798481972838
 31
0.0
  0
ARC
  5
2EC9
  8
0
 10
261.72703519468013
 20
115.9798481972838
 30
0.0
 40
1.0
 50
90.0
 51
180.0
1001
GENIUS_GENODEF_13
1002
{
1000
HIER
1070
     0
1002
}
1002
{
1000
MANEDIT
1070
     0
1002
}
1002
{
1000
NOSEL
1070
     0
1002
}
1002
{
1000
BEHIND
1070
     0
1002
}
1002
{
1000
REACTOR
1002
}
1001
GENIUS_GENOBJ-N-FIL_13
1002
{
1000
OWNER
1000
GEN
1002
}
  0
ARC
  5
2ECA
  8
0
 10
270.73293169468081
 20
114.9798481972838
 30
0.0
 40
2.0
 50
0.0
 51
90.0
1001
GENIUS_GENODEF_13
1002
{
1000
HIER
1070
     0
1002
}
1002
{
1000
MANEDIT
1070
     0
1002
}
1002
{
1000
NOSEL
1070
     0
1002
}
1002
{
1000
BEHIND
1070
     0
1002
}
1002
{
1000
REACTOR
1002
}
1001
GENIUS_GENOBJ-N-FIL_13
1002
{
1000
OWNER
1000
GEN
1002
}
  0
LINE
  5
2F01
  8
1
 10
135.3187774506182
 20
121.9846027314989
 30
0.0
 11
135.3187774506182
 21
93.984602731498924
 31
0.0
  0
LINE
  5
2F02
  8
1
 10
149.3187774506182
 20
107.9846027314989
 30
0.0
 11
121.3187774506182
 21
107.9846027314989
 31
0.0
  0
TEXT
  5
301D
  8
0
 62
     3
 10
0.0
 20
0.0
 30
0.0
 40
10.0
  1
EFHP7050SS
  7
STANDARD1
  0
ENDSEC
  0
EOF
