  0
SECTION
  2
HEADER
  9
$ACADVER
  1
AC1009
  9
$INSBASE
 10
0.0
 20
0.0
 30
0.0
  9
$EXTMIN
 10
0.0
 20
-2.960436562073669
 30
0.0
  9
$EXTMAX
 10
269.29465417359899
 20
282.51562138250819
 30
0.0
  9
$LIMMIN
 10
0.0
 20
0.0
  9
$LIMMAX
 10
375.0
 20
270.0
  9
$ORTHOMODE
 70
     1
  9
$REGENMODE
 70
     1
  9
$FILLMODE
 70
     1
  9
$QTEXTMODE
 70
     0
  9
$MIRRTEXT
 70
     0
  9
$DRAGMODE
 70
     2
  9
$LTSCALE
 40
5.0
  9
$OSMODE
 70
  3071
  9
$ATTMODE
 70
     1
  9
$TEXTSIZE
 40
0.2
  9
$TRACEWID
 40
0.05
  9
$TEXTSTYLE
  7
STANDARD
  9
$CLAYER
  8
0
  9
$CELTYPE
  6
BYLAYER
  9
$CECOLOR
 62
   256
  9
$DIMSCALE
 40
1.0
  9
$DIMASZ
 40
3.0
  9
$DIMEXO
 40
2.0
  9
$DIMDLI
 40
0.38
  9
$DIMRND
 40
0.0
  9
$DIMDLE
 40
0.0
  9
$DIMEXE
 40
2.0
  9
$DIMTP
 40
0.0
  9
$DIMTM
 40
0.0
  9
$DIMTXT
 40
3.2000000000000002
  9
$DIMCEN
 40
0.09
  9
$DIMTSZ
 40
0.0
  9
$DIMTOL
 70
     0
  9
$DIMLIM
 70
     0
  9
$DIMTIH
 70
     0
  9
$DIMTOH
 70
     0
  9
$DIMSE1
 70
     0
  9
$DIMSE2
 70
     0
  9
$DIMTAD
 70
     1
  9
$DIMZIN
 70
     0
  9
$DIMBLK
  1

  9
$DIMASO
 70
     1
  9
$DIMSHO
 70
     0
  9
$DIMPOST
  1

  9
$DIMAPOST
  1

  9
$DIMALT
 70
     0
  9
$DIMALTD
 70
     2
  9
$DIMALTF
 40
25.399999999999999
  9
$DIMLFAC
 40
1.0
  9
$DIMTOFL
 70
     0
  9
$DIMTVP
 40
1.6000000000000001
  9
$DIMTIX
 70
     1
  9
$DIMSOXD
 70
     0
  9
$DIMSAH
 70
     0
  9
$DIMBLK1
  1

  9
$DIMBLK2
  1

  9
$DIMSTYLE
  2
STANDARD
  9
$DIMCLRD
 70
     0
  9
$DIMCLRE
 70
     0
  9
$DIMCLRT
 70
     0
  9
$DIMTFAC
 40
1.0
  9
$DIMGAP
 40
0.09
  9
$LUNITS
 70
     2
  9
$LUPREC
 70
     4
  9
$SKETCHINC
 40
0.1
  9
$FILLETRAD
 40
2.0
  9
$AUNITS
 70
     0
  9
$AUPREC
 70
     0
  9
$MENU
  1
E:\r13\win\SUPPORT\ACAD
  9
$ELEVATION
 40
0.0
  9
$PELEVATION
 40
0.0
  9
$THICKNESS
 40
0.0
  9
$LIMCHECK
 70
     0
  9
$BLIPMODE
 70
     0
  9
$CHAMFERA
 40
0.0
  9
$CHAMFERB
 40
0.0
  9
$SKPOLY
 70
     0
  9
$TDCREATE
 40
2447977.5416277782
  9
$TDUPDATE
 40
2456598.6578704752
  9
$TDINDWG
 40
0.017920162
  9
$TDUSRTIMER
 40
0.017920162
  9
$USRTIMER
 70
     1
  9
$ANGBASE
 50
0.0
  9
$ANGDIR
 70
     0
  9
$PDMODE
 70
     0
  9
$PDSIZE
 40
0.0
  9
$PLINEWID
 40
0.0
  9
$COORDS
 70
     1
  9
$SPLFRAME
 70
     0
  9
$SPLINETYPE
 70
     6
  9
$SPLINESEGS
 70
     8
  9
$ATTDIA
 70
     0
  9
$ATTREQ
 70
     1
  9
$HANDLING
 70
     1
  9
$HANDSEED
  5
1711
  9
$SURFTAB1
 70
     6
  9
$SURFTAB2
 70
     6
  9
$SURFTYPE
 70
     6
  9
$SURFU
 70
     6
  9
$SURFV
 70
     6
  9
$UCSNAME
  2

  9
$UCSORG
 10
0.0
 20
0.0
 30
0.0
  9
$UCSXDIR
 10
1.0
 20
0.0
 30
0.0
  9
$UCSYDIR
 10
0.0
 20
1.0
 30
0.0
  9
$PUCSNAME
  2

  9
$PUCSORG
 10
0.0
 20
0.0
 30
0.0
  9
$PUCSXDIR
 10
1.0
 20
0.0
 30
0.0
  9
$PUCSYDIR
 10
0.0
 20
1.0
 30
0.0
  9
$USERI1
 70
     0
  9
$USERI2
 70
     1
  9
$USERI3
 70
     1
  9
$USERI4
 70
     0
  9
$USERI5
 70
     0
  9
$USERR1
 40
0.0
  9
$USERR2
 40
0.0
  9
$USERR3
 40
0.0
  9
$USERR4
 40
0.0
  9
$USERR5
 40
0.0
  9
$WORLDVIEW
 70
     1
  9
$SHADEDGE
 70
     3
  9
$SHADEDIF
 70
    70
  9
$TILEMODE
 70
     1
  9
$MAXACTVP
 70
    16
  9
$PLIMCHECK
 70
     0
  9
$PEXTMIN
 10
1.0000000000000000E+020
 20
1.0000000000000000E+020
 30
1.0000000000000000E+020
  9
$PEXTMAX
 10
-1.0000000000000000E+020
 20
-1.0000000000000000E+020
 30
-1.0000000000000000E+020
  9
$PLIMMIN
 10
0.0
 20
0.0
  9
$PLIMMAX
 10
12.0
 20
9.0
  9
$UNITMODE
 70
     0
  9
$VISRETAIN
 70
     0
  9
$PLINEGEN
 70
     1
  9
$PSLTSCALE
 70
     0
  0
ENDSEC
  0
SECTION
  2
TABLES
  0
TABLE
  2
VPORT
 70
     1
  0
VPORT
  2
*ACTIVE
 70
     0
 10
0.0
 20
0.0
 11
1.0
 21
1.0
 12
187.49427839065231
 22
177.8429684060963
 13
0.0
 23
0.0
 14
10.0
 24
10.0
 15
10.0
 25
10.0
 16
0.0
 26
0.0
 36
1.0
 17
0.0
 27
0.0
 37
0.0
 40
364.89048419679187
 41
1.831871345029239
 42
50.0
 43
0.0
 44
0.0
 50
0.0
 51
0.0
 71
     0
 72
   500
 73
     1
 74
     0
 75
     0
 76
     0
 77
     0
 78
     2
  0
ENDTAB
  0
TABLE
  2
LTYPE
 70
     4
  0
LTYPE
  2
CONTINUOUS
 70
     0
  3
Solid Line
 72
    65
 73
     0
 40
0.0
  0
LTYPE
  2
CENTER
 70
     0
  3
____ _ ____ _ ____ _ ____ _ ____ _ ____ _ ____
 72
    65
 73
     4
 40
2.0
 49
1.25
 49
-0.25
 49
0.25
 49
-0.25
  0
LTYPE
  2
HIDDEN
 70
     0
  3
_ _ _ _ _ _ _ _ _ _ _ _ _ _ _ _ _ _ _ _ _ _ _
 72
    65
 73
     2
 40
0.375
 49
0.25
 49
-0.125
  0
LTYPE
  2
PHANTOM2
 70
     0
  3
___ _ _ ___ _ _ ___ _ _ ___ _ _
 72
    65
 73
     6
 40
1.25
 49
0.625
 49
-0.125
 49
0.125
 49
-0.125
 49
0.125
 49
-0.125
  0
ENDTAB
  0
TABLE
  2
LAYER
 70
     4
  0
LAYER
  2
0
 70
     0
 62
     7
  6
CONTINUOUS
  0
LAYER
  2
1
 70
     0
 62
     1
  6
CENTER
  0
LAYER
  2
2
 70
     0
 62
     2
  6
HIDDEN
  0
LAYER
  2
3
 70
     0
 62
     3
  6
CONTINUOUS
  0
ENDTAB
  0
TABLE
  2
STYLE
 70
     4
  0
STYLE
  2
STANDARD
 70
     0
 40
0.0
 41
1.0
 50
0.0
 71
     0
 42
0.2
  3
TXT
  4
BIGFONT
  0
STYLE
  2
ITALICC
 70
     0
 40
0.045
 41
1.0
 50
0.0
 71
     0
 42
0.045
  3
TXT8
  4

  0
STYLE
  2
ARIAL-NARROW
 70
     0
 40
0.0
 41
0.9
 50
0.0
 71
     0
 42
2.5
  3
txt
  4

  0
STYLE
  2
STANDARD1
 70
     0
 40
0.0
 41
1.0
 50
0.0
 71
     0
 42
3.0
  3
txt
  4

  0
ENDTAB
  0
TABLE
  2
VIEW
 70
     1
  0
VIEW
  2
ALL
 70
     0
 40
270.0
 10
220.99159663865549
 20
135.0
 41
0.0
 11
0.0
 21
0.0
 31
1.0
 12
0.0
 22
0.0
 32
0.0
 42
0.0
 43
0.0
 44
0.0
 50
0.0
 71
     0
  0
ENDTAB
  0
TABLE
  2
UCS
 70
     0
  0
ENDTAB
  0
TABLE
  2
APPID
 70
     6
  0
APPID
  2
ACAD
 70
     0
  0
APPID
  2
GENIUS_GENODEF_13
 70
     0
  0
APPID
  2
GENIUS_GENOBJ-N-FIL_13
 70
     0
  0
APPID
  2
GENIUS_GENOREF_13
 70
     0
  0
APPID
  2
ACAD_MLEADERVER
 70
     0
  0
APPID
  2
ACAD_NAV_VCDISPLAY
 70
     0
  0
ENDTAB
  0
TABLE
  2
DIMSTYLE
 70
     1
  0
DIMSTYLE
  2
STANDARD
 70
     0
  3

  4

  5

  6

  7

 40
1.0
 41
0.18
 42
0.0625
 43
0.38
 44
0.18
 45
0.0
 46
0.0
 47
0.0
 48
0.0
140
0.18
141
0.09
142
0.0
143
25.399999999999999
144
1.0
145
0.0
146
1.0
147
0.09
 71
     0
 72
     0
 73
     1
 74
     1
 75
     0
 76
     0
 77
     0
 78
     0
170
     0
171
     2
172
     0
173
     0
174
     0
175
     0
176
     0
177
     0
178
     0
  0
ENDTAB
  0
ENDSEC
  0
SECTION
  2
BLOCKS
  0
BLOCK
  8
0
  2
$MODEL_SPACE
 70
     0
 10
0.0
 20
0.0
 30
0.0
  3
$MODEL_SPACE
  1

  0
ENDBLK
  5
19F
  8
0
  0
BLOCK
 67
     1
  8
0
  2
$PAPER_SPACE
 70
     0
 10
0.0
 20
0.0
 30
0.0
  3
$PAPER_SPACE
  1

  0
ENDBLK
  5
19D
 67
     1
  8
0
  0
ENDSEC
  0
SECTION
  2
ENTITIES
  0
LINE
  5
BBC
  8
0
 10
243.852823852158
 20
175.5107310026244
 30
0.0
 11
243.35282385215811
 21
176.0107310026244
 31
0.0
  0
LINE
  5
BBD
  8
3
 10
244.0371036199758
 20
180.5107310026244
 30
0.0
 11
244.0371036199758
 21
175.5107310026244
 31
0.0
  0
LINE
  5
BBE
  8
3
 10
244.79469883074131
 20
180.5107310026244
 30
0.0
 11
244.79469883074131
 21
175.5107310026244
 31
0.0
  0
LINE
  5
BBF
  8
3
 10
245.62560948445389
 20
180.5107310026244
 30
0.0
 11
245.62560948445389
 21
175.5107310026244
 31
0.0
  0
LINE
  5
BC0
  8
3
 10
246.62758950504389
 20
180.5107310026244
 30
0.0
 11
246.62758950504389
 21
175.5107310026244
 31
0.0
  0
LINE
  5
BC1
  8
3
 10
247.62956952563351
 20
180.5107310026244
 30
0.0
 11
247.62956952563351
 21
175.5107310026244
 31
0.0
  0
LINE
  5
BC2
  8
3
 10
248.58267258425809
 20
180.5107310026244
 30
0.0
 11
248.58267258425809
 21
175.5107310026244
 31
0.0
  0
LINE
  5
BC3
  8
3
 10
249.922975120058
 20
180.5107310026244
 30
0.0
 11
249.922975120058
 21
175.5107310026244
 31
0.0
  0
LINE
  5
BC4
  8
0
 10
243.35282385215811
 20
184.52331718798331
 30
0.0
 11
243.35282385215811
 21
176.0107310026244
 31
0.0
  0
LINE
  5
BC5
  8
3
 10
250.87607817868249
 20
180.5107310026244
 30
0.0
 11
250.87607817868249
 21
175.5107310026244
 31
0.0
  0
LINE
  5
BC6
  8
3
 10
251.87805819927209
 20
180.5107310026244
 30
0.0
 11
251.87805819927209
 21
175.5107310026244
 31
0.0
  0
LINE
  5
BC7
  8
3
 10
252.8800382198622
 20
180.5107310026244
 30
0.0
 11
252.8800382198622
 21
175.5107310026244
 31
0.0
  0
LINE
  5
BC8
  8
3
 10
253.71094887357481
 20
180.5107310026244
 30
0.0
 11
253.71094887357481
 21
175.5107310026244
 31
0.0
  0
LINE
  5
BC9
  8
3
 10
254.46854408434021
 20
180.5107310026244
 30
0.0
 11
254.46854408434021
 21
175.5107310026244
 31
0.0
  0
LINE
  5
BCA
  8
0
 10
254.65282385215801
 20
175.5107310026244
 30
0.0
 11
255.15282385215801
 21
176.0107310026244
 31
0.0
  0
LINE
  5
BCB
  8
0
 10
255.15282385215801
 20
184.52331718798331
 30
0.0
 11
255.15282385215789
 21
176.0107310026244
 31
0.0
  0
ARC
  5
BCC
  8
0
 10
245.75282385215789
 20
209.0494341301972
 30
0.0
 40
2.0
 50
104.7867808085532
 51
180.0000000000008
  0
ARC
  5
BCD
  8
0
 10
234.9982623397614
 20
206.96630924217041
 30
0.0
 40
8.7761008957460263
 50
336.90140580707282
 51
355.98493736893948
  0
ARC
  5
BCE
  8
0
 10
263.50738536455452
 20
206.96630924217041
 30
0.0
 40
8.7761008957460263
 50
184.01506263106049
 51
203.09859419292729
  0
ARC
  5
BCF
  8
0
 10
252.75282385215789
 20
209.0494341301972
 30
0.0
 40
2.0
 50
359.9999999999992
 51
75.21321919144674
  0
ARC
  5
BD0
  8
0
 10
249.25282385215709
 20
196.00271074571771
 30
0.0
 40
15.508020256906979
 50
75.012719856155869
 51
104.98728014384371
  0
ARC
  5
BD1
  8
0
 10
243.0707930858855
 20
201.7053171879833
 30
0.0
 40
1.817999999999999
 50
90.0
 51
180.33333333333169
  0
LINE
  5
BD2
  8
0
 10
241.35098907593189
 20
184.8215718685768
 30
0.0
 11
241.2528238521582
 21
201.69474055238001
 31
0.0
  0
LINE
  5
BD3
  8
0
 10
255.15282385215801
 20
180.5107310026244
 30
0.0
 11
243.35282385215811
 21
180.5107310026244
 31
0.0
  0
LINE
  5
BD4
  8
0
 10
256.85466370532669
 20
184.52331718798331
 30
0.0
 11
241.6509839989892
 21
184.52331718798331
 31
0.0
  0
LINE
  5
BD5
  8
0
 10
257.1546586283842
 20
184.8215718685768
 30
0.0
 11
257.25282385215792
 21
201.69474055238001
 31
0.0
  0
ARC
  5
BD6
  8
0
 10
256.85466370532669
 20
184.82331718798321
 30
0.0
 40
0.3
 50
270.0
 51
359.66666666666822
  0
LINE
  5
BD7
  8
0
 10
243.0707930858855
 20
203.52331718798331
 30
0.0
 11
243.75282385215789
 21
203.52331718798331
 31
0.0
  0
ARC
  5
BD8
  8
0
 10
255.43485461843059
 20
201.7053171879833
 30
0.0
 40
1.817999999999999
 50
359.66666666666822
 51
90.0
  0
ARC
  5
BD9
  8
0
 10
241.6509839989892
 20
184.82331718798321
 30
0.0
 40
0.3
 50
180.33333333333169
 51
270.0
  0
ARC
  5
BDA
  8
0
 10
249.25282385215789
 20
209.70340815935441
 30
0.0
 40
5.7433117701486651
 50
196.73721751054961
 51
343.26278248945027
  0
LINE
  5
BDB
  8
0
 10
254.75282385215789
 20
209.0494341301972
 30
0.0
 11
254.75282385215789
 21
193.6559933913183
 31
0.0
  0
LINE
  5
BDC
  8
0
 10
243.75282385215789
 20
209.0494341301972
 30
0.0
 11
243.75282385215789
 21
193.6559933913183
 31
0.0
  0
LINE
  5
BDD
  8
0
 10
252.25282385215789
 20
204.8058955162744
 30
0.0
 11
252.25282385215789
 21
193.6559933913183
 31
0.0
  0
LINE
  5
BDE
  8
0
 10
246.25282385215789
 20
204.80589551627449
 30
0.0
 11
246.25282385215789
 21
193.6559933913183
 31
0.0
  0
LINE
  5
BDF
  8
0
 10
254.75282385215789
 20
203.52331718798331
 30
0.0
 11
255.43485461843059
 21
203.52331718798331
 31
0.0
  0
LINE
  5
BE0
  8
2
 10
253.25282385215891
 20
159.7607452866888
 30
0.0
 11
264.2528238521582
 21
159.7607452866894
 31
0.0
  0
LINE
  5
BE1
  8
1
 10
245.75282385215891
 20
163.01074528668829
 30
0.0
 11
269.25282385215797
 21
163.01074528668971
 31
0.0
  0
LINE
  5
BE2
  8
2
 10
253.2528238521588
 20
166.2607452866888
 30
0.0
 11
264.25282385215792
 21
166.26074528668931
 31
0.0
  0
LINE
  5
BE3
  8
1
 10
245.75282385215891
 20
123.01074528668789
 30
0.0
 11
269.25282385215797
 21
123.0107452866893
 31
0.0
  0
ARC
  5
BE4
  8
0
 10
242.752823852158
 20
112.01075957075381
 30
0.0
 40
1.5
 50
180.0
 51
270.0
1001
GENIUS_GENODEF_13
1002
{
1000
HIER
1070
     0
1002
}
1002
{
1000
MANEDIT
1070
     0
1002
}
1002
{
1000
NOSEL
1070
     0
1002
}
1002
{
1000
BEHIND
1070
     0
1002
}
1002
{
1000
REACTOR
1002
}
1001
GENIUS_GENOBJ-N-FIL_13
1002
{
1000
OWNER
1000
GEN
1002
}
  0
ARC
  5
BE5
  8
0
 10
242.7528238521578
 20
120.6332047606959
 30
0.0
 40
1.5
 50
180.0
 51
270.0
1001
GENIUS_GENODEF_13
1002
{
1000
HIER
1070
     0
1002
}
1002
{
1000
MANEDIT
1070
     0
1002
}
1002
{
1000
NOSEL
1070
     0
1002
}
1002
{
1000
BEHIND
1070
     0
1002
}
1002
{
1000
REACTOR
1002
}
1001
GENIUS_GENOBJ-N-FIL_13
1002
{
1000
OWNER
1000
GEN
1002
}
  0
ARC
  5
BE6
  8
0
 10
242.75282385215789
 20
117.6332047606959
 30
0.0
 40
1.5
 50
90.0
 51
180.0
1001
GENIUS_GENODEF_13
1002
{
1000
HIER
1070
     0
1002
}
1002
{
1000
MANEDIT
1070
     0
1002
}
1002
{
1000
NOSEL
1070
     0
1002
}
1002
{
1000
BEHIND
1070
     0
1002
}
1002
{
1000
REACTOR
1002
}
1001
GENIUS_GENOBJ-N-FIL_13
1002
{
1000
OWNER
1000
GEN
1002
}
  0
ARC
  5
BE7
  8
0
 10
242.75282385215749
 20
133.55156511135789
 30
0.0
 40
1.5
 50
90.0
 51
180.0
1001
GENIUS_GENODEF_13
1002
{
1000
HIER
1070
     0
1002
}
1002
{
1000
MANEDIT
1070
     0
1002
}
1002
{
1000
NOSEL
1070
     0
1002
}
1002
{
1000
BEHIND
1070
     0
1002
}
1002
{
1000
REACTOR
1002
}
1001
GENIUS_GENOBJ-N-FIL_13
1002
{
1000
OWNER
1000
GEN
1002
}
  0
ARC
  5
BE8
  8
0
 10
242.75282385215769
 20
125.592384936027
 30
0.0
 40
1.5
 50
90.0
 51
180.0
1001
GENIUS_GENODEF_13
1002
{
1000
HIER
1070
     0
1002
}
1002
{
1000
MANEDIT
1070
     0
1002
}
1002
{
1000
NOSEL
1070
     0
1002
}
1002
{
1000
BEHIND
1070
     0
1002
}
1002
{
1000
REACTOR
1002
}
1001
GENIUS_GENOBJ-N-FIL_13
1002
{
1000
OWNER
1000
GEN
1002
}
  0
ARC
  5
BE9
  8
0
 10
242.75282385215769
 20
128.592384936027
 30
0.0
 40
1.5
 50
180.0
 51
270.0
1001
GENIUS_GENODEF_13
1002
{
1000
HIER
1070
     0
1002
}
1002
{
1000
MANEDIT
1070
     0
1002
}
1002
{
1000
NOSEL
1070
     0
1002
}
1002
{
1000
BEHIND
1070
     0
1002
}
1002
{
1000
REACTOR
1002
}
1001
GENIUS_GENOBJ-N-FIL_13
1002
{
1000
OWNER
1000
GEN
1002
}
  0
ARC
  5
BEA
  8
0
 10
242.752823852158
 20
141.510745286689
 30
0.0
 40
1.5
 50
90.0
 51
180.0
1001
GENIUS_GENODEF_13
1002
{
1000
HIER
1070
     0
1002
}
1002
{
1000
MANEDIT
1070
     0
1002
}
1002
{
1000
NOSEL
1070
     0
1002
}
1002
{
1000
BEHIND
1070
     0
1002
}
1002
{
1000
REACTOR
1002
}
1001
GENIUS_GENOBJ-N-FIL_13
1002
{
1000
OWNER
1000
GEN
1002
}
  0
ARC
  5
BEB
  8
0
 10
242.752823852158
 20
144.51074528668909
 30
0.0
 40
1.5
 50
180.0
 51
270.0
1001
GENIUS_GENODEF_13
1002
{
1000
HIER
1070
     0
1002
}
1002
{
1000
MANEDIT
1070
     0
1002
}
1002
{
1000
NOSEL
1070
     0
1002
}
1002
{
1000
BEHIND
1070
     0
1002
}
1002
{
1000
REACTOR
1002
}
1001
GENIUS_GENOBJ-N-FIL_13
1002
{
1000
OWNER
1000
GEN
1002
}
  0
ARC
  5
BEC
  8
0
 10
242.752823852158
 20
149.46992546202031
 30
0.0
 40
1.5
 50
90.0
 51
180.0
1001
GENIUS_GENODEF_13
1002
{
1000
HIER
1070
     0
1002
}
1002
{
1000
MANEDIT
1070
     0
1002
}
1002
{
1000
NOSEL
1070
     0
1002
}
1002
{
1000
BEHIND
1070
     0
1002
}
1002
{
1000
REACTOR
1002
}
1001
GENIUS_GENOBJ-N-FIL_13
1002
{
1000
OWNER
1000
GEN
1002
}
  0
LINE
  5
BED
  8
0
 10
241.2528238521582
 20
149.46992546202031
 30
0.0
 11
241.2528238521582
 21
144.51074528668909
 31
0.0
  0
ARC
  5
BEE
  8
0
 10
242.752823852158
 20
157.42910563735131
 30
0.0
 40
1.5
 50
90.0
 51
180.0
1001
GENIUS_GENODEF_13
1002
{
1000
HIER
1070
     0
1002
}
1002
{
1000
MANEDIT
1070
     0
1002
}
1002
{
1000
NOSEL
1070
     0
1002
}
1002
{
1000
BEHIND
1070
     0
1002
}
1002
{
1000
REACTOR
1002
}
1001
GENIUS_GENOBJ-N-FIL_13
1002
{
1000
OWNER
1000
GEN
1002
}
  0
ARC
  5
BEF
  8
0
 10
242.752823852158
 20
160.42910563735131
 30
0.0
 40
1.5
 50
180.0
 51
270.0
1001
GENIUS_GENODEF_13
1002
{
1000
HIER
1070
     0
1002
}
1002
{
1000
MANEDIT
1070
     0
1002
}
1002
{
1000
NOSEL
1070
     0
1002
}
1002
{
1000
BEHIND
1070
     0
1002
}
1002
{
1000
REACTOR
1002
}
1001
GENIUS_GENOBJ-N-FIL_13
1002
{
1000
OWNER
1000
GEN
1002
}
  0
ARC
  5
BF0
  8
0
 10
242.752823852158
 20
165.3882858126824
 30
0.0
 40
1.5
 50
90.0
 51
180.0
1001
GENIUS_GENODEF_13
1002
{
1000
HIER
1070
     0
1002
}
1002
{
1000
MANEDIT
1070
     0
1002
}
1002
{
1000
NOSEL
1070
     0
1002
}
1002
{
1000
BEHIND
1070
     0
1002
}
1002
{
1000
REACTOR
1002
}
1001
GENIUS_GENOBJ-N-FIL_13
1002
{
1000
OWNER
1000
GEN
1002
}
  0
ARC
  5
BF1
  8
0
 10
242.752823852158
 20
168.3882858126824
 30
0.0
 40
1.5
 50
180.0
 51
270.0
1001
GENIUS_GENODEF_13
1002
{
1000
HIER
1070
     0
1002
}
1002
{
1000
MANEDIT
1070
     0
1002
}
1002
{
1000
NOSEL
1070
     0
1002
}
1002
{
1000
BEHIND
1070
     0
1002
}
1002
{
1000
REACTOR
1002
}
1001
GENIUS_GENOBJ-N-FIL_13
1002
{
1000
OWNER
1000
GEN
1002
}
  0
ARC
  5
BF2
  8
0
 10
242.75282385215749
 20
136.55156511135789
 30
0.0
 40
1.5
 50
180.0
 51
270.0
1001
GENIUS_GENODEF_13
1002
{
1000
HIER
1070
     0
1002
}
1002
{
1000
MANEDIT
1070
     0
1002
}
1002
{
1000
NOSEL
1070
     0
1002
}
1002
{
1000
BEHIND
1070
     0
1002
}
1002
{
1000
REACTOR
1002
}
1001
GENIUS_GENOBJ-N-FIL_13
1002
{
1000
OWNER
1000
GEN
1002
}
  0
ARC
  5
BF3
  8
0
 10
254.7528238521588
 20
114.5107595707542
 30
0.0
 40
4.0
 50
180.0
 51
270.0
1001
GENIUS_GENODEF_13
1002
{
1000
HIER
1070
     0
1002
}
1002
{
1000
MANEDIT
1070
     0
1002
}
1002
{
1000
NOSEL
1070
     0
1002
}
1002
{
1000
BEHIND
1070
     0
1002
}
1002
{
1000
REACTOR
1002
}
1001
GENIUS_GENOBJ-N-FIL_13
1002
{
1000
OWNER
1000
GEN
1002
}
  0
LINE
  5
BF4
  8
0
 10
250.7528238521588
 20
171.5107310026244
 30
0.0
 11
250.7528238521588
 21
114.5107595707542
 31
0.0
  0
LINE
  5
BF5
  8
0
 10
264.25282385215797
 20
110.5107595707545
 30
0.0
 11
242.752823852158
 21
110.51075957075381
 31
0.0
  0
LINE
  5
BF6
  8
0
 10
250.75282385215939
 20
119.1332047606961
 30
0.0
 11
242.7528238521578
 21
119.1332047606959
 31
0.0
  0
LINE
  5
BF7
  8
0
 10
250.7528238521592
 20
127.0923849360272
 30
0.0
 11
242.7528238521576
 21
127.0923849360268
 31
0.0
  0
LINE
  5
BF8
  8
0
 10
250.75282385215891
 20
135.0515651113582
 30
0.0
 11
242.75282385215749
 21
135.05156511135789
 31
0.0
  0
LINE
  5
BF9
  8
0
 10
250.7528238521588
 20
143.0107452866892
 30
0.0
 11
242.79058361838409
 21
143.010745286689
 31
0.0
  0
LINE
  5
BFA
  8
0
 10
250.7528238521588
 20
143.0107452866892
 30
0.0
 11
242.752823852158
 21
143.0107452866892
 31
0.0
  0
LINE
  5
BFB
  8
0
 10
250.7528238521588
 20
150.96992546202031
 30
0.0
 11
242.752823852158
 21
150.96992546202031
 31
0.0
  0
LINE
  5
BFC
  8
0
 10
250.75282385215871
 20
158.92910563735131
 30
0.0
 11
242.752823852158
 21
158.92910563735131
 31
0.0
  0
LINE
  5
BFD
  8
0
 10
250.75282385215871
 20
166.8882858126824
 30
0.0
 11
242.752823852158
 21
166.8882858126824
 31
0.0
  0
LINE
  5
BFE
  8
1
 10
269.29465417359899
 20
143.0107452866892
 30
0.0
 11
236.2905836183844
 21
143.0107452866892
 31
0.0
  0
ARC
  5
BFF
  8
0
 10
242.752823852158
 20
174.0107310026244
 30
0.0
 40
1.5
 50
90.0
 51
180.0
1001
GENIUS_GENODEF_13
1002
{
1000
HIER
1070
     0
1002
}
1002
{
1000
MANEDIT
1070
     0
1002
}
1002
{
1000
NOSEL
1070
     0
1002
}
1002
{
1000
BEHIND
1070
     0
1002
}
1002
{
1000
REACTOR
1002
}
1001
GENIUS_GENOBJ-N-FIL_13
1002
{
1000
OWNER
1000
GEN
1002
}
  0
LINE
  5
C00
  8
0
 10
264.25282385215797
 20
175.5107310026244
 30
0.0
 11
242.752823852158
 21
175.5107310026244
 31
0.0
  0
ARC
  5
C01
  8
0
 10
254.7528238521588
 20
171.5107310026244
 30
0.0
 40
4.0
 50
90.0
 51
180.0
1001
GENIUS_GENODEF_13
1002
{
1000
HIER
1070
     0
1002
}
1002
{
1000
MANEDIT
1070
     0
1002
}
1002
{
1000
NOSEL
1070
     0
1002
}
1002
{
1000
BEHIND
1070
     0
1002
}
1002
{
1000
REACTOR
1002
}
1001
GENIUS_GENOBJ-N-FIL_13
1002
{
1000
OWNER
1000
GEN
1002
}
  0
LINE
  5
C02
  8
0
 10
241.252823852158
 20
174.0107310026244
 30
0.0
 11
241.252823852158
 21
168.3882858126824
 31
0.0
  0
LINE
  5
C03
  8
0
 10
264.25282385215797
 20
175.51073100262431
 30
0.0
 11
264.25282385215797
 21
110.5107595707542
 31
0.0
  0
LINE
  5
C04
  8
1
 10
249.2528238521578
 20
216.51073100262451
 30
0.0
 11
249.252823852158
 21
170.5107310026244
 31
0.0
  0
LINE
  5
C05
  8
0
 10
241.252823852158
 20
165.3882858126824
 30
0.0
 11
241.2528238521582
 21
160.42910563735131
 31
0.0
  0
ARC
  5
C06
  8
0
 10
242.752823852158
 20
152.46992546202031
 30
0.0
 40
1.5
 50
180.0
 51
270.0
1001
GENIUS_GENODEF_13
1002
{
1000
HIER
1070
     0
1002
}
1002
{
1000
MANEDIT
1070
     0
1002
}
1002
{
1000
NOSEL
1070
     0
1002
}
1002
{
1000
BEHIND
1070
     0
1002
}
1002
{
1000
REACTOR
1002
}
1001
GENIUS_GENOBJ-N-FIL_13
1002
{
1000
OWNER
1000
GEN
1002
}
  0
LINE
  5
C07
  8
0
 10
241.252823852158
 20
157.42910563735131
 30
0.0
 11
241.252823852158
 21
152.46992546202031
 31
0.0
  0
LINE
  5
C08
  8
0
 10
241.252823852158
 20
141.510745286689
 30
0.0
 11
241.25282385215789
 21
136.55156511135789
 31
0.0
  0
LINE
  5
C09
  8
0
 10
241.25282385215789
 20
133.55156511135789
 30
0.0
 11
241.25282385215789
 21
128.592384936027
 31
0.0
  0
LINE
  5
C0A
  8
0
 10
241.252823852158
 20
117.6332047606959
 30
0.0
 11
241.252823852158
 21
112.01075957075381
 31
0.0
  0
LINE
  5
C0B
  8
0
 10
241.2528238521578
 20
125.592384936027
 30
0.0
 11
241.25282385215789
 21
120.6332047606959
 31
0.0
  0
LINE
  5
C0C
  8
2
 10
253.2528238521588
 20
166.2607452866888
 30
0.0
 11
253.2528238521588
 21
159.7607452866888
 31
0.0
  0
LINE
  5
C0D
  8
2
 10
253.2528238521588
 20
166.2607452866888
 30
0.0
 11
250.7528238521588
 21
168.7607452866886
 31
0.0
  0
LINE
  5
C0E
  8
2
 10
253.2528238521588
 20
159.7607452866888
 30
0.0
 11
250.7528238521588
 21
157.2607452866886
 31
0.0
  0
LINE
  5
C0F
  8
2
 10
253.2528238521588
 20
119.76074528668831
 30
0.0
 11
250.7528238521588
 21
117.26074528668811
 31
0.0
  0
LINE
  5
C10
  8
2
 10
253.25282385215891
 20
119.76074528668831
 30
0.0
 11
264.2528238521582
 21
119.7607452866889
 31
0.0
  0
LINE
  5
C11
  8
2
 10
253.2528238521588
 20
126.26074528668831
 30
0.0
 11
253.2528238521588
 21
119.76074528668831
 31
0.0
  0
LINE
  5
C12
  8
2
 10
253.2528238521588
 20
126.2607452866884
 30
0.0
 11
250.7528238521588
 21
128.76074528668809
 31
0.0
  0
LINE
  5
C13
  8
2
 10
253.2528238521588
 20
126.2607452866884
 30
0.0
 11
264.25282385215792
 21
126.2607452866889
 31
0.0
  0
LINE
  5
C14
  8
2
 10
65.324901981962171
 20
126.2607452866884
 30
0.0
 11
54.32490198196308
 21
126.2607452866889
 31
0.0
  0
LINE
  5
C15
  8
2
 10
65.324901981962171
 20
126.2607452866884
 30
0.0
 11
67.824901981962171
 21
128.76074528668809
 31
0.0
  0
LINE
  5
C16
  8
2
 10
65.324901981962171
 20
126.26074528668831
 30
0.0
 11
65.324901981962171
 21
119.76074528668831
 31
0.0
  0
LINE
  5
C17
  8
2
 10
65.324901981962057
 20
119.76074528668831
 30
0.0
 11
54.324901981962739
 21
119.7607452866889
 31
0.0
  0
LINE
  5
C18
  8
2
 10
65.324901981962171
 20
119.76074528668831
 30
0.0
 11
67.824901981962171
 21
117.26074528668811
 31
0.0
  0
LINE
  5
C19
  8
2
 10
65.324901981962171
 20
159.7607452866888
 30
0.0
 11
67.824901981962171
 21
157.2607452866886
 31
0.0
  0
LINE
  5
C1A
  8
2
 10
65.324901981962171
 20
166.2607452866888
 30
0.0
 11
67.824901981962171
 21
168.7607452866886
 31
0.0
  0
LINE
  5
C1B
  8
2
 10
65.324901981962171
 20
166.2607452866888
 30
0.0
 11
65.324901981962171
 21
159.7607452866888
 31
0.0
  0
LINE
  5
C1C
  8
0
 10
77.324901981963194
 20
125.592384936027
 30
0.0
 11
77.32490198196308
 21
120.6332047606959
 31
0.0
  0
LINE
  5
C1D
  8
0
 10
77.324901981962967
 20
117.6332047606959
 30
0.0
 11
77.324901981962967
 21
112.01075957075381
 31
0.0
  0
LINE
  5
C1E
  8
0
 10
77.32490198196308
 20
133.55156511135789
 30
0.0
 11
77.32490198196308
 21
128.592384936027
 31
0.0
  0
LINE
  5
C1F
  8
0
 10
77.324901981962967
 20
141.510745286689
 30
0.0
 11
77.32490198196308
 21
136.55156511135789
 31
0.0
  0
LINE
  5
C20
  8
0
 10
77.324901981962967
 20
157.42910563735131
 30
0.0
 11
77.324901981962967
 21
152.46992546202031
 31
0.0
  0
ARC
  5
C21
  8
0
 10
75.824901981962967
 20
152.46992546202031
 30
0.0
 40
1.5
 50
270.0
 51
0.0
1001
GENIUS_GENODEF_13
1002
{
1000
HIER
1070
     0
1002
}
1002
{
1000
MANEDIT
1070
     0
1002
}
1002
{
1000
NOSEL
1070
     0
1002
}
1002
{
1000
BEHIND
1070
     0
1002
}
1002
{
1000
REACTOR
1002
}
1001
GENIUS_GENOBJ-N-FIL_13
1002
{
1000
OWNER
1000
GEN
1002
}
  0
LINE
  5
C22
  8
0
 10
77.324901981962967
 20
165.3882858126824
 30
0.0
 11
77.324901981962853
 21
160.42910563735131
 31
0.0
  0
LINE
  5
C23
  8
0
 10
61.423067205737198
 20
184.8215718685768
 30
0.0
 11
61.324901981963308
 21
201.69474055238001
 31
0.0
  0
LINE
  5
C24
  8
0
 10
74.724901981962944
 20
175.5107310026244
 30
0.0
 11
75.224901981962944
 21
176.0107310026244
 31
0.0
  0
LINE
  5
C25
  8
0
 10
63.924901981962982
 20
175.5107310026244
 30
0.0
 11
63.424901981962989
 21
176.0107310026244
 31
0.0
  0
LINE
  5
C26
  8
3
 10
64.10918174978076
 20
180.5107310026244
 30
0.0
 11
64.10918174978076
 21
175.5107310026244
 31
0.0
  0
LINE
  5
C27
  8
1
 10
69.324901981963194
 20
216.51073100262451
 30
0.0
 11
69.324901981962967
 21
170.5107310026244
 31
0.0
  0
LINE
  5
C28
  8
3
 10
72.952116349667108
 20
180.5107310026244
 30
0.0
 11
72.952116349667108
 21
175.5107310026244
 31
0.0
  0
LINE
  5
C29
  8
3
 10
73.783027003379743
 20
180.5107310026244
 30
0.0
 11
73.783027003379743
 21
175.5107310026244
 31
0.0
  0
LINE
  5
C2A
  8
3
 10
74.540622214145174
 20
180.5107310026244
 30
0.0
 11
74.540622214145174
 21
175.5107310026244
 31
0.0
  0
LINE
  5
C2B
  8
3
 10
64.86677696054619
 20
180.5107310026244
 30
0.0
 11
64.86677696054619
 21
175.5107310026244
 31
0.0
  0
LINE
  5
C2C
  8
3
 10
65.697687614258825
 20
180.5107310026244
 30
0.0
 11
65.697687614258825
 21
175.5107310026244
 31
0.0
  0
LINE
  5
C2D
  8
3
 10
66.699667634848879
 20
180.5107310026244
 30
0.0
 11
66.699667634848879
 21
175.5107310026244
 31
0.0
  0
LINE
  5
C2E
  8
3
 10
67.701647655438478
 20
180.5107310026244
 30
0.0
 11
67.701647655438478
 21
175.5107310026244
 31
0.0
  0
LINE
  5
C2F
  8
3
 10
68.65475071406297
 20
180.5107310026244
 30
0.0
 11
68.65475071406297
 21
175.5107310026244
 31
0.0
  0
LINE
  5
C30
  8
3
 10
69.995053249862963
 20
180.5107310026244
 30
0.0
 11
69.995053249862963
 21
175.5107310026244
 31
0.0
  0
LINE
  5
C31
  8
3
 10
70.948156308487455
 20
180.5107310026244
 30
0.0
 11
70.948156308487455
 21
175.5107310026244
 31
0.0
  0
LINE
  5
C32
  8
3
 10
71.950136329077054
 20
180.5107310026244
 30
0.0
 11
71.950136329077054
 21
175.5107310026244
 31
0.0
  0
ARC
  5
C33
  8
0
 10
76.926741835131793
 20
184.82331718798321
 30
0.0
 40
0.3
 50
270.0
 51
359.66666666666822
  0
LINE
  5
C34
  8
0
 10
63.424901981963103
 20
184.52331718798331
 30
0.0
 11
63.424901981963103
 21
176.0107310026244
 31
0.0
  0
ARC
  5
C35
  8
0
 10
66.124901981962921
 20
203.71073100262441
 30
0.0
 40
0.8
 50
90.0
 51
180.0
  0
LINE
  5
C36
  8
0
 10
72.524901981963012
 20
204.51073100262451
 30
0.0
 11
66.124901981962921
 21
204.51073100262451
 31
0.0
  0
LINE
  5
C37
  8
0
 10
75.224901981963043
 20
184.52331718798331
 30
0.0
 11
75.224901981962944
 21
176.0107310026244
 31
0.0
  0
ARC
  5
C38
  8
0
 10
63.142871215690427
 20
201.7053171879833
 30
0.0
 40
1.817999999999999
 50
90.0
 51
180.33333333333169
  0
LINE
  5
C39
  8
0
 10
75.506932748235613
 20
203.52331718798331
 30
0.0
 11
63.142871215690427
 21
203.52331718798331
 31
0.0
  0
ARC
  5
C3A
  8
0
 10
61.723062128794247
 20
184.82331718798321
 30
0.0
 40
0.3
 50
180.33333333333169
 51
270.0
  0
LINE
  5
C3B
  8
0
 10
61.723062128794247
 20
184.52331718798331
 30
0.0
 11
76.926741835131793
 21
184.52331718798331
 31
0.0
  0
LINE
  5
C3C
  8
0
 10
63.424901981962989
 20
180.5107310026244
 30
0.0
 11
75.224901981963043
 21
180.5107310026244
 31
0.0
  0
LINE
  5
C3D
  8
0
 10
65.324901981962967
 20
203.52331718798331
 30
0.0
 11
65.324901981962967
 21
203.71073100262441
 31
0.0
  0
LINE
  5
C3E
  8
0
 10
77.226736758189077
 20
184.8215718685768
 30
0.0
 11
77.324901981962967
 21
201.69474055238001
 31
0.0
  0
ARC
  5
C3F
  8
0
 10
75.506932748235613
 20
201.7053171879833
 30
0.0
 40
1.817999999999999
 50
359.66666666666822
 51
90.0
  0
LINE
  5
C40
  8
0
 10
73.324901981962967
 20
203.52331718798331
 30
0.0
 11
73.324901981962967
 21
203.71073100262441
 31
0.0
  0
ARC
  5
C41
  8
0
 10
72.524901981963012
 20
203.71073100262441
 30
0.0
 40
0.8
 50
0.0
 51
90.0
  0
LINE
  5
C42
  8
0
 10
63.824901981962967
 20
209.0494341301972
 30
0.0
 11
63.82490198196308
 21
206.35181786063751
 31
0.0
  0
ARC
  5
C43
  8
0
 10
69.324901981963876
 20
196.00271074571771
 30
0.0
 40
15.508020256906979
 50
75.012719856156252
 51
104.9872801438441
  0
ARC
  5
C44
  8
0
 10
65.82490198196308
 20
209.0494341301972
 30
0.0
 40
2.0
 50
104.7867808085532
 51
180.0000000000008
  0
ARC
  5
C45
  8
0
 10
55.070340469566418
 20
206.96630924217041
 30
0.0
 40
8.7761008957460263
 50
336.90140580707282
 51
355.98493736893948
  0
ARC
  5
C46
  8
3
 10
69.324901981962967
 20
182.4582991106366
 30
0.0
 40
23.89351874999976
 50
76.435820644069167
 51
103.4559619983437
  0
ARC
  5
C47
  8
0
 10
83.579463494359743
 20
206.96630924217041
 30
0.0
 40
8.7761008957460263
 50
184.01506263106049
 51
203.09859419292729
  0
ARC
  5
C48
  8
0
 10
72.82490198196308
 20
209.0494341301972
 30
0.0
 40
2.0
 50
359.9999999999992
 51
75.21321919144674
  0
LINE
  5
C49
  8
0
 10
74.824901981963194
 20
209.0494341301972
 30
0.0
 11
74.82490198196308
 21
206.35181786063751
 31
0.0
  0
LINE
  5
C4A
  8
0
 10
54.324901981962967
 20
175.51073100262431
 30
0.0
 11
54.324901981962967
 21
110.5107595707542
 31
0.0
  0
LINE
  5
C4B
  8
0
 10
77.324901981962967
 20
174.0107310026244
 30
0.0
 11
77.324901981962967
 21
168.3882858126824
 31
0.0
  0
ARC
  5
C4C
  8
0
 10
63.824901981962171
 20
171.5107310026244
 30
0.0
 40
4.0
 50
0.0
 51
90.0
1001
GENIUS_GENODEF_13
1002
{
1000
HIER
1070
     0
1002
}
1002
{
1000
MANEDIT
1070
     0
1002
}
1002
{
1000
NOSEL
1070
     0
1002
}
1002
{
1000
BEHIND
1070
     0
1002
}
1002
{
1000
REACTOR
1002
}
1001
GENIUS_GENOBJ-N-FIL_13
1002
{
1000
OWNER
1000
GEN
1002
}
  0
LINE
  5
C4D
  8
0
 10
54.324901981962967
 20
175.5107310026244
 30
0.0
 11
75.824901981962967
 21
175.5107310026244
 31
0.0
  0
ARC
  5
C4E
  8
0
 10
75.824901981962967
 20
174.0107310026244
 30
0.0
 40
1.5
 50
0.0
 51
90.0
1001
GENIUS_GENODEF_13
1002
{
1000
HIER
1070
     0
1002
}
1002
{
1000
MANEDIT
1070
     0
1002
}
1002
{
1000
NOSEL
1070
     0
1002
}
1002
{
1000
BEHIND
1070
     0
1002
}
1002
{
1000
REACTOR
1002
}
1001
GENIUS_GENOBJ-N-FIL_13
1002
{
1000
OWNER
1000
GEN
1002
}
  0
LINE
  5
C4F
  8
1
 10
49.283071660521962
 20
143.0107452866892
 30
0.0
 11
82.287142215736594
 21
143.0107452866892
 31
0.0
  0
LINE
  5
C50
  8
0
 10
67.824901981962284
 20
166.8882858126824
 30
0.0
 11
75.824901981962967
 21
166.8882858126824
 31
0.0
  0
LINE
  5
C51
  8
0
 10
67.824901981962284
 20
158.92910563735131
 30
0.0
 11
75.824901981962967
 21
158.92910563735131
 31
0.0
  0
LINE
  5
C52
  8
0
 10
67.824901981962171
 20
150.96992546202031
 30
0.0
 11
75.824901981962967
 21
150.96992546202031
 31
0.0
  0
LINE
  5
C53
  8
0
 10
67.824901981962171
 20
143.0107452866892
 30
0.0
 11
75.824901981962967
 21
143.0107452866892
 31
0.0
  0
LINE
  5
C54
  8
0
 10
67.824901981962171
 20
143.0107452866892
 30
0.0
 11
75.787142215736935
 21
143.010745286689
 31
0.0
  0
LINE
  5
C55
  8
0
 10
67.824901981962057
 20
135.0515651113582
 30
0.0
 11
75.824901981963535
 21
135.05156511135789
 31
0.0
  0
LINE
  5
C56
  8
0
 10
67.82490198196183
 20
127.0923849360272
 30
0.0
 11
75.824901981963421
 21
127.0923849360268
 31
0.0
  0
LINE
  5
C57
  8
0
 10
67.824901981961602
 20
119.1332047606961
 30
0.0
 11
75.824901981963194
 21
119.1332047606959
 31
0.0
  0
LINE
  5
C58
  8
0
 10
54.324901981962967
 20
110.5107595707545
 30
0.0
 11
75.824901981962967
 21
110.51075957075381
 31
0.0
  0
LINE
  5
C59
  8
0
 10
67.824901981962171
 20
171.5107310026244
 30
0.0
 11
67.824901981962171
 21
114.5107595707542
 31
0.0
  0
ARC
  5
C5A
  8
0
 10
63.824901981962171
 20
114.5107595707542
 30
0.0
 40
4.0
 50
270.0
 51
0.0
1001
GENIUS_GENODEF_13
1002
{
1000
HIER
1070
     0
1002
}
1002
{
1000
MANEDIT
1070
     0
1002
}
1002
{
1000
NOSEL
1070
     0
1002
}
1002
{
1000
BEHIND
1070
     0
1002
}
1002
{
1000
REACTOR
1002
}
1001
GENIUS_GENOBJ-N-FIL_13
1002
{
1000
OWNER
1000
GEN
1002
}
  0
ARC
  5
C5B
  8
0
 10
75.824901981963535
 20
136.55156511135789
 30
0.0
 40
1.5
 50
270.0
 51
0.0
1001
GENIUS_GENODEF_13
1002
{
1000
HIER
1070
     0
1002
}
1002
{
1000
MANEDIT
1070
     0
1002
}
1002
{
1000
NOSEL
1070
     0
1002
}
1002
{
1000
BEHIND
1070
     0
1002
}
1002
{
1000
REACTOR
1002
}
1001
GENIUS_GENOBJ-N-FIL_13
1002
{
1000
OWNER
1000
GEN
1002
}
  0
ARC
  5
C5C
  8
0
 10
75.824901981962967
 20
168.3882858126824
 30
0.0
 40
1.5
 50
270.0
 51
0.0
1001
GENIUS_GENODEF_13
1002
{
1000
HIER
1070
     0
1002
}
1002
{
1000
MANEDIT
1070
     0
1002
}
1002
{
1000
NOSEL
1070
     0
1002
}
1002
{
1000
BEHIND
1070
     0
1002
}
1002
{
1000
REACTOR
1002
}
1001
GENIUS_GENOBJ-N-FIL_13
1002
{
1000
OWNER
1000
GEN
1002
}
  0
ARC
  5
C5D
  8
0
 10
75.824901981962967
 20
165.3882858126824
 30
0.0
 40
1.5
 50
0.0
 51
90.0
1001
GENIUS_GENODEF_13
1002
{
1000
HIER
1070
     0
1002
}
1002
{
1000
MANEDIT
1070
     0
1002
}
1002
{
1000
NOSEL
1070
     0
1002
}
1002
{
1000
BEHIND
1070
     0
1002
}
1002
{
1000
REACTOR
1002
}
1001
GENIUS_GENOBJ-N-FIL_13
1002
{
1000
OWNER
1000
GEN
1002
}
  0
ARC
  5
C5E
  8
0
 10
75.824901981962967
 20
160.42910563735131
 30
0.0
 40
1.5
 50
270.0
 51
0.0
1001
GENIUS_GENODEF_13
1002
{
1000
HIER
1070
     0
1002
}
1002
{
1000
MANEDIT
1070
     0
1002
}
1002
{
1000
NOSEL
1070
     0
1002
}
1002
{
1000
BEHIND
1070
     0
1002
}
1002
{
1000
REACTOR
1002
}
1001
GENIUS_GENOBJ-N-FIL_13
1002
{
1000
OWNER
1000
GEN
1002
}
  0
ARC
  5
C5F
  8
0
 10
75.824901981962967
 20
157.42910563735131
 30
0.0
 40
1.5
 50
0.0
 51
90.0
1001
GENIUS_GENODEF_13
1002
{
1000
HIER
1070
     0
1002
}
1002
{
1000
MANEDIT
1070
     0
1002
}
1002
{
1000
NOSEL
1070
     0
1002
}
1002
{
1000
BEHIND
1070
     0
1002
}
1002
{
1000
REACTOR
1002
}
1001
GENIUS_GENOBJ-N-FIL_13
1002
{
1000
OWNER
1000
GEN
1002
}
  0
LINE
  5
C60
  8
0
 10
77.324901981962853
 20
149.46992546202031
 30
0.0
 11
77.324901981962853
 21
144.51074528668909
 31
0.0
  0
ARC
  5
C61
  8
0
 10
75.824901981962967
 20
149.46992546202031
 30
0.0
 40
1.5
 50
0.0
 51
90.0
1001
GENIUS_GENODEF_13
1002
{
1000
HIER
1070
     0
1002
}
1002
{
1000
MANEDIT
1070
     0
1002
}
1002
{
1000
NOSEL
1070
     0
1002
}
1002
{
1000
BEHIND
1070
     0
1002
}
1002
{
1000
REACTOR
1002
}
1001
GENIUS_GENOBJ-N-FIL_13
1002
{
1000
OWNER
1000
GEN
1002
}
  0
ARC
  5
C62
  8
0
 10
75.824901981962967
 20
144.51074528668909
 30
0.0
 40
1.5
 50
270.0
 51
0.0
1001
GENIUS_GENODEF_13
1002
{
1000
HIER
1070
     0
1002
}
1002
{
1000
MANEDIT
1070
     0
1002
}
1002
{
1000
NOSEL
1070
     0
1002
}
1002
{
1000
BEHIND
1070
     0
1002
}
1002
{
1000
REACTOR
1002
}
1001
GENIUS_GENOBJ-N-FIL_13
1002
{
1000
OWNER
1000
GEN
1002
}
  0
ARC
  5
C63
  8
0
 10
75.824901981962967
 20
141.510745286689
 30
0.0
 40
1.5
 50
0.0
 51
90.0
1001
GENIUS_GENODEF_13
1002
{
1000
HIER
1070
     0
1002
}
1002
{
1000
MANEDIT
1070
     0
1002
}
1002
{
1000
NOSEL
1070
     0
1002
}
1002
{
1000
BEHIND
1070
     0
1002
}
1002
{
1000
REACTOR
1002
}
1001
GENIUS_GENOBJ-N-FIL_13
1002
{
1000
OWNER
1000
GEN
1002
}
  0
ARC
  5
C64
  8
0
 10
75.824901981963308
 20
128.592384936027
 30
0.0
 40
1.5
 50
270.0
 51
0.0
1001
GENIUS_GENODEF_13
1002
{
1000
HIER
1070
     0
1002
}
1002
{
1000
MANEDIT
1070
     0
1002
}
1002
{
1000
NOSEL
1070
     0
1002
}
1002
{
1000
BEHIND
1070
     0
1002
}
1002
{
1000
REACTOR
1002
}
1001
GENIUS_GENOBJ-N-FIL_13
1002
{
1000
OWNER
1000
GEN
1002
}
  0
ARC
  5
C65
  8
0
 10
75.824901981963308
 20
125.592384936027
 30
0.0
 40
1.5
 50
0.0
 51
90.0
1001
GENIUS_GENODEF_13
1002
{
1000
HIER
1070
     0
1002
}
1002
{
1000
MANEDIT
1070
     0
1002
}
1002
{
1000
NOSEL
1070
     0
1002
}
1002
{
1000
BEHIND
1070
     0
1002
}
1002
{
1000
REACTOR
1002
}
1001
GENIUS_GENOBJ-N-FIL_13
1002
{
1000
OWNER
1000
GEN
1002
}
  0
ARC
  5
C66
  8
0
 10
75.824901981963535
 20
133.55156511135789
 30
0.0
 40
1.5
 50
0.0
 51
90.0
1001
GENIUS_GENODEF_13
1002
{
1000
HIER
1070
     0
1002
}
1002
{
1000
MANEDIT
1070
     0
1002
}
1002
{
1000
NOSEL
1070
     0
1002
}
1002
{
1000
BEHIND
1070
     0
1002
}
1002
{
1000
REACTOR
1002
}
1001
GENIUS_GENOBJ-N-FIL_13
1002
{
1000
OWNER
1000
GEN
1002
}
  0
ARC
  5
C67
  8
0
 10
75.82490198196308
 20
117.6332047606959
 30
0.0
 40
1.5
 50
0.0
 51
90.0
1001
GENIUS_GENODEF_13
1002
{
1000
HIER
1070
     0
1002
}
1002
{
1000
MANEDIT
1070
     0
1002
}
1002
{
1000
NOSEL
1070
     0
1002
}
1002
{
1000
BEHIND
1070
     0
1002
}
1002
{
1000
REACTOR
1002
}
1001
GENIUS_GENOBJ-N-FIL_13
1002
{
1000
OWNER
1000
GEN
1002
}
  0
ARC
  5
C68
  8
0
 10
75.824901981963194
 20
120.6332047606959
 30
0.0
 40
1.5
 50
270.0
 51
0.0
1001
GENIUS_GENODEF_13
1002
{
1000
HIER
1070
     0
1002
}
1002
{
1000
MANEDIT
1070
     0
1002
}
1002
{
1000
NOSEL
1070
     0
1002
}
1002
{
1000
BEHIND
1070
     0
1002
}
1002
{
1000
REACTOR
1002
}
1001
GENIUS_GENOBJ-N-FIL_13
1002
{
1000
OWNER
1000
GEN
1002
}
  0
ARC
  5
C69
  8
0
 10
75.824901981962967
 20
112.01075957075381
 30
0.0
 40
1.5
 50
270.0
 51
0.0
1001
GENIUS_GENODEF_13
1002
{
1000
HIER
1070
     0
1002
}
1002
{
1000
MANEDIT
1070
     0
1002
}
1002
{
1000
NOSEL
1070
     0
1002
}
1002
{
1000
BEHIND
1070
     0
1002
}
1002
{
1000
REACTOR
1002
}
1001
GENIUS_GENOBJ-N-FIL_13
1002
{
1000
OWNER
1000
GEN
1002
}
  0
LINE
  5
C6A
  8
1
 10
72.824901981962057
 20
123.01074528668789
 30
0.0
 11
49.324901981962967
 21
123.0107452866893
 31
0.0
  0
LINE
  5
C6B
  8
2
 10
65.324901981962171
 20
166.2607452866888
 30
0.0
 11
54.32490198196308
 21
166.26074528668931
 31
0.0
  0
LINE
  5
C6C
  8
1
 10
72.824901981962057
 20
163.01074528668829
 30
0.0
 11
49.324901981962967
 21
163.01074528668971
 31
0.0
  0
LINE
  5
C6D
  8
2
 10
65.324901981962057
 20
159.7607452866888
 30
0.0
 11
54.324901981962739
 21
159.7607452866894
 31
0.0
  0
ARC
  5
C6E
  8
3
 10
168.440365525922
 20
278.01073100262431
 30
0.0
 40
11.0
 50
239.4415682140656
 51
270.0
  0
ARC
  5
C6F
  8
0
 10
168.440365525922
 20
278.01073100262431
 30
0.0
 40
10.0
 50
239.4415682140656
 51
270.0
  0
LINE
  5
C70
  8
0
 10
159.28886291705999
 20
260.20132992774637
 30
0.0
 11
157.28886291705999
 21
261.35603046612528
 31
0.0
  0
LINE
  5
C71
  8
0
 10
157.28886291868801
 20
261.35603046518582
 30
0.0
 11
157.28886291868801
 21
263.66543154194409
 31
0.0
  0
LINE
  5
C72
  8
0
 10
157.28886291868801
 20
263.66543154006422
 30
0.0
 11
159.2888629186879
 21
264.82013207844369
 31
0.0
  0
ARC
  5
C73
  8
0
 10
159.2888629170605
 20
262.51073100262442
 30
0.0
 40
8.0
 50
59.441568214065597
 51
300.55843178593437
  0
ARC
  5
C74
  8
3
 10
151.51899599793069
 20
262.51073100262442
 30
0.0
 40
14.48250673635196
 50
339.72715202547067
 51
20.272847974528911
  0
LINE
  5
C75
  8
0
 10
161.28886291543199
 20
263.66543154006439
 30
0.0
 11
161.28886291543199
 21
261.35603046330613
 31
0.0
  0
LINE
  5
C76
  8
0
 10
161.2888629154302
 20
261.35603046518457
 30
0.0
 11
159.28886291543199
 21
260.2013299268051
 31
0.0
  0
LINE
  5
C77
  8
0
 10
159.28886291705999
 20
264.82013207750242
 30
0.0
 11
161.28886291705999
 21
263.66543153912357
 31
0.0
  0
ARC
  5
C78
  8
0
 10
168.440365525922
 20
247.01073100262431
 30
0.0
 40
10.0
 50
90.0
 51
120.5584317859343
  0
ARC
  5
C79
  8
3
 10
159.2888629170605
 20
262.51073100262442
 30
0.0
 40
7.0
 50
59.441568214065597
 51
300.55843178593437
  0
ARC
  5
C7A
  8
3
 10
168.440365525922
 20
247.01073100262431
 30
0.0
 40
11.0
 50
90.0
 51
120.5584317859343
  0
CIRCLE
  5
C7B
  8
0
 10
172.52150326946389
 20
262.51073100262431
 30
0.0
 40
0.7
  0
CIRCLE
  5
C7C
  8
0
 10
174.60337653746879
 20
262.51073100262442
 30
0.0
 40
0.7
  0
CIRCLE
  5
C7D
  8
0
 10
168.08320296135241
 20
262.45375067715668
 30
0.0
 40
0.7
  0
CIRCLE
  5
C7E
  8
0
 10
170.22880015478361
 20
262.45375067715668
 30
0.0
 40
0.7
  0
CIRCLE
  5
C7F
  8
0
 10
176.8574798358315
 20
262.51073100262442
 30
0.0
 40
0.7
  0
TEXT
  5
C80
  8
3
 10
181.9287075023006
 20
260.99792840312261
 30
0.0
 40
2.7334256534337391
  1
PUSH
 50
0.0000000000003308
 41
1.6000000000000001
  7
ARIAL-NARROW
  0
LINE
  5
C81
  8
1
 10
146.4613629170606
 20
262.51073100262431
 30
0.0
 11
208.2888629170605
 21
262.51073100262442
 31
0.0
  0
LINE
  5
C82
  8
0
 10
168.440365525922
 20
257.01073100262431
 30
0.0
 11
197.78886291706041
 21
257.01073100262442
 31
0.0
  0
ARC
  5
C83
  8
0
 10
197.78886291706041
 20
262.51073100262488
 30
0.0
 40
5.5
 50
270.0
 51
90.0
  0
LINE
  5
C84
  8
0
 10
168.440365525922
 20
268.01073100262431
 30
0.0
 11
197.78886291706041
 21
268.0107310026242
 31
0.0
  0
ARC
  5
C85
  8
3
 10
197.78886291706041
 20
262.51073100262488
 30
0.0
 40
4.5
 50
270.0
 51
90.0
  0
LINE
  5
C86
  8
3
 10
168.440365525922
 20
267.01073100262431
 30
0.0
 11
197.78886291706041
 21
267.01073100262431
 31
0.0
  0
LINE
  5
C87
  8
3
 10
168.440365525922
 20
258.01073100262431
 30
0.0
 11
197.78886291706041
 21
258.01073100262442
 31
0.0
  0
LINE
  5
C88
  8
3
 10
140.22110841164749
 20
264.0156213825083
 30
0.0
 11
144.6970325956201
 21
264.0156213825083
 31
0.0
  0
LINE
  5
C89
  8
3
 10
173.8806932385009
 20
51.005869190870271
 30
0.0
 11
178.3566174224739
 21
51.005869190870271
 31
0.0
  0
LINE
  5
C8A
  8
0
 10
191.2905836183848
 20
47.005869190869703
 30
0.0
 11
197.7888629170603
 21
47.005869190869703
 31
0.0
  0
LINE
  5
C8B
  8
0
 10
190.41308261758411
 20
49.505869190870207
 30
0.0
 11
196.2888629170605
 21
49.505869190870207
 31
0.0
  0
ARC
  5
C8C
  8
0
 10
168.44036552592181
 20
68.005869190869618
 30
0.0
 40
10.0
 50
239.4415682140656
 51
270.0
  0
LINE
  5
C8D
  8
0
 10
170.31242173939791
 20
55.505869190870271
 30
0.0
 11
196.28886291706061
 21
55.505869190870207
 31
0.0
  0
ARC
  5
C8E
  8
0
 10
196.28886291706061
 20
54.505869190870207
 30
0.0
 40
1.0
 50
0.0
 51
90.0
  0
LINE
  5
C8F
  8
0
 10
168.44036552592181
 20
58.005869190869618
 30
0.0
 11
197.7888629170603
 21
58.005869190869561
 31
0.0
  0
LINE
  5
C90
  8
0
 10
197.2888629170605
 20
50.505869190870207
 30
0.0
 11
197.28886291706061
 21
54.505869190870207
 31
0.0
  0
ARC
  5
C91
  8
0
 10
196.2888629170605
 20
50.505869190870207
 30
0.0
 40
1.0
 50
270.0
 51
359.99999999999932
  0
ARC
  5
C92
  8
0
 10
197.7888629170603
 20
52.505869190870193
 30
0.0
 40
5.5
 50
270.0
 51
90.0
  0
LINE
  5
C93
  8
1
 10
159.2888629170605
 20
275.51073100262431
 30
0.0
 11
159.2888629170605
 21
249.5107310026244
 31
0.0
  0
LINE
  5
C95
  8
1
 10
146.2888629170605
 20
262.5156213825083
 30
0.0
 11
172.2888629170605
 21
262.5156213825083
 31
0.0
  0
LINE
  5
C96
  8
0
 10
166.6951488009918
 20
268.16419767444108
 30
0.0
 11
164.28886291706061
 21
269.55346756992429
 31
0.0
  0
LINE
  5
C99
  8
0
 10
140.22110841164749
 20
264.0156213825083
 30
0.0
 11
155.38317453721689
 21
255.5338165814876
 31
0.0
  0
LINE
  5
C9A
  8
2
 10
176.0388629170607
 20
268.01073100262431
 30
0.0
 11
176.0388629170607
 21
277.5574517039484
 31
0.0
  0
LINE
  5
C9B
  8
2
 10
182.53886291706081
 20
268.01073100262431
 30
0.0
 11
182.5388629170607
 21
277.5574517039484
 31
0.0
  0
CIRCLE
  5
C9C
  8
0
 10
159.2888629170605
 20
262.5156213825083
 30
0.0
 40
4.0
  0
LINE
  5
C9D
  8
0
 10
161.28886291543219
 20
261.36092084506822
 30
0.0
 11
161.28886291543219
 21
263.6703219218266
 31
0.0
  0
LINE
  5
C9E
  8
0
 10
161.2888629154304
 20
263.67032191994809
 30
0.0
 11
159.28886291543219
 21
264.82502245832751
 31
0.0
  0
LINE
  5
C9F
  8
0
 10
159.28886291706019
 20
264.8250224573863
 30
0.0
 11
157.28886291706019
 21
263.67032191900739
 31
0.0
  0
LINE
  5
CA0
  8
0
 10
157.28886291868821
 20
263.6703219199469
 30
0.0
 11
157.28886291868821
 21
261.36092084318852
 31
0.0
  0
LINE
  5
CA1
  8
0
 10
157.28886291868821
 20
261.36092084506851
 30
0.0
 11
159.28886291868821
 21
260.20622030668892
 31
0.0
  0
LINE
  5
CA2
  8
0
 10
159.28886291706019
 20
260.20622030763019
 30
0.0
 11
161.28886291706019
 21
261.36092084600909
 31
0.0
  0
ARC
  5
CA4
  8
0
 10
187.2905836183848
 20
268.01562138250819
 30
0.0
 40
4.0
 50
359.92995045065692
 51
0.0
  0
LINE
  5
CA5
  8
1
 10
179.2888629170605
 20
282.51562138250819
 30
0.0
 11
179.2888629170605
 21
259.01562138250819
 31
0.0
  0
LINE
  5
CA6
  8
0
 10
164.2888629170605
 20
269.55346756992429
 30
0.0
 11
164.28886291706061
 21
274.7489097316822
 31
0.0
  0
LINE
  5
CA7
  8
3
 10
154.2888629170605
 20
269.55346756992429
 30
0.0
 11
154.28886291706041
 21
274.7489097316822
 31
0.0
  0
LINE
  5
CA8
  8
1
 10
139.2888629170605
 20
282.51562138250819
 30
0.0
 11
139.2888629170605
 21
259.01562138250819
 31
0.0
  0
LINE
  5
CAB
  8
2
 10
136.03886291706041
 20
266.51562138250819
 30
0.0
 11
142.53886291706041
 21
266.51562138250819
 31
0.0
  0
LINE
  5
CAC
  8
2
 10
136.03886291706041
 20
266.51562138250819
 30
0.0
 11
136.03886291706041
 21
277.5574517039484
 31
0.0
  0
LINE
  5
CAD
  8
2
 10
142.53886291706041
 20
266.51562138250819
 30
0.0
 11
142.53886291706041
 21
277.5574517039484
 31
0.0
  0
LINE
  5
CAE
  8
2
 10
144.9137443303394
 20
264.140739969229
 30
0.0
 11
142.53886291706041
 21
266.51562138250819
 31
0.0
  0
LINE
  5
CAF
  8
2
 10
133.53886291706041
 20
264.0156213825083
 30
0.0
 11
136.03886291706041
 21
266.51562138250819
 31
0.0
  0
LINE
  5
CB1
  8
3
 10
144.6970325956201
 20
264.0156213825083
 30
0.0
 11
154.28886291706041
 21
269.55346756992429
 31
0.0
  0
LINE
  5
CB8
  8
0
 10
144.6970325956201
 20
51.005869190870271
 30
0.0
 11
154.28886291706041
 21
45.468023003454157
 31
0.0
  0
LINE
  5
CBA
  8
2
 10
133.53886291706041
 20
51.005869190870271
 30
0.0
 11
136.03886291706041
 21
48.505869190870321
 31
0.0
  0
LINE
  5
CBB
  8
2
 10
144.91374433033951
 20
50.880750604149448
 30
0.0
 11
142.53886291706041
 21
48.505869190870321
 31
0.0
  0
LINE
  5
CBC
  8
2
 10
142.53886291706041
 20
48.505869190870321
 30
0.0
 11
142.53886291706041
 21
37.464038869430112
 31
0.0
  0
LINE
  5
CBD
  8
2
 10
136.03886291706041
 20
48.505869190870321
 30
0.0
 11
136.03886291706041
 21
37.464038869430112
 31
0.0
  0
LINE
  5
CBE
  8
2
 10
136.03886291706041
 20
48.505869190870321
 30
0.0
 11
142.53886291706041
 21
48.505869190870321
 31
0.0
  0
LINE
  5
CC1
  8
1
 10
139.2888629170605
 20
32.505869190870271
 30
0.0
 11
139.2888629170605
 21
56.005869190870271
 31
0.0
  0
LINE
  5
CC2
  8
0
 10
154.2888629170605
 20
45.468023003454157
 30
0.0
 11
154.28886291706041
 21
40.272580841696332
 31
0.0
  0
LINE
  5
CC3
  8
3
 10
164.2888629170605
 20
45.468023003454157
 30
0.0
 11
164.28886291706061
 21
40.272580841696332
 31
0.0
  0
LINE
  5
CC4
  8
0
 10
164.2888629170605
 20
174.84746598801331
 30
0.0
 11
164.2888629170605
 21
175.51073100262431
 31
0.0
  0
LINE
  5
CC5
  8
0
 10
154.28886291706061
 20
174.84746598801331
 30
0.0
 11
154.28886291706081
 21
175.51073100262431
 31
0.0
  0
LINE
  5
CC6
  8
1
 10
179.2888629170605
 20
32.505869190870271
 30
0.0
 11
179.2888629170605
 21
56.005869190870271
 31
0.0
  0
ARC
  5
CC7
  8
0
 10
187.28886291706061
 20
47.005869190870271
 30
0.0
 40
4.0
 50
0.0
 51
90.0
  0
LINE
  5
CC9
  8
0
 10
159.28886291706019
 20
54.815270265748268
 30
0.0
 11
161.28886291706019
 21
53.66056972736942
 31
0.0
  0
LINE
  5
CCA
  8
0
 10
157.28886291868821
 20
53.660569728310072
 30
0.0
 11
159.28886291868821
 21
54.815270266689602
 31
0.0
  0
LINE
  5
CCB
  8
0
 10
157.28886291868821
 20
51.351168653431607
 30
0.0
 11
157.28886291868821
 21
53.660569730189991
 31
0.0
  0
LINE
  5
CCC
  8
0
 10
159.28886291706019
 20
50.196468115992268
 30
0.0
 11
157.28886291706019
 21
51.351168654371122
 31
0.0
  0
LINE
  5
CCD
  8
0
 10
161.2888629154304
 20
51.35116865343047
 30
0.0
 11
159.28886291543219
 21
50.196468115050941
 31
0.0
  0
LINE
  5
CCE
  8
0
 10
161.28886291543219
 20
53.660569728310293
 30
0.0
 11
161.28886291543219
 21
51.351168651551909
 31
0.0
  0
CIRCLE
  5
CCF
  8
0
 10
159.2888629170605
 20
52.505869190870271
 30
0.0
 40
4.0
  0
LINE
  5
CD0
  8
2
 10
182.5388629170607
 20
48.505869190870321
 30
0.0
 11
176.0388629170607
 21
48.505869190870321
 31
0.0
  0
LINE
  5
CD1
  8
2
 10
182.5388629170607
 20
48.505869190870321
 30
0.0
 11
182.5388629170607
 21
37.464038869430112
 31
0.0
  0
LINE
  5
CD2
  8
2
 10
176.0388629170607
 20
48.505869190870321
 30
0.0
 11
176.0388629170607
 21
37.464038869430112
 31
0.0
  0
LINE
  5
CD3
  8
2
 10
173.66398150378151
 20
50.880750604149448
 30
0.0
 11
176.0388629170607
 21
48.505869190870321
 31
0.0
  0
LINE
  5
CD4
  8
2
 10
185.03886291706061
 20
51.005869190870271
 30
0.0
 11
182.5388629170607
 21
48.505869190870321
 31
0.0
  0
LINE
  5
CD5
  8
0
 10
140.22110841164749
 20
51.005869190870271
 30
0.0
 11
155.38317453721689
 21
59.487673991890908
 31
0.0
  0
LINE
  5
CD6
  8
0
 10
167.2888629170605
 20
38.504344474770733
 30
0.0
 11
155.22667783033461
 21
45.613942586416208
 31
0.0
  0
LINE
  5
CD7
  8
0
 10
178.3566174224739
 20
51.005869190870271
 30
0.0
 11
163.19455129690411
 21
59.487673991890908
 31
0.0
  0
ARC
  5
CD8
  8
0
 10
159.2888629170605
 20
52.505869190870271
 30
0.0
 40
8.0
 50
60.77693341107927
 51
239.48438704768819
  0
LINE
  5
CD9
  8
0
 10
191.2888629170605
 20
37.505869190870271
 30
0.0
 11
191.28886291706061
 21
47.005869190870271
 31
0.0
  0
LINE
  5
CDA
  8
3
 10
173.8806932385009
 20
51.005869190870271
 30
0.0
 11
164.28886291706061
 21
45.468023003454157
 31
0.0
  0
LINE
  5
CDB
  8
1
 10
159.2888629170605
 20
39.510759570754153
 30
0.0
 11
159.2888629170605
 21
65.510759570754146
 31
0.0
  0
LINE
  5
CDC
  8
1
 10
146.2888629170605
 20
52.505869190870271
 30
0.0
 11
172.2888629170605
 21
52.505869190870271
 31
0.0
  0
LINE
  5
CDD
  8
0
 10
178.3566174224739
 20
51.005869190870271
 30
0.0
 11
187.28886291706061
 21
51.005869190870278
 31
0.0
  0
LINE
  5
CDE
  8
0
 10
167.29058361838469
 20
37.505869190870271
 30
0.0
 11
191.2888629170605
 21
37.505869190870271
 31
0.0
1001
GENIUS_GENOREF_13
1005
0
  0
ARC
  5
CDF
  8
0
 10
196.98886291706069
 20
209.4522074904508
 30
0.0
 40
6.2999999999999989
 50
308.21387582314662
 51
0.5322537266239987
  0
ARC
  5
CE0
  8
0
 10
193.3534493347201
 20
198.97021286433301
 30
0.0
 40
7.0700000000000003
 50
51.565630368705222
 51
102.8648555574234
  0
ARC
  5
CE1
  8
0
 10
208.97562726738909
 20
139.6666855620233
 30
0.0
 40
68.393212580705793
 50
104.56234165988479
 51
122.8884100695083
  0
ARC
  5
CE2
  8
0
 10
199.32097999758889
 20
206.4900917056259
 30
0.0
 40
2.5299999999999989
 50
231.5656303687052
 51
308.21387582314662
  0
ARC
  5
CE3
  8
0
 10
199.8193813046995
 20
94.395523874028015
 30
0.0
 40
117.1295519741292
 50
90.896719800757211
 51
107.0922020016458
  0
ARC
  5
CE4
  8
0
 10
201.2885910856823
 20
209.51073100262451
 30
0.0
 40
2.0
 50
0.0
 51
90.0
  0
LINE
  5
CE5
  8
0
 10
197.9862951402859
 20
211.51073100262451
 30
0.0
 11
201.2885910856823
 21
211.51073100262451
 31
0.0
  0
ARC
  5
CE6
  8
0
 10
159.99586291706061
 20
210.08831718798331
 30
0.0
 40
6.5650000000000004
 50
270.0
 51
325.30871213972807
  0
LINE
  5
CE7
  8
0
 10
155.28886291706061
 20
203.5233171879832
 30
0.0
 11
155.28886291706061
 21
203.7107310026243
 31
0.0
  0
LINE
  5
CE8
  8
0
 10
153.38886291706069
 20
180.5107310026244
 30
0.0
 11
165.1888629170607
 21
180.5107310026244
 31
0.0
  0
LINE
  5
CE9
  8
0
 10
151.6870230638919
 20
184.5233171879832
 30
0.0
 11
166.8907027702295
 21
184.5233171879832
 31
0.0
  0
LINE
  5
CEA
  8
3
 10
161.9140972641747
 20
180.5107310026244
 30
0.0
 11
161.9140972641747
 21
175.5107310026244
 31
0.0
  0
LINE
  5
CEB
  8
3
 10
160.9121172435851
 20
180.5107310026244
 30
0.0
 11
160.9121172435851
 21
175.5107310026244
 31
0.0
  0
LINE
  5
CEC
  8
3
 10
159.95901418496061
 20
180.5107310026244
 30
0.0
 11
159.95901418496061
 21
175.5107310026244
 31
0.0
  0
LINE
  5
CED
  8
3
 10
158.6187116491607
 20
180.5107310026244
 30
0.0
 11
158.6187116491607
 21
175.5107310026244
 31
0.0
  0
LINE
  5
CEE
  8
3
 10
157.6656085905361
 20
180.5107310026244
 30
0.0
 11
157.6656085905361
 21
175.5107310026244
 31
0.0
  0
LINE
  5
CEF
  8
3
 10
156.6636285699465
 20
180.5107310026244
 30
0.0
 11
156.6636285699465
 21
175.5107310026244
 31
0.0
  0
LINE
  5
CF0
  8
3
 10
155.6616485493565
 20
180.5107310026244
 30
0.0
 11
155.6616485493565
 21
175.5107310026244
 31
0.0
  0
LINE
  5
CF1
  8
3
 10
154.83073789564389
 20
180.5107310026244
 30
0.0
 11
154.83073789564389
 21
175.5107310026244
 31
0.0
  0
LINE
  5
CF2
  8
3
 10
154.07314268487841
 20
180.5107310026244
 30
0.0
 11
154.07314268487841
 21
175.5107310026244
 31
0.0
  0
LINE
  5
CF3
  8
0
 10
153.88886291706069
 20
175.5107310026244
 30
0.0
 11
153.38886291706069
 21
176.0107310026244
 31
0.0
  0
LINE
  5
CF4
  8
0
 10
151.38702814083459
 20
184.8215718685766
 30
0.0
 11
151.28886291706081
 21
201.6947405523799
 31
0.0
  0
ARC
  5
CF5
  8
0
 10
151.6870230638919
 20
184.82331718798309
 30
0.0
 40
0.3
 50
180.33333333333169
 51
270.0
  0
LINE
  5
CF6
  8
0
 10
159.99586291706061
 20
203.5233171879832
 30
0.0
 11
153.10683215078811
 21
203.5233171879832
 31
0.0
  0
ARC
  5
CF7
  8
0
 10
153.10683215078811
 20
201.70531718798321
 30
0.0
 40
1.817999999999999
 50
90.0
 51
180.33333333333169
  0
LINE
  5
CF8
  8
3
 10
164.5045831492429
 20
180.5107310026244
 30
0.0
 11
164.5045831492429
 21
175.5107310026244
 31
0.0
  0
LINE
  5
CF9
  8
3
 10
163.74698793847739
 20
180.5107310026244
 30
0.0
 11
163.74698793847739
 21
175.5107310026244
 31
0.0
  0
LINE
  5
CFA
  8
3
 10
162.91607728476481
 20
180.5107310026244
 30
0.0
 11
162.91607728476481
 21
175.5107310026244
 31
0.0
  0
LINE
  5
CFB
  8
0
 10
165.1888629170607
 20
184.5233171879832
 30
0.0
 11
165.18886291706059
 21
176.0107310026244
 31
0.0
  0
LINE
  5
CFC
  8
0
 10
164.68886291706059
 20
175.5107310026244
 30
0.0
 11
165.18886291706059
 21
176.0107310026244
 31
0.0
  0
ARC
  5
CFD
  8
0
 10
176.7148532958214
 20
188.94593279730239
 30
0.0
 40
9.5
 50
120.88884649435199
 51
179.66666666666819
  0
LINE
  5
CFE
  8
0
 10
162.48886291706069
 20
204.5107310026244
 30
0.0
 11
156.0888629170606
 21
204.5107310026244
 31
0.0
  0
ARC
  5
CFF
  8
0
 10
156.0888629170606
 20
203.7107310026243
 30
0.0
 40
0.8
 50
90.0
 51
180.0
  0
ARC
  5
D00
  8
0
 10
162.48886291706069
 20
203.7107310026243
 30
0.0
 40
0.8
 50
45.197237426421999
 51
90.0
  0
LINE
  5
D01
  8
0
 10
153.38886291706081
 20
184.5233171879832
 30
0.0
 11
153.38886291706081
 21
176.0107310026244
 31
0.0
  0
LINE
  5
D02
  8
0
 10
167.19069769328689
 20
184.8215718685766
 30
0.0
 11
167.21501406567259
 21
189.0012012451748
 31
0.0
  0
ARC
  5
D03
  8
0
 10
166.8907027702295
 20
184.82331718798309
 30
0.0
 40
0.3
 50
270.0
 51
359.66666666666822
  0
CIRCLE
  5
D04
  8
0
 10
139.2888629170605
 20
123.0107452866892
 30
0.0
 40
3.25
  0
CIRCLE
  5
D05
  8
0
 10
139.2888629170605
 20
123.0107452866892
 30
0.0
 40
5.75
  0
LINE
  5
D06
  8
1
 10
128.5388629170605
 20
123.0107452866892
 30
0.0
 11
150.0388629170605
 21
123.0107452866892
 31
0.0
  0
LINE
  5
D07
  8
1
 10
139.2888629170605
 20
112.2607452866892
 30
0.0
 11
139.2888629170605
 21
133.7607452866892
 31
0.0
  0
CIRCLE
  5
D08
  8
0
 10
139.2888629170605
 20
163.0107452866892
 30
0.0
 40
3.25
  0
CIRCLE
  5
D09
  8
0
 10
139.2888629170605
 20
163.0107452866892
 30
0.0
 40
5.75
  0
LINE
  5
D0A
  8
1
 10
128.5388629170605
 20
163.0107452866892
 30
0.0
 11
150.0388629170605
 21
163.0107452866892
 31
0.0
  0
LINE
  5
D0B
  8
1
 10
139.2888629170605
 20
152.2607452866892
 30
0.0
 11
139.2888629170605
 21
173.7607452866892
 31
0.0
  0
CIRCLE
  5
D0C
  8
0
 10
179.2888629170605
 20
123.0107452866892
 30
0.0
 40
3.25
  0
CIRCLE
  5
D0D
  8
0
 10
179.2888629170605
 20
123.0107452866892
 30
0.0
 40
5.75
  0
LINE
  5
D0E
  8
1
 10
168.5388629170605
 20
123.0107452866892
 30
0.0
 11
190.0388629170605
 21
123.0107452866892
 31
0.0
  0
LINE
  5
D0F
  8
1
 10
179.2888629170605
 20
112.2607452866891
 30
0.0
 11
179.2888629170605
 21
133.76074528668909
 31
0.0
  0
CIRCLE
  5
D10
  8
0
 10
179.2888629170605
 20
163.0107452866892
 30
0.0
 40
3.25
  0
CIRCLE
  5
D11
  8
0
 10
179.2888629170605
 20
163.0107452866892
 30
0.0
 40
5.75
  0
LINE
  5
D12
  8
1
 10
168.5388629170605
 20
163.0107452866892
 30
0.0
 11
190.0388629170605
 21
163.0107452866892
 31
0.0
  0
LINE
  5
D13
  8
1
 10
179.2888629170605
 20
152.2607452866892
 30
0.0
 11
179.2888629170605
 21
173.76074528668909
 31
0.0
  0
ARC
  5
D14
  8
0
 10
187.2888629170605
 20
114.5107595707541
 30
0.0
 40
4.0
 50
270.0
 51
359.99999999999989
  0
ARC
  5
D15
  8
0
 10
131.2888629170607
 20
114.5107595707541
 30
0.0
 40
4.0
 50
180.0
 51
270.0
  0
ARC
  5
D16
  8
0
 10
131.2888629170605
 20
171.51073100262431
 30
0.0
 40
4.0
 50
90.0
 51
180.0
  0
ARC
  5
D17
  8
0
 10
187.2888629170607
 20
171.5107310026242
 30
0.0
 40
4.0
 50
0.0
 51
90.0
  0
LINE
  5
D18
  8
0
 10
127.2888629170606
 20
114.5107595707541
 30
0.0
 11
127.2888629170605
 21
171.51073100262431
 31
0.0
  0
LINE
  5
D19
  8
0
 10
191.2888629170605
 20
114.5107595707541
 30
0.0
 11
191.28886291706061
 21
171.5107310026242
 31
0.0
  0
LINE
  5
D1A
  8
0
 10
173.88069323850081
 20
175.51073100262431
 30
0.0
 11
173.88069323850081
 21
166.88828581268231
 31
0.0
  0
LINE
  5
D1B
  8
0
 10
140.28714221573651
 20
174.84746598801331
 30
0.0
 11
140.28714221573651
 21
168.6734247268337
 31
0.0
  0
LINE
  5
D1C
  8
0
 10
167.24804309239161
 20
173.85256846609701
 30
0.0
 11
167.24804309239161
 21
167.8831833345987
 31
0.0
  0
LINE
  5
D1D
  8
0
 10
166.2531455704752
 20
174.84746598801331
 30
0.0
 11
140.28714221573651
 21
174.84746598801331
 31
0.0
  0
LINE
  5
D1E
  8
0
 10
144.69703259562041
 20
175.51073100262431
 30
0.0
 11
144.69703259562041
 21
174.84746598801331
 31
0.0
  0
LINE
  5
D1F
  8
0
 10
187.2888629170607
 20
175.5107310026242
 30
0.0
 11
131.2888629170605
 21
175.51073100262431
 31
0.0
  0
ARC
  5
D20
  8
0
 10
166.2531455704752
 20
173.85256846609701
 30
0.0
 40
0.9948975219163799
 50
0.0
 51
90.0
  0
LINE
  5
D21
  8
0
 10
175.0430203070145
 20
119.1332047606961
 30
0.0
 11
143.5347055271063
 21
119.133204760696
 31
0.0
  0
LINE
  5
D22
  8
0
 10
175.2388360316001
 20
127.0923849360272
 30
0.0
 11
143.33888980252101
 21
127.0923849360271
 31
0.0
  0
LINE
  5
D23
  8
0
 10
178.29058361838469
 20
135.0515651113582
 30
0.0
 11
140.28714221573651
 21
135.0515651113582
 31
0.0
  0
LINE
  5
D24
  8
0
 10
178.29058361838469
 20
143.0107452866892
 30
0.0
 11
140.28714221573651
 21
143.0107452866892
 31
0.0
  0
LINE
  5
D25
  8
0
 10
178.29058361838469
 20
150.96992546202031
 30
0.0
 11
140.28714221573651
 21
150.96992546202031
 31
0.0
  0
LINE
  5
D26
  8
0
 10
175.23883603159999
 20
158.9291056373512
 30
0.0
 11
143.3388898025209
 21
158.92910563735131
 31
0.0
  0
LINE
  5
D27
  8
0
 10
154.28886291706061
 20
110.5107595707541
 30
0.0
 11
131.2888629170607
 21
110.5107595707541
 31
0.0
  0
LINE
  5
D28
  8
0
 10
175.04302030701481
 20
166.8882858126824
 30
0.0
 11
143.53470552710641
 21
166.88828581268231
 31
0.0
  0
LINE
  5
D29
  8
0
 10
144.69703259562041
 20
135.0515651113582
 30
0.0
 11
144.69703259562041
 21
127.0923849360271
 31
0.0
  0
LINE
  5
D2A
  8
0
 10
140.28714221573651
 20
157.3622319489497
 30
0.0
 11
140.28714221573651
 21
150.96992546202031
 31
0.0
  0
LINE
  5
D2B
  8
0
 10
144.69703259562041
 20
166.88828581268231
 30
0.0
 11
144.69703259562041
 21
165.02293649234221
 31
0.0
  0
LINE
  5
D2C
  8
0
 10
144.69703259562041
 20
150.96992546202031
 30
0.0
 11
144.69703259562041
 21
143.0107452866892
 31
0.0
  0
LINE
  5
D2D
  8
0
 10
140.28714221573651
 20
143.0107452866892
 30
0.0
 11
140.28714221573651
 21
135.0515651113582
 31
0.0
  0
LINE
  5
D2E
  8
0
 10
144.69703259562041
 20
119.1332047606961
 30
0.0
 11
144.69703259562041
 21
110.5107595707541
 31
0.0
  0
LINE
  5
D2F
  8
0
 10
178.29058361838469
 20
135.0515651113582
 30
0.0
 11
178.29058361838469
 21
128.67342472683359
 31
0.0
  0
LINE
  5
D30
  8
0
 10
151.32968274172961
 20
134.05666758944179
 30
0.0
 11
151.32968274172961
 21
128.0872824579435
 31
0.0
  0
LINE
  5
D31
  8
0
 10
173.88069323850081
 20
158.92910563735131
 30
0.0
 11
173.88069323850081
 21
150.96992546202031
 31
0.0
  0
LINE
  5
D32
  8
0
 10
167.24804309239161
 20
157.9342081154349
 30
0.0
 11
167.24804309239161
 21
151.96482298393661
 31
0.0
  0
LINE
  5
D33
  8
0
 10
151.32968274172961
 20
165.8933882907659
 30
0.0
 11
151.32968274172961
 21
159.92400315926761
 31
0.0
  0
ARC
  5
D34
  8
0
 10
152.3245802636458
 20
165.8933882907659
 30
0.0
 40
0.9948975219163799
 50
90.0
 51
180.0
  0
ARC
  5
D35
  8
0
 10
152.3245802636458
 20
159.92400315926761
 30
0.0
 40
0.9948975219163799
 50
180.0
 51
270.0
  0
ARC
  5
D36
  8
0
 10
166.2531455704752
 20
167.8831833345987
 30
0.0
 40
0.9948975219163799
 50
270.0
 51
0.0
  0
ARC
  5
D37
  8
0
 10
166.2531455704752
 20
157.9342081154349
 30
0.0
 40
0.9948975219163799
 50
0.0
 51
90.0
  0
ARC
  5
D38
  8
0
 10
152.3245802636458
 20
144.00564280860559
 30
0.0
 40
0.9948975219163799
 50
180.0
 51
270.0
  0
LINE
  5
D39
  8
0
 10
151.32968274172961
 20
149.97502794010379
 30
0.0
 11
151.32968274172961
 21
144.00564280860559
 31
0.0
  0
ARC
  5
D3A
  8
0
 10
152.3245802636458
 20
149.97502794010379
 30
0.0
 40
0.9948975219163799
 50
90.0
 51
180.0
  0
ARC
  5
D3B
  8
0
 10
152.3245802636458
 20
134.05666758944179
 30
0.0
 40
0.9948975219163799
 50
90.0
 51
180.0
  0
ARC
  5
D3C
  8
0
 10
166.2531455704752
 20
151.96482298393661
 30
0.0
 40
0.9948975219163799
 50
270.0
 51
0.0
  0
LINE
  5
D3D
  8
0
 10
167.24804309239161
 20
142.01584776477279
 30
0.0
 11
167.24804309239161
 21
136.0464626332745
 31
0.0
  0
ARC
  5
D3E
  8
0
 10
166.2531455704752
 20
142.01584776477279
 30
0.0
 40
0.9948975219163799
 50
0.0
 51
90.0
  0
ARC
  5
D3F
  8
0
 10
166.2531455704752
 20
136.0464626332745
 30
0.0
 40
0.9948975219163799
 50
270.0
 51
0.0
  0
LINE
  5
D40
  8
0
 10
173.88069323850081
 20
143.0107452866892
 30
0.0
 11
173.88069323850081
 21
135.0515651113582
 31
0.0
  0
LINE
  5
D41
  8
0
 10
178.29058361838469
 20
150.96992546202031
 30
0.0
 11
178.29058361838469
 21
143.0107452866892
 31
0.0
  0
POINT
  5
D42
  8
3
 10
184.3505723263855
 20
136.810113657557
 30
0.0
  0
POINT
  5
D43
  8
3
 10
186.28668248923699
 20
148.79956603248189
 30
0.0
  0
POINT
  5
D44
  8
3
 10
186.28668248923699
 20
148.79956603248189
 30
0.0
  0
POINT
  5
D45
  8
3
 10
186.28668248923699
 20
148.79956603248189
 30
0.0
  0
LINE
  5
D46
  8
0
 10
178.29058361838469
 20
111.1740245853651
 30
0.0
 11
152.3245802636458
 21
111.1740245853651
 31
0.0
  0
LINE
  5
D47
  8
0
 10
187.2888629170605
 20
110.5107595707541
 30
0.0
 11
164.2888629170605
 21
110.5107595707541
 31
0.0
  0
LINE
  5
D48
  8
0
 10
151.32968274172961
 20
118.1383072387797
 30
0.0
 11
151.32968274172961
 21
112.1689221072814
 31
0.0
  0
ARC
  5
D49
  8
0
 10
152.3245802636458
 20
128.0872824579435
 30
0.0
 40
0.9948975219163799
 50
180.0
 51
270.0
  0
ARC
  5
D4A
  8
0
 10
152.3245802636458
 20
118.1383072387797
 30
0.0
 40
0.9948975219163799
 50
90.0
 51
180.0
  0
LINE
  5
D4B
  8
0
 10
173.88069323850081
 20
127.0923849360271
 30
0.0
 11
173.88069323850081
 21
124.96785151904329
 31
0.0
  0
LINE
  5
D4C
  8
0
 10
167.24804309239161
 20
126.0974874141108
 30
0.0
 11
167.24804309239161
 21
120.1281022826125
 31
0.0
  0
ARC
  5
D4D
  8
0
 10
166.2531455704752
 20
126.0974874141108
 30
0.0
 40
0.9948975219163799
 50
0.0
 51
90.0
  0
ARC
  5
D4E
  8
0
 10
166.2531455704752
 20
120.1281022826125
 30
0.0
 40
0.9948975219163799
 50
270.0
 51
0.0
  0
ARC
  5
D4F
  8
0
 10
152.3245802636458
 20
112.1689221072814
 30
0.0
 40
0.9948975219163799
 50
180.0
 51
270.0
  0
LINE
  5
D50
  8
0
 10
173.88069323850081
 20
111.1740245853651
 30
0.0
 11
173.88069323850081
 21
110.5107595707541
 31
0.0
  0
LINE
  5
D51
  8
0
 10
178.29058361838469
 20
117.3071469756507
 30
0.0
 11
178.29058361838469
 21
111.1740245853651
 31
0.0
  0
POINT
  5
D52
  8
0
 10
186.28668248923699
 20
110.5107595707541
 30
0.0
  0
POINT
  5
D53
  8
0
 10
187.30927282939501
 20
110.5107595707541
 30
0.0
  0
LINE
  5
D54
  8
3
 10
132.5613577629664
 20
137.35420535947631
 30
0.0
 11
132.26673230340191
 21
137.2219245408964
 31
0.0
  0
LINE
  5
D55
  8
3
 10
132.27274506788279
 20
139.57291545293029
 30
0.0
 11
132.28477059684471
 21
139.63905586222029
 31
0.0
  0
LINE
  5
D56
  8
3
 10
132.27875783236379
 20
138.39441361467291
 30
0.0
 11
132.28477059684471
 21
138.40643914363471
 31
0.0
  0
LINE
  5
D57
  8
3
 10
132.28477059684471
 20
138.9656262403588
 30
0.0
 11
132.27274506788279
 21
139.0317666496488
 31
0.0
  0
LINE
  5
D58
  8
3
 10
132.29078336132571
 20
142.87392315294721
 30
0.0
 11
132.27875783236379
 21
142.95208909119901
 31
0.0
  0
LINE
  5
D59
  8
3
 10
132.27875783236379
 20
142.10428929939141
 30
0.0
 11
132.28477059684471
 21
142.1463786507577
 31
0.0
  0
LINE
  5
D5A
  8
3
 10
132.28477059684471
 20
141.8697914846361
 30
0.0
 11
132.27875783236379
 21
141.9178936004833
 31
0.0
  0
LINE
  5
D5B
  8
3
 10
132.27875783236379
 20
143.28279113764879
 30
0.0
 11
132.28477059684471
 21
143.3609570759005
 31
0.0
  0
LINE
  5
D5C
  8
3
 10
132.27875783236379
 20
143.0362677939317
 30
0.0
 11
132.27274506788279
 21
143.11443373218339
 31
0.0
  0
LINE
  5
D5D
  8
3
 10
132.27875783236379
 20
142.95208909119901
 30
0.0
 11
132.27875783236379
 21
143.0362677939317
 31
0.0
  0
LINE
  5
D5E
  8
3
 10
132.27274506788279
 20
143.11443373218339
 30
0.0
 11
132.27274506788279
 21
143.1986124349161
 31
0.0
  0
LINE
  5
D5F
  8
3
 10
132.27274506788279
 20
143.1986124349161
 30
0.0
 11
132.27875783236379
 21
143.28279113764879
 31
0.0
  0
LINE
  5
D60
  8
3
 10
132.27875783236379
 20
141.9178936004833
 30
0.0
 11
132.27875783236379
 21
141.9659957163305
 31
0.0
  0
LINE
  5
D61
  8
3
 10
132.27875783236379
 20
142.05618718354421
 30
0.0
 11
132.27875783236379
 21
142.10428929939141
 31
0.0
  0
LINE
  5
D62
  8
3
 10
132.27875783236379
 20
142.0080850676969
 30
0.0
 11
132.27875783236379
 21
142.05618718354421
 31
0.0
  0
LINE
  5
D63
  8
3
 10
132.27875783236379
 20
141.9659957163305
 30
0.0
 11
132.27875783236379
 21
142.0080850676969
 31
0.0
  0
LINE
  5
D64
  8
3
 10
132.26673230340191
 20
138.07573709718491
 30
0.0
 11
132.26673230340191
 21
138.37637532123011
 31
0.0
  0
LINE
  5
D65
  8
3
 10
132.26673230340191
 20
139.50677504364029
 30
0.0
 11
132.27274506788279
 21
139.57291545293029
 31
0.0
  0
LINE
  5
D66
  8
3
 10
132.27274506788279
 20
139.0317666496488
 30
0.0
 11
132.26673230340191
 21
139.10391982341969
 31
0.0
  0
LINE
  5
D67
  8
3
 10
132.26071953892111
 20
139.1700602327096
 30
0.0
 11
132.25470677444019
 21
139.23620064199949
 31
0.0
  0
LINE
  5
D68
  8
3
 10
132.25470677444019
 20
139.3023410512896
 30
0.0
 11
132.25470677444019
 21
139.3744942250604
 31
0.0
  0
LINE
  5
D69
  8
3
 10
132.25470677444019
 20
139.23620064199949
 30
0.0
 11
132.25470677444019
 21
139.3023410512896
 31
0.0
  0
LINE
  5
D6A
  8
3
 10
132.26071953892111
 20
139.4406346343504
 30
0.0
 11
132.26673230340191
 21
139.50677504364029
 31
0.0
  0
LINE
  5
D6B
  8
3
 10
132.25470677444019
 20
139.3744942250604
 30
0.0
 11
132.26071953892111
 21
139.4406346343504
 31
0.0
  0
LINE
  5
D6C
  8
3
 10
132.26673230340191
 20
139.10391982341969
 30
0.0
 11
132.26071953892111
 21
139.1700602327096
 31
0.0
  0
LINE
  5
D6D
  8
3
 10
132.26673230340191
 20
138.388400850192
 30
0.0
 11
132.27875783236379
 21
138.39441361467291
 31
0.0
  0
LINE
  5
D6E
  8
3
 10
132.26673230340191
 20
138.37637532123011
 30
0.0
 11
132.26673230340191
 21
138.388400850192
 31
0.0
  0
LINE
  5
D6F
  8
3
 10
132.26673230340191
 20
137.2219245408964
 30
0.0
 11
132.26673230340191
 21
138.07573709718491
 31
0.0
  0
LINE
  5
D70
  8
3
 10
134.5275317482224
 20
139.53683886604489
 30
0.0
 11
134.52151898374149
 21
139.65108139118209
 31
0.0
  0
LINE
  5
D71
  8
3
 10
134.28702116898609
 20
140.25235783927261
 30
0.0
 11
134.30505946242869
 21
138.70707736767989
 31
0.0
  0
LINE
  5
D72
  8
3
 10
135.57375276789989
 20
139.63905586222029
 30
0.0
 11
135.57375276789989
 21
139.590953746373
 31
0.0
  0
LINE
  5
D73
  8
3
 10
135.47153577172449
 20
146.32825634722721
 30
0.0
 11
136.6686503713687
 21
146.3477108004887
 31
0.0
  0
LINE
  5
D74
  8
3
 10
135.98262075260141
 20
145.26700341634739
 30
0.0
 11
135.73609740888429
 21
145.26700341634739
 31
0.0
  0
LINE
  5
D75
  8
3
 10
132.33287271269191
 20
144.5815482655243
 30
0.0
 11
132.33287271269191
 21
145.89233092236159
 31
0.0
  0
LINE
  5
D76
  8
3
 10
134.14872758592529
 20
146.60183713110851
 30
0.0
 11
134.100625470078
 21
146.60183713110851
 31
0.0
  0
LINE
  5
D77
  8
3
 10
134.02245953182631
 20
146.35531378739131
 30
0.0
 11
134.2569573465816
 21
146.3613265518722
 31
0.0
  0
LINE
  5
D78
  8
3
 10
134.10663823455911
 20
149.22340244478309
 30
0.0
 11
134.2028424662534
 21
149.21137691582129
 31
0.0
  0
LINE
  5
D79
  8
3
 10
132.75977899083611
 20
148.66421534805889
 30
0.0
 11
132.78984281324071
 21
148.6942791704634
 31
0.0
  0
LINE
  5
D7A
  8
3
 10
133.18668526898051
 20
149.00694292347049
 30
0.0
 11
133.20472356242311
 21
149.0189684524324
 31
0.0
  0
LINE
  5
D7B
  8
3
 10
132.90408533837791
 20
148.8085216956006
 30
0.0
 11
132.9341491607824
 21
148.83257275352429
 31
0.0
  0
LINE
  5
D7C
  8
3
 10
133.1746597400188
 20
149.0009301589896
 30
0.0
 11
133.18668526898051
 21
149.00694292347049
 31
0.0
  0
LINE
  5
D7D
  8
3
 10
133.1445959176142
 20
148.98289186554689
 30
0.0
 11
133.15662144657591
 21
148.99491739450869
 31
0.0
  0
LINE
  5
D7E
  8
3
 10
133.12655762417151
 20
148.976879101066
 30
0.0
 11
133.1445959176142
 21
148.98289186554689
 31
0.0
  0
LINE
  5
D7F
  8
3
 10
133.1085193307288
 20
148.97086633658509
 30
0.0
 11
133.12655762417151
 21
148.976879101066
 31
0.0
  0
LINE
  5
D80
  8
3
 10
133.096493801767
 20
148.95884080762329
 30
0.0
 11
133.1085193307288
 21
148.97086633658509
 31
0.0
  0
LINE
  5
D81
  8
3
 10
133.08446827280511
 20
148.9528280431424
 30
0.0
 11
133.096493801767
 21
148.95884080762329
 31
0.0
  0
LINE
  5
D82
  8
3
 10
133.07244274384331
 20
148.9408025141806
 30
0.0
 11
133.08446827280511
 21
148.9528280431424
 31
0.0
  0
LINE
  5
D83
  8
3
 10
133.0544044504006
 20
148.9287769852188
 30
0.0
 11
133.07244274384331
 21
148.9408025141806
 31
0.0
  0
LINE
  5
D84
  8
3
 10
133.04839168591971
 20
148.92276422073789
 30
0.0
 11
133.0544044504006
 21
148.9287769852188
 31
0.0
  0
LINE
  5
D85
  8
3
 10
133.03636615695791
 20
148.91073869177609
 30
0.0
 11
133.04839168591971
 21
148.92276422073789
 31
0.0
  0
LINE
  5
D86
  8
3
 10
133.03035339247691
 20
148.89270039833329
 30
0.0
 11
133.03636615695791
 21
148.91073869177609
 31
0.0
  0
LINE
  5
D87
  8
3
 10
132.964212983187
 20
148.85662381144789
 30
0.0
 11
133.03035339247691
 21
148.89270039833329
 31
0.0
  0
LINE
  5
D88
  8
3
 10
132.9341491607824
 20
148.83257275352429
 30
0.0
 11
132.964212983187
 21
148.85662381144789
 31
0.0
  0
LINE
  5
D89
  8
3
 10
133.15662144657591
 20
148.99491739450869
 30
0.0
 11
133.1746597400188
 21
149.0009301589896
 31
0.0
  0
LINE
  5
D8A
  8
3
 10
132.87402151597351
 20
148.784470637677
 30
0.0
 11
132.90408533837791
 21
148.8085216956006
 31
0.0
  0
LINE
  5
D8B
  8
3
 10
132.84395769356891
 20
148.75440681527249
 30
0.0
 11
132.87402151597351
 21
148.784470637677
 31
0.0
  0
LINE
  5
D8C
  8
3
 10
132.81389387116431
 20
148.724342992868
 30
0.0
 11
132.84395769356891
 21
148.75440681527249
 31
0.0
  0
LINE
  5
D8D
  8
3
 10
132.78984281324071
 20
148.6942791704634
 30
0.0
 11
132.81389387116431
 21
148.724342992868
 31
0.0
  0
LINE
  5
D8E
  8
3
 10
133.6135915471246
 20
149.1813130934168
 30
0.0
 11
133.71580854330011
 21
149.19935138685949
 31
0.0
  0
LINE
  5
D8F
  8
3
 10
133.24681291378951
 20
149.04301951035589
 30
0.0
 11
133.33700438100311
 21
149.0911216262032
 31
0.0
  0
LINE
  5
D90
  8
3
 10
133.20472356242311
 20
149.0189684524324
 30
0.0
 11
133.21674909138511
 21
149.0249812169132
 31
0.0
  0
LINE
  5
D91
  8
3
 10
133.21674909138511
 20
149.0249812169132
 30
0.0
 11
133.24681291378951
 21
149.04301951035589
 31
0.0
  0
LINE
  5
D92
  8
3
 10
133.4271958482168
 20
149.1271982130886
 30
0.0
 11
133.5234000799112
 21
149.1572620354932
 31
0.0
  0
LINE
  5
D93
  8
3
 10
133.33700438100311
 20
149.0911216262032
 30
0.0
 11
133.4271958482168
 21
149.1271982130886
 31
0.0
  0
LINE
  5
D94
  8
3
 10
133.5234000799112
 20
149.1572620354932
 30
0.0
 11
133.6135915471246
 21
149.1813130934168
 31
0.0
  0
LINE
  5
D95
  8
3
 10
133.81201277499471
 20
149.2173896803022
 30
0.0
 11
133.90821700668911
 21
149.22340244478309
 31
0.0
  0
LINE
  5
D96
  8
3
 10
133.90821700668911
 20
149.22340244478309
 30
0.0
 11
134.0104340028646
 21
149.22340244478309
 31
0.0
  0
LINE
  5
D97
  8
3
 10
134.0104340028646
 20
149.22340244478309
 30
0.0
 11
134.10663823455911
 21
149.22340244478309
 31
0.0
  0
LINE
  5
D98
  8
3
 10
133.71580854330011
 20
149.19935138685949
 30
0.0
 11
133.81201277499471
 21
149.2173896803022
 31
0.0
  0
LINE
  5
D99
  8
3
 10
133.1025065662478
 20
146.22904573329231
 30
0.0
 11
133.33099161652211
 21
146.28316061362051
 31
0.0
  0
LINE
  5
D9A
  8
3
 10
133.222761855866
 20
146.3913903742768
 30
0.0
 11
133.1746597400188
 21
146.39740313875771
 31
0.0
  0
LINE
  5
D9B
  8
3
 10
132.33287271269191
 20
147.136973169909
 30
0.0
 11
132.32685994821111
 21
147.24520293056531
 31
0.0
  0
LINE
  5
D9C
  8
3
 10
132.7357279329126
 20
148.6341515256544
 30
0.0
 11
132.75977899083611
 21
148.66421534805889
 31
0.0
  0
LINE
  5
D9D
  8
3
 10
132.37496206405831
 20
147.87654320106029
 30
0.0
 11
132.3990131219818
 21
147.97876019723569
 31
0.0
  0
LINE
  5
D9E
  8
3
 10
132.49521735367631
 20
148.2673728923192
 30
0.0
 11
132.5974343498518
 21
148.4417430622654
 31
0.0
  0
LINE
  5
D9F
  8
3
 10
132.6395237012182
 20
148.50788347155529
 30
0.0
 11
132.6575619946606
 21
148.53794729395989
 31
0.0
  0
LINE
  5
DA0
  8
3
 10
132.61547264329451
 20
148.47781964915089
 30
0.0
 11
132.6395237012182
 21
148.50788347155529
 31
0.0
  0
LINE
  5
DA1
  8
3
 10
132.5974343498518
 20
148.4417430622654
 30
0.0
 11
132.61547264329451
 21
148.47781964915089
 31
0.0
  0
LINE
  5
DA2
  8
3
 10
132.42306417990551
 20
148.0809771934112
 30
0.0
 11
132.45914076679099
 21
148.1771814251056
 31
0.0
  0
LINE
  5
DA3
  8
3
 10
132.3990131219818
 20
147.97876019723569
 30
0.0
 11
132.42306417990551
 21
148.0809771934112
 31
0.0
  0
LINE
  5
DA4
  8
3
 10
132.45914076679099
 20
148.1771814251056
 30
0.0
 11
132.49521735367631
 21
148.2673728923192
 31
0.0
  0
LINE
  5
DA5
  8
3
 10
132.68161305258451
 20
148.57402388084529
 30
0.0
 11
132.711676874989
 21
148.60408770324989
 31
0.0
  0
LINE
  5
DA6
  8
3
 10
132.711676874989
 20
148.60408770324989
 30
0.0
 11
132.7357279329126
 21
148.6341515256544
 31
0.0
  0
LINE
  5
DA7
  8
3
 10
132.6575619946606
 20
148.53794729395989
 30
0.0
 11
132.68161305258451
 21
148.57402388084529
 31
0.0
  0
LINE
  5
DA8
  8
3
 10
132.33287271269191
 20
147.455649687397
 30
0.0
 11
132.33888547717279
 21
147.56387944805331
 31
0.0
  0
LINE
  5
DA9
  8
3
 10
132.34489824165379
 20
147.6721092087096
 30
0.0
 11
132.35692377061559
 21
147.77432620488489
 31
0.0
  0
LINE
  5
DAA
  8
3
 10
132.35692377061559
 20
147.77432620488489
 30
0.0
 11
132.37496206405831
 21
147.87654320106029
 31
0.0
  0
LINE
  5
DAB
  8
3
 10
132.33888547717279
 20
147.56387944805331
 30
0.0
 11
132.34489824165379
 21
147.6721092087096
 31
0.0
  0
LINE
  5
DAC
  8
3
 10
132.32685994821111
 20
147.34741992674071
 30
0.0
 11
132.33287271269191
 21
147.455649687397
 31
0.0
  0
LINE
  5
DAD
  8
3
 10
132.32685994821111
 20
147.24520293056531
 30
0.0
 11
132.32685994821111
 21
147.34741992674071
 31
0.0
  0
LINE
  5
DAE
  8
3
 10
132.77781728427891
 20
146.4515180190858
 30
0.0
 11
132.72370240395091
 21
146.45753078356671
 31
0.0
  0
LINE
  5
DAF
  8
3
 10
132.6395237012182
 20
146.07271385678871
 30
0.0
 11
132.87402151597351
 21
146.16290532400231
 31
0.0
  0
LINE
  5
DB0
  8
3
 10
132.39300035750099
 20
146.67399030487931
 30
0.0
 11
132.38097482853919
 21
146.69804136280291
 31
0.0
  0
LINE
  5
DB1
  8
3
 10
132.36894929957731
 20
146.7220924207266
 30
0.0
 11
132.36293653509651
 21
146.7461434786502
 31
0.0
  0
LINE
  5
DB2
  8
3
 10
132.36293653509651
 20
146.7461434786502
 30
0.0
 11
132.35091100613451
 21
146.7701945365738
 31
0.0
  0
LINE
  5
DB3
  8
3
 10
132.38097482853919
 20
146.69804136280291
 30
0.0
 11
132.36894929957731
 21
146.7220924207266
 31
0.0
  0
LINE
  5
DB4
  8
3
 10
132.34489824165379
 20
146.81228388794011
 30
0.0
 11
132.33888547717279
 21
146.9205136485964
 31
0.0
  0
LINE
  5
DB5
  8
3
 10
132.33287271269191
 20
147.02874340925271
 30
0.0
 11
132.33287271269191
 21
147.136973169909
 31
0.0
  0
LINE
  5
DB6
  8
3
 10
132.33888547717279
 20
146.9205136485964
 30
0.0
 11
132.33287271269191
 21
147.02874340925271
 31
0.0
  0
LINE
  5
DB7
  8
3
 10
132.35091100613451
 20
146.7701945365738
 30
0.0
 11
132.34489824165379
 21
146.81228388794011
 31
0.0
  0
LINE
  5
DB8
  8
3
 10
132.54331946952371
 20
146.51164566389491
 30
0.0
 11
132.51926841160011
 21
146.52367119285671
 31
0.0
  0
LINE
  5
DB9
  8
3
 10
132.40502588646291
 20
146.64993924695571
 30
0.0
 11
132.39300035750099
 21
146.67399030487931
 31
0.0
  0
LINE
  5
DBA
  8
3
 10
132.41705141542451
 20
146.63190095351291
 30
0.0
 11
132.40502588646291
 21
146.64993924695571
 31
0.0
  0
LINE
  5
DBB
  8
3
 10
132.4290769443864
 20
146.60784989558931
 30
0.0
 11
132.41705141542451
 21
146.63190095351291
 31
0.0
  0
LINE
  5
DBC
  8
3
 10
132.44711523782911
 20
146.5898116021466
 30
0.0
 11
132.4290769443864
 21
146.60784989558931
 31
0.0
  0
LINE
  5
DBD
  8
3
 10
132.46515353127191
 20
146.57177330870391
 30
0.0
 11
132.44711523782911
 21
146.5898116021466
 31
0.0
  0
LINE
  5
DBE
  8
3
 10
132.48319182471459
 20
146.5537350152612
 30
0.0
 11
132.46515353127191
 21
146.57177330870391
 31
0.0
  0
LINE
  5
DBF
  8
3
 10
132.50123011815731
 20
146.53569672181851
 30
0.0
 11
132.48319182471459
 21
146.5537350152612
 31
0.0
  0
LINE
  5
DC0
  8
3
 10
132.51926841160011
 20
146.52367119285671
 30
0.0
 11
132.50123011815731
 21
146.53569672181851
 31
0.0
  0
LINE
  5
DC1
  8
3
 10
132.5673705274472
 20
146.4936073704522
 30
0.0
 11
132.54331946952371
 21
146.51164566389491
 31
0.0
  0
LINE
  5
DC2
  8
3
 10
132.66958752362251
 20
146.4695563125286
 30
0.0
 11
132.5673705274472
 21
146.4936073704522
 31
0.0
  0
LINE
  5
DC3
  8
3
 10
132.72370240395091
 20
146.45753078356671
 30
0.0
 11
132.66958752362251
 21
146.4695563125286
 31
0.0
  0
LINE
  5
DC4
  8
3
 10
132.39300035750099
 20
145.93442027372799
 30
0.0
 11
132.39300035750099
 21
145.94043303820879
 31
0.0
  0
LINE
  5
DC5
  8
3
 10
132.3990131219818
 20
145.95847133165159
 30
0.0
 11
132.6395237012182
 21
146.07271385678871
 31
0.0
  0
LINE
  5
DC6
  8
3
 10
132.39300035750099
 20
145.95245856717071
 30
0.0
 11
132.3990131219818
 21
145.95847133165159
 31
0.0
  0
LINE
  5
DC7
  8
3
 10
132.39300035750099
 20
145.94644580268971
 30
0.0
 11
132.39300035750099
 21
145.95245856717071
 31
0.0
  0
LINE
  5
DC8
  8
3
 10
132.39300035750099
 20
145.94043303820879
 30
0.0
 11
132.39300035750099
 21
145.94644580268971
 31
0.0
  0
LINE
  5
DC9
  8
3
 10
132.38698759302019
 20
145.93442027372799
 30
0.0
 11
132.39300035750099
 21
145.93442027372799
 31
0.0
  0
LINE
  5
DCA
  8
3
 10
132.38698759302019
 20
145.92840750924699
 30
0.0
 11
132.38698759302019
 21
145.93442027372799
 31
0.0
  0
LINE
  5
DCB
  8
3
 10
132.38698759302019
 20
145.92239474476611
 30
0.0
 11
132.38698759302019
 21
145.92840750924699
 31
0.0
  0
LINE
  5
DCC
  8
3
 10
132.38698759302019
 20
145.91638198028531
 30
0.0
 11
132.38698759302019
 21
145.92239474476611
 31
0.0
  0
LINE
  5
DCD
  8
3
 10
132.37496206405831
 20
145.91638198028531
 30
0.0
 11
132.38698759302019
 21
145.91638198028531
 31
0.0
  0
LINE
  5
DCE
  8
3
 10
132.36894929957731
 20
145.91638198028531
 30
0.0
 11
132.37496206405831
 21
145.91638198028531
 31
0.0
  0
LINE
  5
DCF
  8
3
 10
132.36293653509651
 20
145.91036921580431
 30
0.0
 11
132.36894929957731
 21
145.91638198028531
 31
0.0
  0
LINE
  5
DD0
  8
3
 10
132.35692377061559
 20
145.91036921580431
 30
0.0
 11
132.36293653509651
 21
145.91036921580431
 31
0.0
  0
LINE
  5
DD1
  8
3
 10
132.35091100613451
 20
145.90435645132339
 30
0.0
 11
132.35692377061559
 21
145.91036921580431
 31
0.0
  0
LINE
  5
DD2
  8
3
 10
132.34489824165379
 20
145.90435645132339
 30
0.0
 11
132.35091100613451
 21
145.90435645132339
 31
0.0
  0
LINE
  5
DD3
  8
3
 10
132.33888547717279
 20
145.90435645132339
 30
0.0
 11
132.34489824165379
 21
145.90435645132339
 31
0.0
  0
LINE
  5
DD4
  8
3
 10
132.33287271269191
 20
145.89834368684251
 30
0.0
 11
132.33888547717279
 21
145.90435645132339
 31
0.0
  0
LINE
  5
DD5
  8
3
 10
132.33287271269191
 20
145.89233092236159
 30
0.0
 11
132.33287271269191
 21
145.89834368684251
 31
0.0
  0
LINE
  5
DD6
  8
3
 10
133.0063023345534
 20
146.42145419668131
 30
0.0
 11
132.95218745422511
 21
146.4274669611622
 31
0.0
  0
LINE
  5
DD7
  8
3
 10
132.837944929088
 20
146.439492490124
 30
0.0
 11
132.77781728427891
 21
146.4515180190858
 31
0.0
  0
LINE
  5
DD8
  8
3
 10
132.8920598094162
 20
146.43347972564311
 30
0.0
 11
132.837944929088
 21
146.439492490124
 31
0.0
  0
LINE
  5
DD9
  8
3
 10
132.95218745422511
 20
146.4274669611622
 30
0.0
 11
132.8920598094162
 21
146.43347972564311
 31
0.0
  0
LINE
  5
DDA
  8
3
 10
132.87402151597351
 20
146.16290532400231
 30
0.0
 11
133.1025065662478
 21
146.22904573329231
 31
0.0
  0
LINE
  5
DDB
  8
3
 10
133.0664299793624
 20
146.4154414322004
 30
0.0
 11
133.0063023345534
 21
146.42145419668131
 31
0.0
  0
LINE
  5
DDC
  8
3
 10
133.1205448596906
 20
146.4034159032386
 30
0.0
 11
133.0664299793624
 21
146.4154414322004
 31
0.0
  0
LINE
  5
DDD
  8
3
 10
133.1746597400188
 20
146.39740313875771
 30
0.0
 11
133.1205448596906
 21
146.4034159032386
 31
0.0
  0
LINE
  5
DDE
  8
3
 10
133.6917574853766
 20
147.1069093475044
 30
0.0
 11
133.6917574853766
 21
147.19710081471811
 31
0.0
  0
LINE
  5
DDF
  8
3
 10
133.37308096788851
 20
147.2271646371226
 30
0.0
 11
133.37308096788851
 21
147.1008965830236
 31
0.0
  0
LINE
  5
DE0
  8
3
 10
133.655680898491
 20
148.026862313083
 30
0.0
 11
133.6496681340102
 21
148.026862313083
 31
0.0
  0
LINE
  5
DE1
  8
3
 10
133.5895404892012
 20
147.9907857261976
 30
0.0
 11
133.52941284439211
 21
147.91261978794569
 31
0.0
  0
LINE
  5
DE2
  8
3
 10
133.595553253682
 20
148.00281125515929
 30
0.0
 11
133.5895404892012
 21
147.9907857261976
 31
0.0
  0
LINE
  5
DE3
  8
3
 10
133.601566018163
 20
148.00281125515929
 30
0.0
 11
133.595553253682
 21
148.00281125515929
 31
0.0
  0
LINE
  5
DE4
  8
3
 10
133.6135915471246
 20
148.0088240196402
 30
0.0
 11
133.601566018163
 21
148.00281125515929
 31
0.0
  0
LINE
  5
DE5
  8
3
 10
133.6196043116056
 20
148.0148367841212
 30
0.0
 11
133.6135915471246
 21
148.0088240196402
 31
0.0
  0
LINE
  5
DE6
  8
3
 10
133.62561707608651
 20
148.0148367841212
 30
0.0
 11
133.6196043116056
 21
148.0148367841212
 31
0.0
  0
LINE
  5
DE7
  8
3
 10
133.63162984056751
 20
148.02084954860209
 30
0.0
 11
133.62561707608651
 21
148.0148367841212
 31
0.0
  0
LINE
  5
DE8
  8
3
 10
133.6436553695292
 20
148.02084954860209
 30
0.0
 11
133.63162984056751
 21
148.02084954860209
 31
0.0
  0
LINE
  5
DE9
  8
3
 10
133.6496681340102
 20
148.026862313083
 30
0.0
 11
133.6436553695292
 21
148.02084954860209
 31
0.0
  0
LINE
  5
DEA
  8
3
 10
133.52941284439211
 20
147.91261978794569
 30
0.0
 11
133.4813107285448
 21
147.81641555625129
 31
0.0
  0
LINE
  5
DEB
  8
3
 10
133.4813107285448
 20
147.81641555625129
 30
0.0
 11
133.43922137717851
 21
147.708185795595
 31
0.0
  0
LINE
  5
DEC
  8
3
 10
133.43922137717851
 20
147.708185795595
 30
0.0
 11
133.415170319255
 21
147.5939432704578
 31
0.0
  0
LINE
  5
DED
  8
3
 10
133.37909373236951
 20
147.3534326912216
 30
0.0
 11
133.37308096788851
 21
147.2271646371226
 31
0.0
  0
LINE
  5
DEE
  8
3
 10
133.3911192613314
 20
147.47368798083971
 30
0.0
 11
133.37909373236951
 21
147.3534326912216
 31
0.0
  0
LINE
  5
DEF
  8
3
 10
133.415170319255
 20
147.5939432704578
 30
0.0
 11
133.3911192613314
 21
147.47368798083971
 31
0.0
  0
LINE
  5
DF0
  8
3
 10
133.6977702498574
 20
147.8224283207322
 30
0.0
 11
133.6917574853766
 21
147.9907857261976
 31
0.0
  0
LINE
  5
DF1
  8
3
 10
133.66169366297211
 20
148.026862313083
 30
0.0
 11
133.655680898491
 21
148.026862313083
 31
0.0
  0
LINE
  5
DF2
  8
3
 10
133.673719191934
 20
148.02084954860209
 30
0.0
 11
133.66169366297211
 21
148.026862313083
 31
0.0
  0
LINE
  5
DF3
  8
3
 10
133.67973195641471
 20
148.02084954860209
 30
0.0
 11
133.673719191934
 21
148.02084954860209
 31
0.0
  0
LINE
  5
DF4
  8
3
 10
133.67973195641471
 20
148.0148367841212
 30
0.0
 11
133.67973195641471
 21
148.02084954860209
 31
0.0
  0
LINE
  5
DF5
  8
3
 10
133.6857447208956
 20
148.00281125515929
 30
0.0
 11
133.67973195641471
 21
148.0148367841212
 31
0.0
  0
LINE
  5
DF6
  8
3
 10
133.6917574853766
 20
147.9907857261976
 30
0.0
 11
133.6857447208956
 21
148.00281125515929
 31
0.0
  0
LINE
  5
DF7
  8
3
 10
133.6977702498574
 20
147.4676752163588
 30
0.0
 11
133.6977702498574
 21
147.5578666835724
 31
0.0
  0
LINE
  5
DF8
  8
3
 10
133.6977702498574
 20
147.5578666835724
 30
0.0
 11
133.6977702498574
 21
147.64805815078589
 31
0.0
  0
LINE
  5
DF9
  8
3
 10
133.6977702498574
 20
147.7322368535186
 30
0.0
 11
133.6977702498574
 21
147.8224283207322
 31
0.0
  0
LINE
  5
DFA
  8
3
 10
133.6977702498574
 20
147.64805815078589
 30
0.0
 11
133.6977702498574
 21
147.7322368535186
 31
0.0
  0
LINE
  5
DFB
  8
3
 10
133.6917574853766
 20
147.2872922819316
 30
0.0
 11
133.6917574853766
 21
147.3774837491452
 31
0.0
  0
LINE
  5
DFC
  8
3
 10
133.6917574853766
 20
147.19710081471811
 30
0.0
 11
133.6917574853766
 21
147.2872922819316
 31
0.0
  0
LINE
  5
DFD
  8
3
 10
133.6917574853766
 20
147.3774837491452
 30
0.0
 11
133.6977702498574
 21
147.4676752163588
 31
0.0
  0
LINE
  5
DFE
  8
3
 10
133.5594766667966
 20
146.31923720050591
 30
0.0
 11
133.78796171707091
 21
146.34328825842951
 31
0.0
  0
LINE
  5
DFF
  8
3
 10
133.403144790293
 20
146.4635435480476
 30
0.0
 11
133.40915755477411
 21
146.34328825842951
 31
0.0
  0
LINE
  5
E00
  8
3
 10
133.38510649685051
 20
146.7461434786502
 30
0.0
 11
133.3911192613314
 21
146.6439264824748
 31
0.0
  0
LINE
  5
E01
  8
3
 10
133.37308096788851
 20
147.1008965830236
 30
0.0
 11
133.37308096788851
 21
146.98064129340551
 31
0.0
  0
LINE
  5
E02
  8
3
 10
133.37308096788851
 20
146.98064129340551
 30
0.0
 11
133.37909373236951
 21
146.86038600378731
 31
0.0
  0
LINE
  5
E03
  8
3
 10
133.37909373236951
 20
146.86038600378731
 30
0.0
 11
133.38510649685051
 21
146.7461434786502
 31
0.0
  0
LINE
  5
E04
  8
3
 10
133.3971320258122
 20
146.54772225078031
 30
0.0
 11
133.403144790293
 21
146.4635435480476
 31
0.0
  0
LINE
  5
E05
  8
3
 10
133.3911192613314
 20
146.6439264824748
 30
0.0
 11
133.3971320258122
 21
146.54772225078031
 31
0.0
  0
LINE
  5
E06
  8
3
 10
133.36706820340771
 20
146.3613265518722
 30
0.0
 11
133.31896608756051
 21
146.37335208083411
 31
0.0
  0
LINE
  5
E07
  8
3
 10
133.31896608756051
 20
146.37335208083411
 30
0.0
 11
133.2708639717132
 21
146.37936484531491
 31
0.0
  0
LINE
  5
E08
  8
3
 10
133.2708639717132
 20
146.37936484531491
 30
0.0
 11
133.222761855866
 21
146.3913903742768
 31
0.0
  0
LINE
  5
E09
  8
3
 10
133.40915755477411
 20
146.34328825842951
 30
0.0
 11
133.36706820340771
 21
146.3613265518722
 31
0.0
  0
LINE
  5
E0A
  8
3
 10
133.33099161652211
 20
146.28316061362051
 30
0.0
 11
133.5594766667966
 21
146.31923720050591
 31
0.0
  0
LINE
  5
E0B
  8
3
 10
133.87214041980371
 20
146.60183713110851
 30
0.0
 11
133.83005106843731
 21
146.60183713110851
 31
0.0
  0
LINE
  5
E0C
  8
3
 10
133.83005106843731
 20
146.60183713110851
 30
0.0
 11
133.78796171707091
 21
146.60183713110851
 31
0.0
  0
LINE
  5
E0D
  8
3
 10
133.92024253565091
 20
146.60183713110851
 30
0.0
 11
133.87214041980371
 21
146.60183713110851
 31
0.0
  0
LINE
  5
E0E
  8
3
 10
134.0585361187118
 20
146.60183713110851
 30
0.0
 11
134.0104340028646
 21
146.60183713110851
 31
0.0
  0
LINE
  5
E0F
  8
3
 10
134.100625470078
 20
146.60183713110851
 30
0.0
 11
134.0585361187118
 21
146.60183713110851
 31
0.0
  0
LINE
  5
E10
  8
3
 10
133.9683446514982
 20
146.60183713110851
 30
0.0
 11
133.92024253565091
 21
146.60183713110851
 31
0.0
  0
LINE
  5
E11
  8
3
 10
134.0104340028646
 20
146.60183713110851
 30
0.0
 11
133.9683446514982
 21
146.60183713110851
 31
0.0
  0
LINE
  5
E12
  8
3
 10
133.70378301433831
 20
146.5898116021466
 30
0.0
 11
133.6977702498574
 21
146.67399030487931
 31
0.0
  0
LINE
  5
E13
  8
3
 10
133.78796171707091
 20
146.60183713110851
 30
0.0
 11
133.70378301433831
 21
146.5898116021466
 31
0.0
  0
LINE
  5
E14
  8
3
 10
133.6917574853766
 20
146.8423477103446
 30
0.0
 11
133.6917574853766
 21
146.93253917755831
 31
0.0
  0
LINE
  5
E15
  8
3
 10
133.6917574853766
 20
147.01671788029091
 30
0.0
 11
133.6917574853766
 21
147.1069093475044
 31
0.0
  0
LINE
  5
E16
  8
3
 10
133.6917574853766
 20
146.93253917755831
 30
0.0
 11
133.6917574853766
 21
147.01671788029091
 31
0.0
  0
LINE
  5
E17
  8
3
 10
133.6917574853766
 20
146.75816900761191
 30
0.0
 11
133.6917574853766
 21
146.8423477103446
 31
0.0
  0
LINE
  5
E18
  8
3
 10
133.6977702498574
 20
146.67399030487931
 30
0.0
 11
133.6917574853766
 21
146.75816900761191
 31
0.0
  0
LINE
  5
E19
  8
3
 10
133.78796171707091
 20
146.34328825842951
 30
0.0
 11
134.02245953182631
 21
146.35531378739131
 31
0.0
  0
LINE
  5
E1A
  8
3
 10
135.0506422580612
 20
148.8626365759288
 30
0.0
 11
135.24305072145009
 21
148.6882664059826
 31
0.0
  0
LINE
  5
E1B
  8
3
 10
135.0085529066948
 20
148.88668763385249
 30
0.0
 11
135.0506422580612
 21
148.8626365759288
 31
0.0
  0
LINE
  5
E1C
  8
3
 10
134.49145516133689
 20
149.1512492710122
 30
0.0
 11
134.5876593930314
 21
149.12118544860769
 31
0.0
  0
LINE
  5
E1D
  8
3
 10
134.29904669794789
 20
149.19935138685949
 30
0.0
 11
134.40126369412329
 21
149.1753003289358
 31
0.0
  0
LINE
  5
E1E
  8
3
 10
134.2028424662534
 20
149.21137691582129
 30
0.0
 11
134.29904669794789
 21
149.19935138685949
 31
0.0
  0
LINE
  5
E1F
  8
3
 10
134.40126369412329
 20
149.1753003289358
 30
0.0
 11
134.49145516133689
 21
149.1512492710122
 31
0.0
  0
LINE
  5
E20
  8
3
 10
134.5876593930314
 20
149.12118544860769
 30
0.0
 11
134.7740550919394
 21
149.04301951035589
 31
0.0
  0
LINE
  5
E21
  8
3
 10
134.99051461325189
 20
148.89270039833329
 30
0.0
 11
135.0085529066948
 21
148.88668763385249
 31
0.0
  0
LINE
  5
E22
  8
3
 10
134.97848908429029
 20
148.90472592729509
 30
0.0
 11
134.99051461325189
 21
148.89270039833329
 31
0.0
  0
LINE
  5
E23
  8
3
 10
134.9604507908476
 20
148.916751456257
 30
0.0
 11
134.97848908429029
 21
148.90472592729509
 31
0.0
  0
LINE
  5
E24
  8
3
 10
134.9424124974048
 20
148.9287769852188
 30
0.0
 11
134.9604507908476
 21
148.916751456257
 31
0.0
  0
LINE
  5
E25
  8
3
 10
134.930386968443
 20
148.93478974969969
 30
0.0
 11
134.9424124974048
 21
148.9287769852188
 31
0.0
  0
LINE
  5
E26
  8
3
 10
134.9123486750002
 20
148.94681527866149
 30
0.0
 11
134.930386968443
 21
148.93478974969969
 31
0.0
  0
LINE
  5
E27
  8
3
 10
134.8943103815576
 20
148.95884080762329
 30
0.0
 11
134.9123486750002
 21
148.94681527866149
 31
0.0
  0
LINE
  5
E28
  8
3
 10
134.876272088115
 20
148.97086633658509
 30
0.0
 11
134.8943103815576
 21
148.95884080762329
 31
0.0
  0
LINE
  5
E29
  8
3
 10
134.8642465591532
 20
148.98289186554689
 30
0.0
 11
134.876272088115
 21
148.97086633658509
 31
0.0
  0
LINE
  5
E2A
  8
3
 10
134.84620826571029
 20
148.99491739450869
 30
0.0
 11
134.8642465591532
 21
148.98289186554689
 31
0.0
  0
LINE
  5
E2B
  8
3
 10
134.79209338538209
 20
149.03099398139409
 30
0.0
 11
134.810131678825
 21
149.0189684524324
 31
0.0
  0
LINE
  5
E2C
  8
3
 10
134.7740550919394
 20
149.04301951035589
 30
0.0
 11
134.79209338538209
 21
149.03099398139409
 31
0.0
  0
LINE
  5
E2D
  8
3
 10
134.810131678825
 20
149.0189684524324
 30
0.0
 11
134.8281699722676
 21
149.00694292347049
 31
0.0
  0
LINE
  5
E2E
  8
3
 10
134.8281699722676
 20
149.00694292347049
 30
0.0
 11
134.84620826571029
 21
148.99491739450869
 31
0.0
  0
LINE
  5
E2F
  8
3
 10
134.7620295629778
 20
146.34930102291051
 30
0.0
 11
135.0326039646184
 21
146.3372754939486
 31
0.0
  0
LINE
  5
E30
  8
3
 10
135.68799529303709
 20
146.49962013493311
 30
0.0
 11
134.6477870378404
 21
146.51164566389491
 31
0.0
  0
LINE
  5
E31
  8
3
 10
134.4132892230852
 20
147.9486963748312
 30
0.0
 11
134.4072764586042
 21
146.63190095351291
 31
0.0
  0
LINE
  5
E32
  8
3
 10
134.6297487443978
 20
147.1730497567944
 30
0.0
 11
134.6357615088786
 21
147.2752667529698
 31
0.0
  0
LINE
  5
E33
  8
3
 10
134.5876593930314
 20
147.7322368535186
 30
0.0
 11
134.551582806146
 21
147.81641555625129
 31
0.0
  0
LINE
  5
E34
  8
3
 10
134.551582806146
 20
147.81641555625129
 30
0.0
 11
134.4493658099706
 21
147.960721903793
 31
0.0
  0
LINE
  5
E35
  8
3
 10
134.4132892230852
 20
147.95470913931209
 30
0.0
 11
134.4132892230852
 21
147.9486963748312
 31
0.0
  0
LINE
  5
E36
  8
3
 10
134.41930198756609
 20
147.95470913931209
 30
0.0
 11
134.4132892230852
 21
147.95470913931209
 31
0.0
  0
LINE
  5
E37
  8
3
 10
134.41930198756609
 20
147.960721903793
 30
0.0
 11
134.41930198756609
 21
147.95470913931209
 31
0.0
  0
LINE
  5
E38
  8
3
 10
134.42531475204689
 20
147.960721903793
 30
0.0
 11
134.41930198756609
 21
147.960721903793
 31
0.0
  0
LINE
  5
E39
  8
3
 10
134.4313275165278
 20
147.960721903793
 30
0.0
 11
134.42531475204689
 21
147.960721903793
 31
0.0
  0
LINE
  5
E3A
  8
3
 10
134.4373402810088
 20
147.960721903793
 30
0.0
 11
134.4313275165278
 21
147.960721903793
 31
0.0
  0
LINE
  5
E3B
  8
3
 10
134.44335304548969
 20
147.960721903793
 30
0.0
 11
134.4373402810088
 21
147.960721903793
 31
0.0
  0
LINE
  5
E3C
  8
3
 10
134.4493658099706
 20
147.960721903793
 30
0.0
 11
134.44335304548969
 21
147.960721903793
 31
0.0
  0
LINE
  5
E3D
  8
3
 10
134.61171045095509
 20
147.64805815078589
 30
0.0
 11
134.5876593930314
 21
147.7322368535186
 31
0.0
  0
LINE
  5
E3E
  8
3
 10
134.6357615088786
 20
147.46166245187791
 30
0.0
 11
134.62373597991669
 21
147.5578666835724
 31
0.0
  0
LINE
  5
E3F
  8
3
 10
134.6357615088786
 20
147.37147098466431
 30
0.0
 11
134.6357615088786
 21
147.46166245187791
 31
0.0
  0
LINE
  5
E40
  8
3
 10
134.6357615088786
 20
147.2752667529698
 30
0.0
 11
134.6357615088786
 21
147.37147098466431
 31
0.0
  0
LINE
  5
E41
  8
3
 10
134.62373597991669
 20
147.5578666835724
 30
0.0
 11
134.61171045095509
 21
147.64805815078589
 31
0.0
  0
LINE
  5
E42
  8
3
 10
134.5094934547796
 20
146.35531378739131
 30
0.0
 11
134.7620295629778
 21
146.34930102291051
 31
0.0
  0
LINE
  5
E43
  8
3
 10
134.1908169372916
 20
146.60183713110851
 30
0.0
 11
134.14872758592529
 21
146.60183713110851
 31
0.0
  0
LINE
  5
E44
  8
3
 10
134.23891905313889
 20
146.60784989558931
 30
0.0
 11
134.1908169372916
 21
146.60183713110851
 31
0.0
  0
LINE
  5
E45
  8
3
 10
134.28100840450529
 20
146.60784989558931
 30
0.0
 11
134.23891905313889
 21
146.60784989558931
 31
0.0
  0
LINE
  5
E46
  8
3
 10
134.32309775587149
 20
146.6138626600702
 30
0.0
 11
134.28100840450529
 21
146.60784989558931
 31
0.0
  0
LINE
  5
E47
  8
3
 10
134.36518710723789
 20
146.625888189032
 30
0.0
 11
134.32309775587149
 21
146.6138626600702
 31
0.0
  0
LINE
  5
E48
  8
3
 10
134.4072764586042
 20
146.63190095351291
 30
0.0
 11
134.36518710723789
 21
146.625888189032
 31
0.0
  0
LINE
  5
E49
  8
3
 10
134.2569573465816
 20
146.3613265518722
 30
0.0
 11
134.5094934547796
 21
146.35531378739131
 31
0.0
  0
LINE
  5
E4A
  8
3
 10
134.62373597991669
 20
146.98064129340551
 30
0.0
 11
134.62373597991669
 21
147.0768455251
 31
0.0
  0
LINE
  5
E4B
  8
3
 10
134.62373597991669
 20
147.0768455251
 30
0.0
 11
134.6297487443978
 21
147.1730497567944
 31
0.0
  0
LINE
  5
E4C
  8
3
 10
134.6477870378404
 20
146.51164566389491
 30
0.0
 11
134.6297487443978
 21
146.60183713110851
 31
0.0
  0
LINE
  5
E4D
  8
3
 10
134.61772321543589
 20
146.692028598322
 30
0.0
 11
134.61772321543589
 21
146.78823283001651
 31
0.0
  0
LINE
  5
E4E
  8
3
 10
134.61772321543589
 20
146.78823283001651
 30
0.0
 11
134.61772321543589
 21
146.884437061711
 31
0.0
  0
LINE
  5
E4F
  8
3
 10
134.6297487443978
 20
146.60183713110851
 30
0.0
 11
134.61772321543589
 21
146.692028598322
 31
0.0
  0
LINE
  5
E50
  8
3
 10
134.61772321543589
 20
146.884437061711
 30
0.0
 11
134.62373597991669
 21
146.98064129340551
 31
0.0
  0
LINE
  5
E51
  8
3
 10
135.68198252855609
 20
147.61198156390051
 30
0.0
 11
135.68799529303709
 21
146.49962013493311
 31
0.0
  0
LINE
  5
E52
  8
3
 10
135.47153577172449
 20
148.3575643595328
 30
0.0
 11
135.4835613006862
 21
148.33952606609
 31
0.0
  0
LINE
  5
E53
  8
3
 10
135.4534974782818
 20
148.3936409464182
 30
0.0
 11
135.45951024276269
 21
148.37560265297549
 31
0.0
  0
LINE
  5
E54
  8
3
 10
135.42944642035809
 20
148.4417430622654
 30
0.0
 11
135.4534974782818
 21
148.3936409464182
 31
0.0
  0
LINE
  5
E55
  8
3
 10
135.4114081269154
 20
148.4597813557082
 30
0.0
 11
135.42944642035809
 21
148.4417430622654
 31
0.0
  0
LINE
  5
E56
  8
3
 10
135.39938259795369
 20
148.4838324136318
 30
0.0
 11
135.4114081269154
 21
148.4597813557082
 31
0.0
  0
LINE
  5
E57
  8
3
 10
135.3873570689918
 20
148.50187070707449
 30
0.0
 11
135.39938259795369
 21
148.4838324136318
 31
0.0
  0
LINE
  5
E58
  8
3
 10
135.37533154003
 20
148.5199090005172
 30
0.0
 11
135.3873570689918
 21
148.50187070707449
 31
0.0
  0
LINE
  5
E59
  8
3
 10
135.3633060110682
 20
148.53794729395989
 30
0.0
 11
135.37533154003
 21
148.5199090005172
 31
0.0
  0
LINE
  5
E5A
  8
3
 10
135.45951024276269
 20
148.37560265297549
 30
0.0
 11
135.47153577172449
 21
148.3575643595328
 31
0.0
  0
LINE
  5
E5B
  8
3
 10
135.33324218866369
 20
148.5680111163644
 30
0.0
 11
135.3452677176254
 21
148.54997282292169
 31
0.0
  0
LINE
  5
E5C
  8
3
 10
135.32121665970189
 20
148.58604940980709
 30
0.0
 11
135.33324218866369
 21
148.5680111163644
 31
0.0
  0
LINE
  5
E5D
  8
3
 10
135.3031783662592
 20
148.60408770324989
 30
0.0
 11
135.32121665970189
 21
148.58604940980709
 31
0.0
  0
LINE
  5
E5E
  8
3
 10
135.29115283729729
 20
148.6221259966926
 30
0.0
 11
135.3031783662592
 21
148.60408770324989
 31
0.0
  0
LINE
  5
E5F
  8
3
 10
135.2671017793736
 20
148.65218981909709
 30
0.0
 11
135.27912730833549
 21
148.6341515256544
 31
0.0
  0
LINE
  5
E60
  8
3
 10
135.255076250412
 20
148.6702281125398
 30
0.0
 11
135.2671017793736
 21
148.65218981909709
 31
0.0
  0
LINE
  5
E61
  8
3
 10
135.24305072145009
 20
148.6882664059826
 30
0.0
 11
135.255076250412
 21
148.6702281125398
 31
0.0
  0
LINE
  5
E62
  8
3
 10
135.27912730833549
 20
148.6341515256544
 30
0.0
 11
135.29115283729729
 21
148.6221259966926
 31
0.0
  0
LINE
  5
E63
  8
3
 10
135.3452677176254
 20
148.54997282292169
 30
0.0
 11
135.3633060110682
 21
148.53794729395989
 31
0.0
  0
LINE
  5
E64
  8
3
 10
135.6398931771898
 20
147.94268361035029
 30
0.0
 11
135.6459059416708
 21
147.90660702346489
 31
0.0
  0
LINE
  5
E65
  8
3
 10
135.63388041270889
 20
147.9727474327548
 30
0.0
 11
135.6398931771898
 21
147.94268361035029
 31
0.0
  0
LINE
  5
E66
  8
3
 10
135.62786764822789
 20
148.00281125515929
 30
0.0
 11
135.63388041270889
 21
147.9727474327548
 31
0.0
  0
LINE
  5
E67
  8
3
 10
135.62185488374709
 20
148.03287507756389
 30
0.0
 11
135.62786764822789
 21
148.00281125515929
 31
0.0
  0
LINE
  5
E68
  8
3
 10
135.61584211926629
 20
148.0629388999684
 30
0.0
 11
135.62185488374709
 21
148.03287507756389
 31
0.0
  0
LINE
  5
E69
  8
3
 10
135.60982935478521
 20
148.09300272237289
 30
0.0
 11
135.61584211926629
 21
148.0629388999684
 31
0.0
  0
LINE
  5
E6A
  8
3
 10
135.58577829686169
 20
148.1290793092584
 30
0.0
 11
135.60982935478521
 21
148.09300272237289
 31
0.0
  0
LINE
  5
E6B
  8
3
 10
135.57375276789989
 20
148.14711760270109
 30
0.0
 11
135.58577829686169
 21
148.1290793092584
 31
0.0
  0
LINE
  5
E6C
  8
3
 10
135.56172723893809
 20
148.1651558961438
 30
0.0
 11
135.57375276789989
 21
148.14711760270109
 31
0.0
  0
LINE
  5
E6D
  8
3
 10
135.5557144744572
 20
148.18319418958649
 30
0.0
 11
135.56172723893809
 21
148.1651558961438
 31
0.0
  0
LINE
  5
E6E
  8
3
 10
135.54368894549529
 20
148.20123248302929
 30
0.0
 11
135.5557144744572
 21
148.18319418958649
 31
0.0
  0
LINE
  5
E6F
  8
3
 10
135.53767618101449
 20
148.2252835409528
 30
0.0
 11
135.54368894549529
 21
148.20123248302929
 31
0.0
  0
LINE
  5
E70
  8
3
 10
135.53166341653349
 20
148.2433218343956
 30
0.0
 11
135.53767618101449
 21
148.2252835409528
 31
0.0
  0
LINE
  5
E71
  8
3
 10
135.5136251230908
 20
148.279398421281
 30
0.0
 11
135.51963788757169
 21
148.2613601278382
 31
0.0
  0
LINE
  5
E72
  8
3
 10
135.501599594129
 20
148.29743671472369
 30
0.0
 11
135.5136251230908
 21
148.279398421281
 31
0.0
  0
LINE
  5
E73
  8
3
 10
135.495586829648
 20
148.32148777264729
 30
0.0
 11
135.501599594129
 21
148.29743671472369
 31
0.0
  0
LINE
  5
E74
  8
3
 10
135.4835613006862
 20
148.33952606609
 30
0.0
 11
135.495586829648
 21
148.32148777264729
 31
0.0
  0
LINE
  5
E75
  8
3
 10
135.51963788757169
 20
148.2613601278382
 30
0.0
 11
135.53166341653349
 21
148.2433218343956
 31
0.0
  0
LINE
  5
E76
  8
3
 10
135.6459059416708
 20
147.90660702346489
 30
0.0
 11
135.65191870615169
 21
147.87654320106029
 31
0.0
  0
LINE
  5
E77
  8
3
 10
135.68198252855609
 20
147.61198156390051
 30
0.0
 11
135.68198252855609
 21
147.61198156390051
 31
0.0
  0
LINE
  5
E78
  8
3
 10
135.67596976407509
 20
147.70217303111411
 30
0.0
 11
135.67596976407509
 21
147.6721092087096
 31
0.0
  0
LINE
  5
E79
  8
3
 10
135.66995699959429
 20
147.7322368535186
 30
0.0
 11
135.67596976407509
 21
147.70217303111411
 31
0.0
  0
LINE
  5
E7A
  8
3
 10
135.66394423511349
 20
147.7562879114422
 30
0.0
 11
135.66995699959429
 21
147.7322368535186
 31
0.0
  0
LINE
  5
E7B
  8
3
 10
135.66394423511349
 20
147.7863517338468
 30
0.0
 11
135.66394423511349
 21
147.7562879114422
 31
0.0
  0
LINE
  5
E7C
  8
3
 10
135.6579314706326
 20
147.81641555625129
 30
0.0
 11
135.66394423511349
 21
147.7863517338468
 31
0.0
  0
LINE
  5
E7D
  8
3
 10
135.65191870615169
 20
147.8464793786558
 30
0.0
 11
135.6579314706326
 21
147.81641555625129
 31
0.0
  0
LINE
  5
E7E
  8
3
 10
135.65191870615169
 20
147.87654320106029
 30
0.0
 11
135.65191870615169
 21
147.8464793786558
 31
0.0
  0
LINE
  5
E7F
  8
3
 10
135.67596976407509
 20
147.6721092087096
 30
0.0
 11
135.68198252855609
 21
147.61198156390051
 31
0.0
  0
LINE
  5
E80
  8
3
 10
135.32121665970189
 20
146.33126272946771
 30
0.0
 11
135.4715357717244
 21
146.32825634722721
 31
0.0
  0
LINE
  5
E81
  8
3
 10
135.0326039646184
 20
146.3372754939486
 30
0.0
 11
135.32121665970189
 21
146.33126272946771
 31
0.0
  0
LINE
  5
E82
  8
3
 10
134.1246765280018
 20
142.48309346168841
 30
0.0
 11
134.0825871766354
 21
142.48309346168841
 31
0.0
  0
LINE
  5
E83
  8
3
 10
134.0585361187118
 20
142.08625100594861
 30
0.0
 11
134.11866376352069
 21
142.10428929939141
 31
0.0
  0
LINE
  5
E84
  8
3
 10
134.0825871766354
 20
140.42071524473789
 30
0.0
 11
134.1306892924826
 21
140.39666418681429
 31
0.0
  0
LINE
  5
E85
  8
3
 10
134.11866376352069
 20
140.92578746113401
 30
0.0
 11
134.08859994111631
 21
140.89572363872941
 31
0.0
  0
LINE
  5
E86
  8
3
 10
134.10663823455911
 20
145.09263324640119
 30
0.0
 11
134.1547403504062
 21
145.09263324640119
 31
0.0
  0
LINE
  5
E87
  8
3
 10
134.29303393346709
 20
145.24896512290479
 30
0.0
 11
134.09461270559731
 21
145.24896512290479
 31
0.0
  0
LINE
  5
E88
  8
3
 10
133.24080014930871
 20
142.6574636316347
 30
0.0
 11
133.24681291378951
 21
142.5492338709783
 31
0.0
  0
LINE
  5
E89
  8
3
 10
132.35091100613451
 20
142.6394253381919
 30
0.0
 11
132.32685994821111
 21
142.7175912764437
 31
0.0
  0
LINE
  5
E8A
  8
3
 10
133.60757878264391
 20
142.4770806972075
 30
0.0
 11
133.601566018163
 21
143.85400376333479
 31
0.0
  0
LINE
  5
E8B
  8
3
 10
133.19871079794231
 20
145.13472259776759
 30
0.0
 11
133.1626342110568
 21
145.12269706880579
 31
0.0
  0
LINE
  5
E8C
  8
3
 10
133.13858315313311
 20
144.88218648956959
 30
0.0
 11
133.20472356242311
 21
144.91826307645499
 31
0.0
  0
LINE
  5
E8D
  8
3
 10
132.45914076679099
 20
144.13059092945639
 30
0.0
 11
132.4771790602336
 21
144.1606547518609
 31
0.0
  0
LINE
  5
E8E
  8
3
 10
132.711676874989
 20
144.52142062071519
 30
0.0
 11
132.76579175531711
 21
144.5815482655243
 31
0.0
  0
LINE
  5
E8F
  8
3
 10
132.75376622635531
 20
144.93028860541679
 30
0.0
 11
132.71768963946991
 21
144.90623754749319
 31
0.0
  0
LINE
  5
E90
  8
3
 10
132.3990131219818
 20
144.6476886748143
 30
0.0
 11
132.33287271269191
 21
144.5815482655243
 31
0.0
  0
LINE
  5
E91
  8
3
 10
132.43508970886739
 20
144.67775249721879
 30
0.0
 11
132.3990131219818
 21
144.6476886748143
 31
0.0
  0
LINE
  5
E92
  8
3
 10
132.47116629575271
 20
144.7078163196233
 30
0.0
 11
132.43508970886739
 21
144.67775249721879
 31
0.0
  0
LINE
  5
E93
  8
3
 10
132.61547264329451
 20
144.3831270376545
 30
0.0
 11
132.66357475914171
 21
144.4552802114253
 31
0.0
  0
LINE
  5
E94
  8
3
 10
132.66357475914171
 20
144.4552802114253
 30
0.0
 11
132.711676874989
 21
144.52142062071519
 31
0.0
  0
LINE
  5
E95
  8
3
 10
132.57338329192811
 20
144.32299939284539
 30
0.0
 11
132.61547264329451
 21
144.3831270376545
 31
0.0
  0
LINE
  5
E96
  8
3
 10
132.54933223400459
 20
144.29293557044079
 30
0.0
 11
132.57338329192811
 21
144.32299939284539
 31
0.0
  0
LINE
  5
E97
  8
3
 10
132.53129394056191
 20
144.25685898355539
 30
0.0
 11
132.54933223400459
 21
144.29293557044079
 31
0.0
  0
LINE
  5
E98
  8
3
 10
132.51325564711919
 20
144.2267951611509
 30
0.0
 11
132.53129394056191
 21
144.25685898355539
 31
0.0
  0
LINE
  5
E99
  8
3
 10
132.49521735367631
 20
144.19673133874639
 30
0.0
 11
132.51325564711919
 21
144.2267951611509
 31
0.0
  0
LINE
  5
E9A
  8
3
 10
132.4771790602336
 20
144.1606547518609
 30
0.0
 11
132.49521735367631
 21
144.19673133874639
 31
0.0
  0
LINE
  5
E9B
  8
3
 10
132.53730670504271
 20
144.76794396443239
 30
0.0
 11
132.50123011815731
 21
144.7378801420279
 31
0.0
  0
LINE
  5
E9C
  8
3
 10
132.57338329192811
 20
144.79800778683691
 30
0.0
 11
132.53730670504271
 21
144.76794396443239
 31
0.0
  0
LINE
  5
E9D
  8
3
 10
132.60344711433271
 20
144.82205884476051
 30
0.0
 11
132.57338329192811
 21
144.79800778683691
 31
0.0
  0
LINE
  5
E9E
  8
3
 10
132.6395237012182
 20
144.85212266716499
 30
0.0
 11
132.60344711433271
 21
144.82205884476051
 31
0.0
  0
LINE
  5
E9F
  8
3
 10
132.6756002881036
 20
144.87617372508871
 30
0.0
 11
132.6395237012182
 21
144.85212266716499
 31
0.0
  0
LINE
  5
EA0
  8
3
 10
132.71768963946991
 20
144.90623754749319
 30
0.0
 11
132.6756002881036
 21
144.87617372508871
 31
0.0
  0
LINE
  5
EA1
  8
3
 10
132.50123011815731
 20
144.7378801420279
 30
0.0
 11
132.47116629575271
 21
144.7078163196233
 31
0.0
  0
LINE
  5
EA2
  8
3
 10
133.12655762417151
 20
145.11067153984399
 30
0.0
 11
133.090481037286
 21
145.09864601088219
 31
0.0
  0
LINE
  5
EA3
  8
3
 10
133.1626342110568
 20
145.12269706880579
 30
0.0
 11
133.12655762417151
 21
145.11067153984399
 31
0.0
  0
LINE
  5
EA4
  8
3
 10
132.98826404111071
 20
145.05655665951579
 30
0.0
 11
132.9341491607824
 21
145.02048007263039
 31
0.0
  0
LINE
  5
EA5
  8
3
 10
133.02434062799611
 20
145.06858218847771
 30
0.0
 11
132.98826404111071
 21
145.05655665951579
 31
0.0
  0
LINE
  5
EA6
  8
3
 10
133.0544044504006
 20
145.08060771743939
 30
0.0
 11
133.02434062799611
 21
145.06858218847771
 31
0.0
  0
LINE
  5
EA7
  8
3
 10
133.090481037286
 20
145.09864601088219
 30
0.0
 11
133.0544044504006
 21
145.08060771743939
 31
0.0
  0
LINE
  5
EA8
  8
3
 10
132.79585557772171
 20
144.95433966334051
 30
0.0
 11
132.75376622635531
 21
144.93028860541679
 31
0.0
  0
LINE
  5
EA9
  8
3
 10
132.837944929088
 20
144.97839072126411
 30
0.0
 11
132.79585557772171
 21
144.95433966334051
 31
0.0
  0
LINE
  5
EAA
  8
3
 10
132.8860470449352
 20
145.00244177918771
 30
0.0
 11
132.837944929088
 21
144.97839072126411
 31
0.0
  0
LINE
  5
EAB
  8
3
 10
132.9341491607824
 20
145.02048007263039
 30
0.0
 11
132.8860470449352
 21
145.00244177918771
 31
0.0
  0
LINE
  5
EAC
  8
3
 10
132.76579175531711
 20
144.5815482655243
 30
0.0
 11
132.81990663564531
 21
144.64167591033339
 31
0.0
  0
LINE
  5
EAD
  8
3
 10
132.81990663564531
 20
144.64167591033339
 30
0.0
 11
132.88003428045431
 21
144.6957907906615
 31
0.0
  0
LINE
  5
EAE
  8
3
 10
133.0664299793624
 20
144.84009713820319
 30
0.0
 11
133.13858315313311
 21
144.88218648956959
 31
0.0
  0
LINE
  5
EAF
  8
3
 10
132.9401619252634
 20
144.7499056709897
 30
0.0
 11
133.0063023345534
 21
144.79199502235599
 31
0.0
  0
LINE
  5
EB0
  8
3
 10
133.0063023345534
 20
144.79199502235599
 30
0.0
 11
133.0664299793624
 21
144.84009713820319
 31
0.0
  0
LINE
  5
EB1
  8
3
 10
132.88003428045431
 20
144.6957907906615
 30
0.0
 11
132.9401619252634
 21
144.7499056709897
 31
0.0
  0
LINE
  5
EB2
  8
3
 10
132.28477059684471
 20
143.3609570759005
 30
0.0
 11
132.29078336132571
 21
143.44513577863319
 31
0.0
  0
LINE
  5
EB3
  8
3
 10
132.29078336132571
 20
143.44513577863319
 30
0.0
 11
132.30280889028739
 21
143.5293144813659
 31
0.0
  0
LINE
  5
EB4
  8
3
 10
132.38698759302019
 20
143.95622075951019
 30
0.0
 11
132.3990131219818
 21
143.99229734639559
 31
0.0
  0
LINE
  5
EB5
  8
3
 10
132.36894929957731
 20
143.9201441726247
 30
0.0
 11
132.38698759302019
 21
143.95622075951019
 31
0.0
  0
LINE
  5
EB6
  8
3
 10
132.35692377061559
 20
143.8840675857393
 30
0.0
 11
132.36894929957731
 21
143.9201441726247
 31
0.0
  0
LINE
  5
EB7
  8
3
 10
132.35091100613451
 20
143.84197823437299
 30
0.0
 11
132.35692377061559
 21
143.8840675857393
 31
0.0
  0
LINE
  5
EB8
  8
3
 10
132.32685994821111
 20
143.68564635786939
 30
0.0
 11
132.35091100613451
 21
143.84197823437299
 31
0.0
  0
LINE
  5
EB9
  8
3
 10
132.31483441924919
 20
143.6074804196177
 30
0.0
 11
132.32685994821111
 21
143.68564635786939
 31
0.0
  0
LINE
  5
EBA
  8
3
 10
132.41103865094371
 20
144.02837393328099
 30
0.0
 11
132.4290769443864
 21
144.0644505201665
 31
0.0
  0
LINE
  5
EBB
  8
3
 10
132.4411024733482
 20
144.09451434257099
 30
0.0
 11
132.45914076679099
 21
144.13059092945639
 31
0.0
  0
LINE
  5
EBC
  8
3
 10
132.4290769443864
 20
144.0644505201665
 30
0.0
 11
132.4411024733482
 21
144.09451434257099
 31
0.0
  0
LINE
  5
EBD
  8
3
 10
132.3990131219818
 20
143.99229734639559
 30
0.0
 11
132.41103865094371
 21
144.02837393328099
 31
0.0
  0
LINE
  5
EBE
  8
3
 10
132.30280889028739
 20
143.5293144813659
 30
0.0
 11
132.31483441924919
 21
143.6074804196177
 31
0.0
  0
LINE
  5
EBF
  8
3
 10
132.32685994821111
 20
142.7175912764437
 30
0.0
 11
132.30280889028739
 21
142.78974445021461
 31
0.0
  0
LINE
  5
EC0
  8
3
 10
132.30280889028739
 20
142.78974445021461
 30
0.0
 11
132.29078336132571
 21
142.87392315294721
 31
0.0
  0
LINE
  5
EC1
  8
3
 10
133.50536178646851
 20
145.03851836607311
 30
0.0
 11
133.66770642745291
 21
145.08060771743939
 31
0.0
  0
LINE
  5
EC2
  8
3
 10
133.7639106591474
 20
145.23693959394299
 30
0.0
 11
133.6436553695292
 21
145.23693959394299
 31
0.0
  0
LINE
  5
EC3
  8
3
 10
133.34902990996491
 20
145.18282471361479
 30
0.0
 11
133.3069405585986
 21
145.17079918465299
 31
0.0
  0
LINE
  5
EC4
  8
3
 10
133.27687673619411
 20
144.95433966334051
 30
0.0
 11
133.34902990996491
 21
144.98440348574499
 31
0.0
  0
LINE
  5
EC5
  8
3
 10
133.3069405585986
 20
145.17079918465299
 30
0.0
 11
133.2708639717132
 21
145.15877365569131
 31
0.0
  0
LINE
  5
EC6
  8
3
 10
133.23478738482771
 20
145.14674812672939
 30
0.0
 11
133.19871079794231
 21
145.13472259776759
 31
0.0
  0
LINE
  5
EC7
  8
3
 10
133.2708639717132
 20
145.15877365569131
 30
0.0
 11
133.23478738482771
 21
145.14674812672939
 31
0.0
  0
LINE
  5
EC8
  8
3
 10
133.20472356242311
 20
144.91826307645499
 30
0.0
 11
133.27687673619411
 21
144.95433966334051
 31
0.0
  0
LINE
  5
EC9
  8
3
 10
133.4271958482168
 20
145.01446730814951
 30
0.0
 11
133.50536178646851
 21
145.03851836607311
 31
0.0
  0
LINE
  5
ECA
  8
3
 10
133.34902990996491
 20
144.98440348574499
 30
0.0
 11
133.4271958482168
 21
145.01446730814951
 31
0.0
  0
LINE
  5
ECB
  8
3
 10
133.6436553695292
 20
145.23693959394299
 30
0.0
 11
133.50536178646851
 21
145.22491406498119
 31
0.0
  0
LINE
  5
ECC
  8
3
 10
133.46327243510211
 20
145.21890130050019
 30
0.0
 11
133.4271958482168
 21
145.20687577153851
 31
0.0
  0
LINE
  5
ECD
  8
3
 10
133.50536178646851
 20
145.22491406498119
 30
0.0
 11
133.46327243510211
 21
145.21890130050019
 31
0.0
  0
LINE
  5
ECE
  8
3
 10
133.38510649685051
 20
145.19485024257671
 30
0.0
 11
133.34902990996491
 21
145.18282471361479
 31
0.0
  0
LINE
  5
ECF
  8
3
 10
133.4271958482168
 20
145.20687577153851
 30
0.0
 11
133.38510649685051
 21
145.19485024257671
 31
0.0
  0
LINE
  5
ED0
  8
3
 10
133.9142297711702
 20
145.24295235842391
 30
0.0
 11
133.7639106591474
 21
145.23693959394299
 31
0.0
  0
LINE
  5
ED1
  8
3
 10
133.83005106843731
 20
145.09864601088219
 30
0.0
 11
133.88416594876551
 21
145.09864601088219
 31
0.0
  0
LINE
  5
ED2
  8
3
 10
133.77593618810931
 20
145.09263324640119
 30
0.0
 11
133.83005106843731
 21
145.09864601088219
 31
0.0
  0
LINE
  5
ED3
  8
3
 10
133.88416594876551
 20
145.09864601088219
 30
0.0
 11
133.9442935935746
 21
145.09864601088219
 31
0.0
  0
LINE
  5
ED4
  8
3
 10
134.0525233542308
 20
145.09864601088219
 30
0.0
 11
134.10663823455911
 21
145.09263324640119
 31
0.0
  0
LINE
  5
ED5
  8
3
 10
133.9442935935746
 20
145.09864601088219
 30
0.0
 11
133.9984084739026
 21
145.09864601088219
 31
0.0
  0
LINE
  5
ED6
  8
3
 10
134.09461270559731
 20
145.24896512290479
 30
0.0
 11
133.9142297711702
 21
145.24295235842391
 31
0.0
  0
LINE
  5
ED7
  8
3
 10
133.9984084739026
 20
145.09864601088219
 30
0.0
 11
134.0525233542308
 21
145.09864601088219
 31
0.0
  0
LINE
  5
ED8
  8
3
 10
133.721821307781
 20
145.09263324640119
 30
0.0
 11
133.77593618810931
 21
145.09263324640119
 31
0.0
  0
LINE
  5
ED9
  8
3
 10
133.66770642745291
 20
145.08060771743939
 30
0.0
 11
133.721821307781
 21
145.09263324640119
 31
0.0
  0
LINE
  5
EDA
  8
3
 10
133.27687673619411
 20
143.4270974851905
 30
0.0
 11
133.2708639717132
 21
143.3128549600533
 31
0.0
  0
LINE
  5
EDB
  8
3
 10
133.33099161652211
 20
143.58944212617499
 30
0.0
 11
133.31295332307951
 21
143.5714038327323
 31
0.0
  0
LINE
  5
EDC
  8
3
 10
133.29491502963671
 20
143.53532724584679
 30
0.0
 11
133.27687673619411
 21
143.4270974851905
 31
0.0
  0
LINE
  5
EDD
  8
3
 10
133.31295332307951
 20
143.5714038327323
 30
0.0
 11
133.29491502963671
 21
143.53532724584679
 31
0.0
  0
LINE
  5
EDE
  8
3
 10
133.601566018163
 20
143.85400376333479
 30
0.0
 11
133.58352772472031
 21
143.85400376333479
 31
0.0
  0
LINE
  5
EDF
  8
3
 10
133.54143837335391
 20
143.8359654698921
 30
0.0
 11
133.51738731543031
 21
143.81792717644939
 31
0.0
  0
LINE
  5
EE0
  8
3
 10
133.5594766667966
 20
143.8479909988539
 30
0.0
 11
133.54143837335391
 21
143.8359654698921
 31
0.0
  0
LINE
  5
EE1
  8
3
 10
133.58352772472031
 20
143.85400376333479
 30
0.0
 11
133.5594766667966
 21
143.8479909988539
 31
0.0
  0
LINE
  5
EE2
  8
3
 10
133.45124690614031
 20
143.7457740026785
 30
0.0
 11
133.4271958482168
 21
143.7217229447549
 31
0.0
  0
LINE
  5
EE3
  8
3
 10
133.475297964064
 20
143.77583782508299
 30
0.0
 11
133.45124690614031
 21
143.7457740026785
 31
0.0
  0
LINE
  5
EE4
  8
3
 10
133.49333625750671
 20
143.7938761185257
 30
0.0
 11
133.475297964064
 21
143.77583782508299
 31
0.0
  0
LINE
  5
EE5
  8
3
 10
133.51738731543031
 20
143.81792717644939
 30
0.0
 11
133.49333625750671
 21
143.7938761185257
 31
0.0
  0
LINE
  5
EE6
  8
3
 10
133.343017145484
 20
143.61349318409859
 30
0.0
 11
133.33099161652211
 21
143.58944212617499
 31
0.0
  0
LINE
  5
EE7
  8
3
 10
133.3610554389268
 20
143.6435570065031
 30
0.0
 11
133.343017145484
 21
143.61349318409859
 31
0.0
  0
LINE
  5
EE8
  8
3
 10
133.38510649685051
 20
143.6676080644267
 30
0.0
 11
133.3610554389268
 21
143.6435570065031
 31
0.0
  0
LINE
  5
EE9
  8
3
 10
133.403144790293
 20
143.6976718868313
 30
0.0
 11
133.38510649685051
 21
143.6676080644267
 31
0.0
  0
LINE
  5
EEA
  8
3
 10
133.4271958482168
 20
143.7217229447549
 30
0.0
 11
133.403144790293
 21
143.6976718868313
 31
0.0
  0
LINE
  5
EEB
  8
3
 10
133.24080014930871
 20
142.76569339229101
 30
0.0
 11
133.24080014930871
 21
142.6574636316347
 31
0.0
  0
LINE
  5
EEC
  8
3
 10
133.24681291378951
 20
142.9821529136035
 30
0.0
 11
133.24681291378951
 21
142.87392315294721
 31
0.0
  0
LINE
  5
EED
  8
3
 10
133.24681291378951
 20
142.87392315294721
 30
0.0
 11
133.24080014930871
 21
142.76569339229101
 31
0.0
  0
LINE
  5
EEE
  8
3
 10
133.2528256782706
 20
143.09038267425981
 30
0.0
 11
133.24681291378951
 21
142.9821529136035
 31
0.0
  0
LINE
  5
EEF
  8
3
 10
133.2588384427514
 20
143.20462519939699
 30
0.0
 11
133.2528256782706
 21
143.09038267425981
 31
0.0
  0
LINE
  5
EF0
  8
3
 10
133.2708639717132
 20
143.3128549600533
 30
0.0
 11
133.2588384427514
 21
143.20462519939699
 31
0.0
  0
LINE
  5
EF1
  8
3
 10
133.01231509903431
 20
142.30872329174221
 30
0.0
 11
133.2588384427514
 21
142.31473605622301
 31
0.0
  0
ARC
  5
EF2
  8
3
 10
133.12718168441231
 20
142.28685999551399
 30
0.0
 40
0.1345755430122404
 50
11.954837379829851
 51
84.968359139190653
  0
LINE
  5
EF3
  8
3
 10
133.13858315313311
 20
140.52894500539429
 30
0.0
 11
133.21674909138511
 21
140.54698329883701
 31
0.0
  0
LINE
  5
EF4
  8
3
 10
133.20472356242311
 20
140.75743005566861
 30
0.0
 11
133.13257038865231
 21
140.77546834911129
 31
0.0
  0
LINE
  5
EF5
  8
3
 10
132.59142158537071
 20
141.09414486659929
 30
0.0
 11
132.5553449984854
 21
141.13623421796569
 31
0.0
  0
LINE
  5
EF6
  8
3
 10
132.78383004875991
 20
142.4470168748029
 30
0.0
 11
132.72971516843171
 21
142.4530296392839
 31
0.0
  0
LINE
  5
EF7
  8
3
 10
132.71768963946991
 20
142.3027105272613
 30
0.0
 11
132.77180451979811
 21
142.3027105272613
 31
0.0
  0
LINE
  5
EF8
  8
3
 10
132.28477059684471
 20
142.1463786507577
 30
0.0
 11
132.28477059684471
 21
142.1944807666049
 31
0.0
  0
LINE
  5
EF9
  8
3
 10
132.28477059684471
 20
142.1944807666049
 30
0.0
 11
132.28477059684471
 21
142.2846722338185
 31
0.0
  0
LINE
  5
EFA
  8
3
 10
132.47116629575271
 20
142.51315728409301
 30
0.0
 11
132.38097482853919
 21
142.5612593999401
 31
0.0
  0
LINE
  5
EFB
  8
3
 10
132.38097482853919
 20
142.5612593999401
 30
0.0
 11
132.35091100613451
 21
142.6394253381919
 31
0.0
  0
LINE
  5
EFC
  8
3
 10
132.28477059684471
 20
142.2846722338185
 30
0.0
 11
132.34489824165379
 21
142.29068499829941
 31
0.0
  0
LINE
  5
EFD
  8
3
 10
132.51926841160011
 20
142.49511899065021
 30
0.0
 11
132.47116629575271
 21
142.51315728409301
 31
0.0
  0
LINE
  5
EFE
  8
3
 10
132.57338329192811
 20
142.4770806972075
 30
0.0
 11
132.51926841160011
 21
142.49511899065021
 31
0.0
  0
LINE
  5
EFF
  8
3
 10
132.62148540777531
 20
142.4650551682457
 30
0.0
 11
132.57338329192811
 21
142.4770806972075
 31
0.0
  0
LINE
  5
F00
  8
3
 10
132.6756002881036
 20
142.4590424037647
 30
0.0
 11
132.62148540777531
 21
142.4650551682457
 31
0.0
  0
LINE
  5
F01
  8
3
 10
132.72971516843171
 20
142.4530296392839
 30
0.0
 11
132.6756002881036
 21
142.4590424037647
 31
0.0
  0
LINE
  5
F02
  8
3
 10
132.66958752362251
 20
142.3027105272613
 30
0.0
 11
132.71768963946991
 21
142.3027105272613
 31
0.0
  0
LINE
  5
F03
  8
3
 10
132.62749817225631
 20
142.3027105272613
 30
0.0
 11
132.66958752362251
 21
142.3027105272613
 31
0.0
  0
LINE
  5
F04
  8
3
 10
132.59142158537071
 20
142.3027105272613
 30
0.0
 11
132.62749817225631
 21
142.3027105272613
 31
0.0
  0
LINE
  5
F05
  8
3
 10
132.5553449984854
 20
142.3027105272613
 30
0.0
 11
132.59142158537071
 21
142.3027105272613
 31
0.0
  0
LINE
  5
F06
  8
3
 10
132.51926841160011
 20
142.3027105272613
 30
0.0
 11
132.5553449984854
 21
142.3027105272613
 31
0.0
  0
LINE
  5
F07
  8
3
 10
132.48319182471459
 20
142.3027105272613
 30
0.0
 11
132.51926841160011
 21
142.3027105272613
 31
0.0
  0
LINE
  5
F08
  8
3
 10
132.44711523782911
 20
142.3027105272613
 30
0.0
 11
132.48319182471459
 21
142.3027105272613
 31
0.0
  0
LINE
  5
F09
  8
3
 10
132.3990131219818
 20
142.2966977627803
 30
0.0
 11
132.44711523782911
 21
142.3027105272613
 31
0.0
  0
LINE
  5
F0A
  8
3
 10
132.34489824165379
 20
142.29068499829941
 30
0.0
 11
132.3990131219818
 21
142.2966977627803
 31
0.0
  0
LINE
  5
F0B
  8
3
 10
132.42306417990551
 20
141.32864268135461
 30
0.0
 11
132.39300035750099
 21
141.37674479720181
 31
0.0
  0
LINE
  5
F0C
  8
3
 10
132.28477059684471
 20
141.8216893687889
 30
0.0
 11
132.28477059684471
 21
141.8697914846361
 31
0.0
  0
LINE
  5
F0D
  8
3
 10
132.39300035750099
 20
141.37674479720181
 30
0.0
 11
132.36894929957731
 21
141.43085967753001
 31
0.0
  0
LINE
  5
F0E
  8
3
 10
132.33287271269191
 20
141.53908943818629
 30
0.0
 11
132.31483441924919
 21
141.5871915540335
 31
0.0
  0
LINE
  5
F0F
  8
3
 10
132.31483441924919
 20
141.5871915540335
 30
0.0
 11
132.30882165476831
 21
141.63529366988081
 31
0.0
  0
LINE
  5
F10
  8
3
 10
132.29679612580651
 20
141.68339578572801
 30
0.0
 11
132.29078336132571
 21
141.73149790157521
 31
0.0
  0
LINE
  5
F11
  8
3
 10
132.30882165476831
 20
141.63529366988081
 30
0.0
 11
132.29679612580651
 21
141.68339578572801
 31
0.0
  0
LINE
  5
F12
  8
3
 10
132.29078336132571
 20
141.7796000174225
 30
0.0
 11
132.28477059684471
 21
141.8216893687889
 31
0.0
  0
LINE
  5
F13
  8
3
 10
132.29078336132571
 20
141.73149790157521
 30
0.0
 11
132.29078336132571
 21
141.7796000174225
 31
0.0
  0
LINE
  5
F14
  8
3
 10
132.36894929957731
 20
141.43085967753001
 30
0.0
 11
132.33287271269191
 21
141.53908943818629
 31
0.0
  0
LINE
  5
F15
  8
3
 10
132.51325564711919
 20
141.17832356933201
 30
0.0
 11
132.48319182471459
 21
141.22642568517921
 31
0.0
  0
LINE
  5
F16
  8
3
 10
132.5553449984854
 20
141.13623421796569
 30
0.0
 11
132.51325564711919
 21
141.17832356933201
 31
0.0
  0
LINE
  5
F17
  8
3
 10
132.44711523782911
 20
141.27452780102641
 30
0.0
 11
132.42306417990551
 21
141.32864268135461
 31
0.0
  0
LINE
  5
F18
  8
3
 10
132.48319182471459
 20
141.22642568517921
 30
0.0
 11
132.44711523782911
 21
141.27452780102641
 31
0.0
  0
LINE
  5
F19
  8
3
 10
133.13898474884689
 20
142.4209169403064
 30
0.0
 11
133.0664299793624
 21
142.42897858136021
 31
0.0
  0
LINE
  5
F1A
  8
3
 10
132.84395769356891
 20
142.4410041103221
 30
0.0
 11
132.78383004875991
 21
142.4470168748029
 31
0.0
  0
LINE
  5
F1B
  8
3
 10
132.898072573897
 20
142.4410041103221
 30
0.0
 11
132.84395769356891
 21
142.4410041103221
 31
0.0
  0
LINE
  5
F1C
  8
3
 10
132.95218745422511
 20
142.43499134584121
 30
0.0
 11
132.898072573897
 21
142.4410041103221
 31
0.0
  0
LINE
  5
F1D
  8
3
 10
133.01231509903431
 20
142.43499134584121
 30
0.0
 11
132.95218745422511
 21
142.43499134584121
 31
0.0
  0
LINE
  5
F1E
  8
3
 10
132.91611086733971
 20
142.3027105272613
 30
0.0
 11
133.01231509903431
 21
142.30872329174221
 31
0.0
  0
LINE
  5
F1F
  8
3
 10
132.837944929088
 20
142.3027105272613
 30
0.0
 11
132.91611086733971
 21
142.3027105272613
 31
0.0
  0
LINE
  5
F20
  8
3
 10
132.77180451979811
 20
142.3027105272613
 30
0.0
 11
132.837944929088
 21
142.3027105272613
 31
0.0
  0
LINE
  5
F21
  8
3
 10
133.0664299793624
 20
142.42897858136021
 30
0.0
 11
133.01231509903431
 21
142.43499134584121
 31
0.0
  0
LINE
  5
F22
  8
3
 10
132.71768963946991
 20
140.32451101304349
 30
0.0
 11
132.78383004875991
 21
140.36660036440981
 31
0.0
  0
LINE
  5
F23
  8
3
 10
132.77180451979811
 20
140.93781299009569
 30
0.0
 11
132.72370240395091
 21
140.97388957698121
 31
0.0
  0
LINE
  5
F24
  8
3
 10
132.72370240395091
 20
140.97388957698121
 30
0.0
 11
132.6756002881036
 21
141.00996616386661
 31
0.0
  0
LINE
  5
F25
  8
3
 10
132.6335109367372
 20
141.05205551523301
 30
0.0
 11
132.59142158537071
 21
141.09414486659929
 31
0.0
  0
LINE
  5
F26
  8
3
 10
132.6756002881036
 20
141.00996616386661
 30
0.0
 11
132.6335109367372
 21
141.05205551523301
 31
0.0
  0
LINE
  5
F27
  8
3
 10
132.28477059684471
 20
139.63905586222029
 30
0.0
 11
132.30280889028739
 21
139.7051962715102
 31
0.0
  0
LINE
  5
F28
  8
3
 10
132.35091100613451
 20
139.8735536769756
 30
0.0
 11
132.35692377061559
 21
139.8795664414564
 31
0.0
  0
LINE
  5
F29
  8
3
 10
132.37496206405831
 20
139.91564302834189
 30
0.0
 11
132.37496206405831
 21
139.9216557928228
 31
0.0
  0
LINE
  5
F2A
  8
3
 10
132.37496206405831
 20
139.9216557928228
 30
0.0
 11
132.38097482853919
 21
139.9336813217846
 31
0.0
  0
LINE
  5
F2B
  8
3
 10
132.37496206405831
 20
139.909630263861
 30
0.0
 11
132.37496206405831
 21
139.91564302834189
 31
0.0
  0
LINE
  5
F2C
  8
3
 10
132.36894929957731
 20
139.909630263861
 30
0.0
 11
132.37496206405831
 21
139.909630263861
 31
0.0
  0
LINE
  5
F2D
  8
3
 10
132.36894929957731
 20
139.90361749938009
 30
0.0
 11
132.36894929957731
 21
139.909630263861
 31
0.0
  0
LINE
  5
F2E
  8
3
 10
132.36894929957731
 20
139.8976047348992
 30
0.0
 11
132.36894929957731
 21
139.90361749938009
 31
0.0
  0
LINE
  5
F2F
  8
3
 10
132.36293653509651
 20
139.89159197041829
 30
0.0
 11
132.36894929957731
 21
139.8976047348992
 31
0.0
  0
LINE
  5
F30
  8
3
 10
132.36293653509651
 20
139.88557920593729
 30
0.0
 11
132.36293653509651
 21
139.89159197041829
 31
0.0
  0
LINE
  5
F31
  8
3
 10
132.35692377061559
 20
139.8795664414564
 30
0.0
 11
132.36293653509651
 21
139.88557920593729
 31
0.0
  0
LINE
  5
F32
  8
3
 10
132.35091100613451
 20
139.86754091249469
 30
0.0
 11
132.35091100613451
 21
139.8735536769756
 31
0.0
  0
LINE
  5
F33
  8
3
 10
132.34489824165379
 20
139.86152814801369
 30
0.0
 11
132.35091100613451
 21
139.86754091249469
 31
0.0
  0
LINE
  5
F34
  8
3
 10
132.34489824165379
 20
139.8555153835328
 30
0.0
 11
132.34489824165379
 21
139.86152814801369
 31
0.0
  0
LINE
  5
F35
  8
3
 10
132.33888547717279
 20
139.84950261905189
 30
0.0
 11
132.34489824165379
 21
139.8555153835328
 31
0.0
  0
LINE
  5
F36
  8
3
 10
132.33888547717279
 20
139.83747709009009
 30
0.0
 11
132.33888547717279
 21
139.84950261905189
 31
0.0
  0
LINE
  5
F37
  8
3
 10
132.30280889028739
 20
139.7051962715102
 30
0.0
 11
132.33888547717279
 21
139.83747709009009
 31
0.0
  0
LINE
  5
F38
  8
3
 10
132.41705141542451
 20
139.9998217310746
 30
0.0
 11
132.45914076679099
 21
140.06596214036449
 31
0.0
  0
LINE
  5
F39
  8
3
 10
132.45914076679099
 20
140.06596214036449
 30
0.0
 11
132.50123011815731
 21
140.12608978517349
 31
0.0
  0
LINE
  5
F3A
  8
3
 10
132.38097482853919
 20
139.9336813217846
 30
0.0
 11
132.41705141542451
 21
139.9998217310746
 31
0.0
  0
LINE
  5
F3B
  8
3
 10
132.60344711433271
 20
140.23431954582981
 30
0.0
 11
132.6575619946606
 21
140.28242166167709
 31
0.0
  0
LINE
  5
F3C
  8
3
 10
132.54933223400459
 20
140.18020466550169
 30
0.0
 11
132.60344711433271
 21
140.23431954582981
 31
0.0
  0
LINE
  5
F3D
  8
3
 10
132.50123011815731
 20
140.12608978517349
 30
0.0
 11
132.54933223400459
 21
140.18020466550169
 31
0.0
  0
LINE
  5
F3E
  8
3
 10
132.6575619946606
 20
140.28242166167709
 30
0.0
 11
132.71768963946991
 21
140.32451101304349
 31
0.0
  0
LINE
  5
F3F
  8
3
 10
132.78383004875991
 20
140.36660036440981
 30
0.0
 11
132.84395769356891
 21
140.40868971577609
 31
0.0
  0
LINE
  5
F40
  8
3
 10
133.06041721488151
 20
140.50489394747061
 30
0.0
 11
133.13858315313311
 21
140.52894500539429
 31
0.0
  0
LINE
  5
F41
  8
3
 10
133.13257038865231
 20
140.77546834911129
 30
0.0
 11
133.06041721488151
 21
140.79350664255401
 31
0.0
  0
LINE
  5
F42
  8
3
 10
132.91611086733971
 20
140.44476630266149
 30
0.0
 11
132.98826404111071
 21
140.47483012506609
 31
0.0
  0
LINE
  5
F43
  8
3
 10
132.84395769356891
 20
140.40868971577609
 30
0.0
 11
132.91611086733971
 21
140.44476630266149
 31
0.0
  0
LINE
  5
F44
  8
3
 10
132.81990663564531
 20
140.90774916769121
 30
0.0
 11
132.77180451979811
 21
140.93781299009569
 31
0.0
  0
LINE
  5
F45
  8
3
 10
132.87402151597351
 20
140.87768534528669
 30
0.0
 11
132.81990663564531
 21
140.90774916769121
 31
0.0
  0
LINE
  5
F46
  8
3
 10
132.92813639630151
 20
140.84762152288221
 30
0.0
 11
132.87402151597351
 21
140.87768534528669
 31
0.0
  0
LINE
  5
F47
  8
3
 10
132.98826404111071
 20
140.47483012506609
 30
0.0
 11
133.06041721488151
 21
140.50489394747061
 31
0.0
  0
LINE
  5
F48
  8
3
 10
133.06041721488151
 20
140.79350664255401
 30
0.0
 11
132.92813639630151
 21
140.84762152288221
 31
0.0
  0
LINE
  5
F49
  8
3
 10
133.57150219575851
 20
141.7796000174225
 30
0.0
 11
133.66770642745291
 21
141.88782977807881
 31
0.0
  0
LINE
  5
F4A
  8
3
 10
133.655680898491
 20
142.47106793272661
 30
0.0
 11
133.6496681340102
 21
142.47106793272661
 31
0.0
  0
LINE
  5
F4B
  8
3
 10
133.28890226515591
 20
142.0020723032159
 30
0.0
 11
133.31896608756051
 21
141.7796000174225
 31
0.0
  0
LINE
  5
F4C
  8
3
 10
133.2648512072322
 20
142.2245445890095
 30
0.0
 11
133.27687673619411
 21
142.11631482835321
 31
0.0
  0
LINE
  5
F4D
  8
3
 10
133.27687673619411
 20
142.11631482835321
 30
0.0
 11
133.28890226515591
 21
142.0020723032159
 31
0.0
  0
LINE
  5
F4E
  8
3
 10
133.24681291378951
 20
142.5492338709783
 30
0.0
 11
133.24681291378951
 21
142.4410041103221
 31
0.0
  0
LINE
  5
F4F
  8
3
 10
133.24681291378951
 20
142.4410041103221
 30
0.0
 11
133.2588384427514
 21
142.33277434966581
 31
0.0
  0
LINE
  5
F50
  8
3
 10
133.2588384427514
 20
142.31473605622301
 30
0.0
 11
133.2588384427514
 21
142.33277434966581
 31
0.0
  0
LINE
  5
F51
  8
3
 10
133.2588384427514
 20
142.33277434966581
 30
0.0
 11
133.2648512072322
 21
142.2245445890095
 31
0.0
  0
LINE
  5
F52
  8
3
 10
133.6135915471246
 20
142.4770806972075
 30
0.0
 11
133.60757878264391
 21
142.4770806972075
 31
0.0
  0
LINE
  5
F53
  8
3
 10
133.6196043116056
 20
142.4770806972075
 30
0.0
 11
133.6135915471246
 21
142.4770806972075
 31
0.0
  0
LINE
  5
F54
  8
3
 10
133.62561707608651
 20
142.4770806972075
 30
0.0
 11
133.6196043116056
 21
142.4770806972075
 31
0.0
  0
LINE
  5
F55
  8
3
 10
133.63162984056751
 20
142.4770806972075
 30
0.0
 11
133.62561707608651
 21
142.4770806972075
 31
0.0
  0
LINE
  5
F56
  8
3
 10
133.63162984056751
 20
142.47106793272661
 30
0.0
 11
133.63162984056751
 21
142.4770806972075
 31
0.0
  0
LINE
  5
F57
  8
3
 10
133.6376426050484
 20
142.47106793272661
 30
0.0
 11
133.63162984056751
 21
142.47106793272661
 31
0.0
  0
LINE
  5
F58
  8
3
 10
133.6436553695292
 20
142.47106793272661
 30
0.0
 11
133.6376426050484
 21
142.47106793272661
 31
0.0
  0
LINE
  5
F59
  8
3
 10
133.6496681340102
 20
142.47106793272661
 30
0.0
 11
133.6436553695292
 21
142.47106793272661
 31
0.0
  0
LINE
  5
F5A
  8
3
 10
133.31896608756051
 20
141.77358725294161
 30
0.0
 11
133.33099161652211
 21
141.77358725294161
 31
0.0
  0
LINE
  5
F5B
  8
3
 10
133.31896608756051
 20
141.7796000174225
 30
0.0
 11
133.31896608756051
 21
141.77358725294161
 31
0.0
  0
LINE
  5
F5C
  8
3
 10
133.53542560887311
 20
141.77358725294161
 30
0.0
 11
133.57150219575851
 21
141.7796000174225
 31
0.0
  0
LINE
  5
F5D
  8
3
 10
133.51738731543031
 20
141.7675744884607
 30
0.0
 11
133.53542560887311
 21
141.77358725294161
 31
0.0
  0
LINE
  5
F5E
  8
3
 10
133.45124690614031
 20
141.76156172397981
 30
0.0
 11
133.475297964064
 21
141.76156172397981
 31
0.0
  0
LINE
  5
F5F
  8
3
 10
133.4332086126976
 20
141.76156172397981
 30
0.0
 11
133.45124690614031
 21
141.76156172397981
 31
0.0
  0
LINE
  5
F60
  8
3
 10
133.475297964064
 20
141.76156172397981
 30
0.0
 11
133.49934902198751
 21
141.7675744884607
 31
0.0
  0
LINE
  5
F61
  8
3
 10
133.49934902198751
 20
141.7675744884607
 30
0.0
 11
133.51738731543031
 21
141.7675744884607
 31
0.0
  0
LINE
  5
F62
  8
3
 10
133.3911192613314
 20
141.76156172397981
 30
0.0
 11
133.40915755477411
 21
141.76156172397981
 31
0.0
  0
LINE
  5
F63
  8
3
 10
133.37308096788851
 20
141.76156172397981
 30
0.0
 11
133.3911192613314
 21
141.76156172397981
 31
0.0
  0
LINE
  5
F64
  8
3
 10
133.343017145484
 20
141.7675744884607
 30
0.0
 11
133.35504267444591
 21
141.7675744884607
 31
0.0
  0
LINE
  5
F65
  8
3
 10
133.33099161652211
 20
141.77358725294161
 30
0.0
 11
133.343017145484
 21
141.7675744884607
 31
0.0
  0
LINE
  5
F66
  8
3
 10
133.35504267444591
 20
141.7675744884607
 30
0.0
 11
133.37308096788851
 21
141.76156172397981
 31
0.0
  0
LINE
  5
F67
  8
3
 10
133.40915755477411
 20
141.76156172397981
 30
0.0
 11
133.4332086126976
 21
141.76156172397981
 31
0.0
  0
LINE
  5
F68
  8
3
 10
133.854102126361
 20
142.4770806972075
 30
0.0
 11
133.81802553947551
 21
142.4770806972075
 31
0.0
  0
LINE
  5
F69
  8
3
 10
133.81802553947551
 20
141.99004677425421
 30
0.0
 11
133.8781531842846
 21
142.0201105966587
 31
0.0
  0
LINE
  5
F6A
  8
3
 10
133.81802553947551
 20
142.4770806972075
 30
0.0
 11
133.78194895259011
 21
142.47106793272661
 31
0.0
  0
LINE
  5
F6B
  8
3
 10
133.7639106591474
 20
141.95998295184961
 30
0.0
 11
133.81802553947551
 21
141.99004677425421
 31
0.0
  0
LINE
  5
F6C
  8
3
 10
133.9262553001318
 20
142.4770806972075
 30
0.0
 11
133.89017871324651
 21
142.4770806972075
 31
0.0
  0
LINE
  5
F6D
  8
3
 10
133.8781531842846
 20
142.0201105966587
 30
0.0
 11
133.93226806461271
 21
142.0441616545823
 31
0.0
  0
LINE
  5
F6E
  8
3
 10
133.89017871324651
 20
142.4770806972075
 30
0.0
 11
133.854102126361
 21
142.4770806972075
 31
0.0
  0
LINE
  5
F6F
  8
3
 10
134.0825871766354
 20
142.48309346168841
 30
0.0
 11
134.04049782526889
 21
142.4770806972075
 31
0.0
  0
LINE
  5
F70
  8
3
 10
133.9623318870174
 20
142.4770806972075
 30
0.0
 11
133.9262553001318
 21
142.4770806972075
 31
0.0
  0
LINE
  5
F71
  8
3
 10
133.9984084739026
 20
142.4770806972075
 30
0.0
 11
133.9623318870174
 21
142.4770806972075
 31
0.0
  0
LINE
  5
F72
  8
3
 10
133.93226806461271
 20
142.0441616545823
 30
0.0
 11
133.9984084739026
 21
142.0682127125059
 31
0.0
  0
LINE
  5
F73
  8
3
 10
134.04049782526889
 20
142.4770806972075
 30
0.0
 11
133.9984084739026
 21
142.4770806972075
 31
0.0
  0
LINE
  5
F74
  8
3
 10
133.9984084739026
 20
142.0682127125059
 30
0.0
 11
134.0585361187118
 21
142.08625100594861
 31
0.0
  0
LINE
  5
F75
  8
3
 10
133.71580854330011
 20
141.92390636496421
 30
0.0
 11
133.7639106591474
 21
141.95998295184961
 31
0.0
  0
LINE
  5
F76
  8
3
 10
133.78194895259011
 20
142.47106793272661
 30
0.0
 11
133.74587236570471
 21
142.47106793272661
 31
0.0
  0
LINE
  5
F77
  8
3
 10
133.66169366297211
 20
142.47106793272661
 30
0.0
 11
133.655680898491
 21
142.47106793272661
 31
0.0
  0
LINE
  5
F78
  8
3
 10
133.66770642745291
 20
142.47106793272661
 30
0.0
 11
133.66169366297211
 21
142.47106793272661
 31
0.0
  0
LINE
  5
F79
  8
3
 10
133.673719191934
 20
142.4650551682457
 30
0.0
 11
133.66770642745291
 21
142.47106793272661
 31
0.0
  0
LINE
  5
F7A
  8
3
 10
133.74587236570471
 20
142.47106793272661
 30
0.0
 11
133.673719191934
 21
142.4650551682457
 31
0.0
  0
LINE
  5
F7B
  8
3
 10
133.66770642745291
 20
141.88782977807881
 30
0.0
 11
133.71580854330011
 21
141.92390636496421
 31
0.0
  0
LINE
  5
F7C
  8
3
 10
133.655680898491
 20
140.75743005566861
 30
0.0
 11
133.5775149602394
 21
140.74540452670681
 31
0.0
  0
LINE
  5
F7D
  8
3
 10
133.62561707608651
 20
140.56502159227969
 30
0.0
 11
133.6857447208956
 21
140.55299606331789
 31
0.0
  0
LINE
  5
F7E
  8
3
 10
133.35504267444591
 20
140.73939176222589
 30
0.0
 11
133.27687673619411
 21
140.75141729118769
 31
0.0
  0
LINE
  5
F7F
  8
3
 10
133.21674909138511
 20
140.54698329883701
 30
0.0
 11
133.38510649685051
 21
140.57704712124149
 31
0.0
  0
LINE
  5
F80
  8
3
 10
133.27687673619411
 20
140.75141729118769
 30
0.0
 11
133.20472356242311
 21
140.75743005566861
 31
0.0
  0
LINE
  5
F81
  8
3
 10
133.50536178646851
 20
140.57704712124149
 30
0.0
 11
133.56548943127751
 21
140.57103435676061
 31
0.0
  0
LINE
  5
F82
  8
3
 10
133.5775149602394
 20
140.74540452670681
 30
0.0
 11
133.50536178646851
 21
140.73939176222589
 31
0.0
  0
LINE
  5
F83
  8
3
 10
133.56548943127751
 20
140.57103435676061
 30
0.0
 11
133.62561707608651
 21
140.56502159227969
 31
0.0
  0
LINE
  5
F84
  8
3
 10
133.4452341416594
 20
140.57704712124149
 30
0.0
 11
133.50536178646851
 21
140.57704712124149
 31
0.0
  0
LINE
  5
F85
  8
3
 10
133.50536178646851
 20
140.73939176222589
 30
0.0
 11
133.4271958482168
 21
140.73939176222589
 31
0.0
  0
LINE
  5
F86
  8
3
 10
133.38510649685051
 20
140.57704712124149
 30
0.0
 11
133.4452341416594
 21
140.57704712124149
 31
0.0
  0
LINE
  5
F87
  8
3
 10
133.4271958482168
 20
140.73939176222589
 30
0.0
 11
133.35504267444591
 21
140.73939176222589
 31
0.0
  0
LINE
  5
F88
  8
3
 10
133.74587236570471
 20
140.54097053435601
 30
0.0
 11
133.80600001051371
 21
140.52894500539429
 31
0.0
  0
LINE
  5
F89
  8
3
 10
133.79998724603271
 20
140.78749387807321
 30
0.0
 11
133.727834072262
 21
140.76945558463049
 31
0.0
  0
LINE
  5
F8A
  8
3
 10
133.80600001051371
 20
140.52894500539429
 30
0.0
 11
133.86612765532291
 21
140.51090671195161
 31
0.0
  0
LINE
  5
F8B
  8
3
 10
133.87214041980371
 20
140.80553217151589
 30
0.0
 11
133.79998724603271
 21
140.78749387807321
 31
0.0
  0
LINE
  5
F8C
  8
3
 10
133.86612765532291
 20
140.51090671195161
 30
0.0
 11
133.92024253565091
 21
140.49286841850881
 31
0.0
  0
LINE
  5
F8D
  8
3
 10
133.9442935935746
 20
140.83559599392029
 30
0.0
 11
133.87214041980371
 21
140.80553217151589
 31
0.0
  0
LINE
  5
F8E
  8
3
 10
134.02847229630731
 20
140.45077906714249
 30
0.0
 11
134.0825871766354
 21
140.42071524473789
 31
0.0
  0
LINE
  5
F8F
  8
3
 10
134.08859994111631
 20
140.89572363872941
 30
0.0
 11
134.01644676734529
 21
140.86565981632489
 31
0.0
  0
LINE
  5
F90
  8
3
 10
133.92024253565091
 20
140.49286841850881
 30
0.0
 11
133.974357415979
 21
140.46881736058521
 31
0.0
  0
LINE
  5
F91
  8
3
 10
133.974357415979
 20
140.46881736058521
 30
0.0
 11
134.02847229630731
 21
140.45077906714249
 31
0.0
  0
LINE
  5
F92
  8
3
 10
134.01644676734529
 20
140.86565981632489
 30
0.0
 11
133.9442935935746
 21
140.83559599392029
 31
0.0
  0
LINE
  5
F93
  8
3
 10
133.6857447208956
 20
140.55299606331789
 30
0.0
 11
133.74587236570471
 21
140.54097053435601
 31
0.0
  0
LINE
  5
F94
  8
3
 10
133.727834072262
 20
140.76945558463049
 30
0.0
 11
133.655680898491
 21
140.75743005566861
 31
0.0
  0
LINE
  5
F95
  8
3
 10
134.5876593930314
 20
142.56727216442101
 30
0.0
 11
134.5876593930314
 21
142.66347639611561
 31
0.0
  0
LINE
  5
F96
  8
3
 10
134.3351232848334
 20
143.8119144119685
 30
0.0
 11
134.3351232848334
 21
142.4891062261693
 31
0.0
  0
LINE
  5
F97
  8
3
 10
135.23703795696929
 20
145.26099065186659
 30
0.0
 11
134.99051461325189
 21
145.25497788738571
 31
0.0
  0
LINE
  5
F98
  8
3
 10
134.97848908429029
 20
144.7619311999515
 30
0.0
 11
135.0446294935802
 21
144.70180355514239
 31
0.0
  0
LINE
  5
F99
  8
3
 10
134.74399126953489
 20
145.25497788738571
 30
0.0
 11
134.5155062192606
 21
145.24896512290479
 31
0.0
  0
LINE
  5
F9A
  8
3
 10
134.54557004166509
 20
145.00244177918771
 30
0.0
 11
134.5696210995886
 21
144.99041625022591
 31
0.0
  0
LINE
  5
F9B
  8
3
 10
134.5275317482224
 20
145.01446730814951
 30
0.0
 11
134.54557004166509
 21
145.00244177918771
 31
0.0
  0
LINE
  5
F9C
  8
3
 10
134.41930198756609
 20
145.04453113055399
 30
0.0
 11
134.5275317482224
 21
145.01446730814951
 31
0.0
  0
LINE
  5
F9D
  8
3
 10
134.5155062192606
 20
145.24896512290479
 30
0.0
 11
134.29303393346709
 21
145.24896512290479
 31
0.0
  0
LINE
  5
F9E
  8
3
 10
134.37119987171889
 20
145.05655665951579
 30
0.0
 11
134.41930198756609
 21
145.04453113055399
 31
0.0
  0
LINE
  5
F9F
  8
3
 10
134.31708499139069
 20
145.06858218847771
 30
0.0
 11
134.37119987171889
 21
145.05655665951579
 31
0.0
  0
LINE
  5
FA0
  8
3
 10
134.2629701110626
 20
145.07459495295851
 30
0.0
 11
134.31708499139069
 21
145.06858218847771
 31
0.0
  0
LINE
  5
FA1
  8
3
 10
134.20885523073429
 20
145.08662048192031
 30
0.0
 11
134.2629701110626
 21
145.07459495295851
 31
0.0
  0
LINE
  5
FA2
  8
3
 10
134.1547403504062
 20
145.09263324640119
 30
0.0
 11
134.20885523073429
 21
145.08662048192031
 31
0.0
  0
LINE
  5
FA3
  8
3
 10
134.7139274471304
 20
144.91826307645499
 30
0.0
 11
134.737978505054
 21
144.90623754749319
 31
0.0
  0
LINE
  5
FA4
  8
3
 10
134.5696210995886
 20
144.99041625022591
 30
0.0
 11
134.59367215751229
 21
144.97839072126411
 31
0.0
  0
LINE
  5
FA5
  8
3
 10
134.6898763892068
 20
144.93028860541679
 30
0.0
 11
134.7139274471304
 21
144.91826307645499
 31
0.0
  0
LINE
  5
FA6
  8
3
 10
134.6658253312832
 20
144.94231413437859
 30
0.0
 11
134.6898763892068
 21
144.93028860541679
 31
0.0
  0
LINE
  5
FA7
  8
3
 10
134.6417742733596
 20
144.95433966334051
 30
0.0
 11
134.6658253312832
 21
144.94231413437859
 31
0.0
  0
LINE
  5
FA8
  8
3
 10
134.99051461325189
 20
145.25497788738571
 30
0.0
 11
134.74399126953489
 21
145.25497788738571
 31
0.0
  0
LINE
  5
FA9
  8
3
 10
134.59367215751229
 20
144.97839072126411
 30
0.0
 11
134.61772321543589
 21
144.96636519230219
 31
0.0
  0
LINE
  5
FAA
  8
3
 10
134.61772321543589
 20
144.96636519230219
 30
0.0
 11
134.6417742733596
 21
144.95433966334051
 31
0.0
  0
LINE
  5
FAB
  8
3
 10
134.78608062090129
 20
144.88218648956959
 30
0.0
 11
134.810131678825
 21
144.87016096060779
 31
0.0
  0
LINE
  5
FAC
  8
3
 10
134.7620295629778
 20
144.89421201853139
 30
0.0
 11
134.78608062090129
 21
144.88218648956959
 31
0.0
  0
LINE
  5
FAD
  8
3
 10
134.737978505054
 20
144.90623754749319
 30
0.0
 11
134.7620295629778
 21
144.89421201853139
 31
0.0
  0
LINE
  5
FAE
  8
3
 10
134.83418273674849
 20
144.85813543164599
 30
0.0
 11
134.85823379467209
 21
144.84610990268419
 31
0.0
  0
LINE
  5
FAF
  8
3
 10
134.810131678825
 20
144.87016096060779
 30
0.0
 11
134.83418273674849
 21
144.85813543164599
 31
0.0
  0
LINE
  5
FB0
  8
3
 10
134.90633591051929
 20
144.81604608027959
 30
0.0
 11
134.97848908429029
 21
144.7619311999515
 31
0.0
  0
LINE
  5
FB1
  8
3
 10
134.85823379467209
 20
144.84610990268419
 30
0.0
 11
134.90633591051929
 21
144.81604608027959
 31
0.0
  0
LINE
  5
FB2
  8
3
 10
134.5696210995886
 20
143.45114854311419
 30
0.0
 11
134.54557004166509
 21
143.53532724584679
 31
0.0
  0
LINE
  5
FB3
  8
3
 10
134.3351232848334
 20
143.8239399409303
 30
0.0
 11
134.3351232848334
 21
143.8119144119685
 31
0.0
  0
LINE
  5
FB4
  8
3
 10
134.3351232848334
 20
143.82995270541119
 30
0.0
 11
134.3351232848334
 21
143.8239399409303
 31
0.0
  0
LINE
  5
FB5
  8
3
 10
134.34113604931429
 20
143.82995270541119
 30
0.0
 11
134.3351232848334
 21
143.82995270541119
 31
0.0
  0
LINE
  5
FB6
  8
3
 10
134.34113604931429
 20
143.8359654698921
 30
0.0
 11
134.34113604931429
 21
143.82995270541119
 31
0.0
  0
LINE
  5
FB7
  8
3
 10
134.3471488137952
 20
143.8359654698921
 30
0.0
 11
134.34113604931429
 21
143.8359654698921
 31
0.0
  0
LINE
  5
FB8
  8
3
 10
134.3471488137952
 20
143.84197823437299
 30
0.0
 11
134.3471488137952
 21
143.8359654698921
 31
0.0
  0
LINE
  5
FB9
  8
3
 10
134.353161578276
 20
143.84197823437299
 30
0.0
 11
134.3471488137952
 21
143.84197823437299
 31
0.0
  0
LINE
  5
FBA
  8
3
 10
134.35917434275709
 20
143.84197823437299
 30
0.0
 11
134.353161578276
 21
143.84197823437299
 31
0.0
  0
LINE
  5
FBB
  8
3
 10
134.36518710723789
 20
143.84197823437299
 30
0.0
 11
134.35917434275709
 21
143.84197823437299
 31
0.0
  0
LINE
  5
FBC
  8
3
 10
134.37119987171889
 20
143.84197823437299
 30
0.0
 11
134.36518710723789
 21
143.84197823437299
 31
0.0
  0
LINE
  5
FBD
  8
3
 10
134.4794296323752
 20
143.7036846513121
 30
0.0
 11
134.37119987171889
 21
143.84197823437299
 31
0.0
  0
LINE
  5
FBE
  8
3
 10
134.5155062192606
 20
143.61950594857939
 30
0.0
 11
134.4794296323752
 21
143.7036846513121
 31
0.0
  0
LINE
  5
FBF
  8
3
 10
134.54557004166509
 20
143.53532724584679
 30
0.0
 11
134.5155062192606
 21
143.61950594857939
 31
0.0
  0
LINE
  5
FC0
  8
3
 10
134.58164662855049
 20
143.3609570759005
 30
0.0
 11
134.5696210995886
 21
143.45114854311419
 31
0.0
  0
LINE
  5
FC1
  8
3
 10
134.5876593930314
 20
142.76569339229101
 30
0.0
 11
134.59367215751229
 21
142.8679103884663
 31
0.0
  0
LINE
  5
FC2
  8
3
 10
134.59367215751229
 20
143.2647528442061
 30
0.0
 11
134.58164662855049
 21
143.3609570759005
 31
0.0
  0
LINE
  5
FC3
  8
3
 10
134.5876593930314
 20
142.66347639611561
 30
0.0
 11
134.5876593930314
 21
142.76569339229101
 31
0.0
  0
LINE
  5
FC4
  8
3
 10
134.59367215751229
 20
142.8679103884663
 30
0.0
 11
134.59367215751229
 21
142.9701273846417
 31
0.0
  0
LINE
  5
FC5
  8
3
 10
134.59367215751229
 20
142.9701273846417
 30
0.0
 11
134.59367215751229
 21
143.0723443808171
 31
0.0
  0
LINE
  5
FC6
  8
3
 10
134.59367215751229
 20
143.0723443808171
 30
0.0
 11
134.59367215751229
 21
143.16854861251159
 31
0.0
  0
LINE
  5
FC7
  8
3
 10
134.59367215751229
 20
143.16854861251159
 30
0.0
 11
134.59367215751229
 21
143.2647528442061
 31
0.0
  0
LINE
  5
FC8
  8
3
 10
135.40539536243449
 20
144.2267951611509
 30
0.0
 11
135.4414719493198
 21
144.1486292228991
 31
0.0
  0
LINE
  5
FC9
  8
3
 10
135.48957406516709
 20
145.26099065186659
 30
0.0
 11
135.23703795696929
 21
145.26099065186659
 31
0.0
  0
LINE
  5
FCA
  8
3
 10
135.27311454385449
 20
144.4432546824635
 30
0.0
 11
135.32121665970189
 21
144.37110150869259
 31
0.0
  0
LINE
  5
FCB
  8
3
 10
135.2189996635264
 20
144.50939509175339
 30
0.0
 11
135.27311454385449
 21
144.4432546824635
 31
0.0
  0
LINE
  5
FCC
  8
3
 10
135.1648847831984
 20
144.5755355010433
 30
0.0
 11
135.2189996635264
 21
144.50939509175339
 31
0.0
  0
LINE
  5
FCD
  8
3
 10
135.1047571383892
 20
144.64167591033339
 30
0.0
 11
135.1648847831984
 21
144.5755355010433
 31
0.0
  0
LINE
  5
FCE
  8
3
 10
135.0446294935802
 20
144.70180355514239
 30
0.0
 11
135.1047571383892
 21
144.64167591033339
 31
0.0
  0
LINE
  5
FCF
  8
3
 10
135.3633060110682
 20
144.29894833492179
 30
0.0
 11
135.40539536243449
 21
144.2267951611509
 31
0.0
  0
LINE
  5
FD0
  8
3
 10
135.32121665970189
 20
144.37110150869259
 30
0.0
 11
135.3633060110682
 21
144.29894833492179
 31
0.0
  0
LINE
  5
FD1
  8
3
 10
135.73609740888429
 20
145.26700341634739
 30
0.0
 11
135.48957406516709
 21
145.26099065186659
 31
0.0
  0
LINE
  5
FD2
  8
3
 10
135.47153577172449
 20
144.0704632846473
 30
0.0
 11
135.501599594129
 21
143.98628458191459
 31
0.0
  0
LINE
  5
FD3
  8
3
 10
135.4414719493198
 20
144.1486292228991
 30
0.0
 11
135.47153577172449
 21
144.0704632846473
 31
0.0
  0
LINE
  5
FD4
  8
3
 10
135.58577829686169
 20
143.60146765513679
 30
0.0
 11
135.58577829686169
 21
143.59545489065579
 31
0.0
  0
LINE
  5
FD5
  8
3
 10
135.59179106134249
 20
143.63754424202219
 30
0.0
 11
135.58577829686169
 21
143.6315314775413
 31
0.0
  0
LINE
  5
FD6
  8
3
 10
135.5497017099764
 20
143.81792717644939
 30
0.0
 11
135.59179106134249
 21
143.63754424202219
 31
0.0
  0
LINE
  5
FD7
  8
3
 10
135.58577829686169
 20
143.61349318409859
 30
0.0
 11
135.58577829686169
 21
143.60146765513679
 31
0.0
  0
LINE
  5
FD8
  8
3
 10
135.58577829686169
 20
143.61950594857939
 30
0.0
 11
135.58577829686169
 21
143.61349318409859
 31
0.0
  0
LINE
  5
FD9
  8
3
 10
135.58577829686169
 20
143.62551871306039
 30
0.0
 11
135.58577829686169
 21
143.61950594857939
 31
0.0
  0
LINE
  5
FDA
  8
3
 10
135.58577829686169
 20
143.6315314775413
 30
0.0
 11
135.58577829686169
 21
143.62551871306039
 31
0.0
  0
LINE
  5
FDB
  8
3
 10
135.52565065205269
 20
143.90210587918199
 30
0.0
 11
135.5497017099764
 21
143.81792717644939
 31
0.0
  0
LINE
  5
FDC
  8
3
 10
135.501599594129
 20
143.98628458191459
 30
0.0
 11
135.52565065205269
 21
143.90210587918199
 31
0.0
  0
LINE
  5
FDD
  8
3
 10
135.58577829686169
 20
143.5894421261749
 30
0.0
 11
135.59179106134249
 21
143.5834293616941
 31
0.0
  0
LINE
  5
FDE
  8
3
 10
135.58577829686169
 20
143.59545489065579
 30
0.0
 11
135.58577829686169
 21
143.5894421261749
 31
0.0
  0
LINE
  5
FDF
  8
3
 10
135.59179106134249
 20
143.5714038327323
 30
0.0
 11
135.59780382582341
 21
143.5714038327323
 31
0.0
  0
LINE
  5
FE0
  8
3
 10
135.59179106134249
 20
143.57741659721319
 30
0.0
 11
135.59179106134249
 21
143.5714038327323
 31
0.0
  0
LINE
  5
FE1
  8
3
 10
135.59179106134249
 20
143.5834293616941
 30
0.0
 11
135.59179106134249
 21
143.57741659721319
 31
0.0
  0
LINE
  5
FE2
  8
3
 10
135.59780382582341
 20
143.5714038327323
 30
0.0
 11
135.59780382582341
 21
143.5653910682513
 31
0.0
  0
LINE
  5
FE3
  8
3
 10
135.60381659030449
 20
143.5413400103277
 30
0.0
 11
135.60381659030449
 21
143.5413400103277
 31
0.0
  0
LINE
  5
FE4
  8
3
 10
135.59780382582341
 20
143.5533655392895
 30
0.0
 11
135.60381659030449
 21
143.5413400103277
 31
0.0
  0
LINE
  5
FE5
  8
3
 10
135.59780382582341
 20
143.55937830377039
 30
0.0
 11
135.59780382582341
 21
143.5533655392895
 31
0.0
  0
LINE
  5
FE6
  8
3
 10
135.59780382582341
 20
143.5653910682513
 30
0.0
 11
135.59780382582341
 21
143.55937830377039
 31
0.0
  0
LINE
  5
FE7
  8
3
 10
135.0446294935802
 20
142.3748637010321
 30
0.0
 11
134.97848908429029
 21
142.3748637010321
 31
0.0
  0
LINE
  5
FE8
  8
3
 10
134.99051461325189
 20
142.0080850676969
 30
0.0
 11
135.03861672909929
 21
141.9720084808115
 31
0.0
  0
LINE
  5
FE9
  8
3
 10
135.59179106134249
 20
140.49888118298969
 30
0.0
 11
134.54557004166509
 21
140.49888118298969
 31
0.0
  0
LINE
  5
FEA
  8
3
 10
134.99652737773289
 20
140.36058759992881
 30
0.0
 11
135.0446294935802
 21
140.34856207096709
 31
0.0
  0
LINE
  5
FEB
  8
3
 10
134.5155062192606
 20
142.14036588627681
 30
0.0
 11
134.6477870378404
 21
142.11631482835321
 31
0.0
  0
LINE
  5
FEC
  8
3
 10
134.172778643849
 20
142.48309346168841
 30
0.0
 11
134.1246765280018
 21
142.48309346168841
 31
0.0
  0
LINE
  5
FED
  8
3
 10
134.2208807596962
 20
142.4891062261693
 30
0.0
 11
134.172778643849
 21
142.48309346168841
 31
0.0
  0
LINE
  5
FEE
  8
3
 10
134.27499564002429
 20
142.4891062261693
 30
0.0
 11
134.2208807596962
 21
142.4891062261693
 31
0.0
  0
LINE
  5
FEF
  8
3
 10
134.3351232848334
 20
142.4891062261693
 30
0.0
 11
134.27499564002429
 21
142.4891062261693
 31
0.0
  0
LINE
  5
FF0
  8
3
 10
134.4493658099706
 20
142.14036588627681
 30
0.0
 11
134.5155062192606
 21
142.14036588627681
 31
0.0
  0
LINE
  5
FF1
  8
3
 10
134.38322540068069
 20
142.14036588627681
 30
0.0
 11
134.4493658099706
 21
142.14036588627681
 31
0.0
  0
LINE
  5
FF2
  8
3
 10
134.31708499139069
 20
142.13435312179581
 30
0.0
 11
134.38322540068069
 21
142.14036588627681
 31
0.0
  0
LINE
  5
FF3
  8
3
 10
134.25094458210069
 20
142.12834035731501
 30
0.0
 11
134.31708499139069
 21
142.13435312179581
 31
0.0
  0
LINE
  5
FF4
  8
3
 10
134.1848041728108
 20
142.11631482835321
 30
0.0
 11
134.25094458210069
 21
142.12834035731501
 31
0.0
  0
LINE
  5
FF5
  8
3
 10
134.11866376352069
 20
142.10428929939141
 30
0.0
 11
134.1848041728108
 21
142.11631482835321
 31
0.0
  0
LINE
  5
FF6
  8
3
 10
134.59367215751229
 20
142.4650551682457
 30
0.0
 11
134.5876593930314
 21
142.56727216442101
 31
0.0
  0
LINE
  5
FF7
  8
3
 10
134.97848908429029
 20
142.0201105966587
 30
0.0
 11
134.97848908429029
 21
142.01409783217781
 31
0.0
  0
LINE
  5
FF8
  8
3
 10
134.97247631980929
 20
142.0201105966587
 30
0.0
 11
134.97848908429029
 21
142.0201105966587
 31
0.0
  0
LINE
  5
FF9
  8
3
 10
134.9664635553284
 20
142.02612336113961
 30
0.0
 11
134.97247631980929
 21
142.0201105966587
 31
0.0
  0
LINE
  5
FFA
  8
3
 10
134.9604507908476
 20
142.02612336113961
 30
0.0
 11
134.9664635553284
 21
142.02612336113961
 31
0.0
  0
LINE
  5
FFB
  8
3
 10
134.95443802636669
 20
142.02612336113961
 30
0.0
 11
134.9604507908476
 21
142.02612336113961
 31
0.0
  0
LINE
  5
FFC
  8
3
 10
134.9484252618856
 20
142.02612336113961
 30
0.0
 11
134.95443802636669
 21
142.02612336113961
 31
0.0
  0
LINE
  5
FFD
  8
3
 10
134.9424124974048
 20
142.02612336113961
 30
0.0
 11
134.9484252618856
 21
142.02612336113961
 31
0.0
  0
LINE
  5
FFE
  8
3
 10
134.9363997329238
 20
142.0321361256205
 30
0.0
 11
134.9424124974048
 21
142.02612336113961
 31
0.0
  0
LINE
  5
FFF
  8
3
 10
134.930386968443
 20
142.0321361256205
 30
0.0
 11
134.9363997329238
 21
142.0321361256205
 31
0.0
  0
LINE
  5
1000
  8
3
 10
134.92437420396209
 20
142.0321361256205
 30
0.0
 11
134.930386968443
 21
142.0321361256205
 31
0.0
  0
LINE
  5
1001
  8
3
 10
134.9183614394812
 20
142.0321361256205
 30
0.0
 11
134.92437420396209
 21
142.0321361256205
 31
0.0
  0
LINE
  5
1002
  8
3
 10
134.9123486750002
 20
142.0321361256205
 30
0.0
 11
134.9183614394812
 21
142.0321361256205
 31
0.0
  0
LINE
  5
1003
  8
3
 10
134.90633591051929
 20
142.0321361256205
 30
0.0
 11
134.9123486750002
 21
142.0321361256205
 31
0.0
  0
LINE
  5
1004
  8
3
 10
134.876272088115
 20
142.05017441906321
 30
0.0
 11
134.90633591051929
 21
142.0321361256205
 31
0.0
  0
LINE
  5
1005
  8
3
 10
134.8522210301912
 20
142.06219994802501
 30
0.0
 11
134.8642465591532
 21
142.05618718354421
 31
0.0
  0
LINE
  5
1006
  8
3
 10
134.8642465591532
 20
142.05618718354421
 30
0.0
 11
134.876272088115
 21
142.05017441906321
 31
0.0
  0
LINE
  5
1007
  8
3
 10
134.8522210301912
 20
142.38087646551301
 30
0.0
 11
134.79209338538209
 21
142.3748637010321
 31
0.0
  0
LINE
  5
1008
  8
3
 10
134.78608062090129
 20
142.0802382414677
 30
0.0
 11
134.80411891434389
 21
142.07422547698681
 31
0.0
  0
LINE
  5
1009
  8
3
 10
134.79209338538209
 20
142.3748637010321
 30
0.0
 11
134.7259529760922
 21
142.3748637010321
 31
0.0
  0
LINE
  5
100A
  8
3
 10
134.7680423274586
 20
142.0802382414677
 30
0.0
 11
134.78608062090129
 21
142.0802382414677
 31
0.0
  0
LINE
  5
100B
  8
3
 10
134.7560167984968
 20
142.08625100594861
 30
0.0
 11
134.7680423274586
 21
142.0802382414677
 31
0.0
  0
LINE
  5
100C
  8
3
 10
134.737978505054
 20
142.0922637704295
 30
0.0
 11
134.7560167984968
 21
142.08625100594861
 31
0.0
  0
LINE
  5
100D
  8
3
 10
134.7199402116114
 20
142.0922637704295
 30
0.0
 11
134.737978505054
 21
142.0922637704295
 31
0.0
  0
LINE
  5
100E
  8
3
 10
134.7019019181684
 20
142.0982765349105
 30
0.0
 11
134.7199402116114
 21
142.0922637704295
 31
0.0
  0
LINE
  5
100F
  8
3
 10
134.6838636247258
 20
142.10428929939141
 30
0.0
 11
134.7019019181684
 21
142.0982765349105
 31
0.0
  0
LINE
  5
1010
  8
3
 10
134.6658253312832
 20
142.1103020638723
 30
0.0
 11
134.6838636247258
 21
142.10428929939141
 31
0.0
  0
LINE
  5
1011
  8
3
 10
134.6477870378404
 20
142.11631482835321
 30
0.0
 11
134.6658253312832
 21
142.1103020638723
 31
0.0
  0
LINE
  5
1012
  8
3
 10
134.83418273674849
 20
142.0682127125059
 30
0.0
 11
134.8522210301912
 21
142.06219994802501
 31
0.0
  0
LINE
  5
1013
  8
3
 10
134.8221572077866
 20
142.07422547698681
 30
0.0
 11
134.83418273674849
 21
142.0682127125059
 31
0.0
  0
LINE
  5
1014
  8
3
 10
134.80411891434389
 20
142.07422547698681
 30
0.0
 11
134.8221572077866
 21
142.07422547698681
 31
0.0
  0
LINE
  5
1015
  8
3
 10
134.97848908429029
 20
142.3748637010321
 30
0.0
 11
134.9183614394812
 21
142.3748637010321
 31
0.0
  0
LINE
  5
1016
  8
3
 10
134.9183614394812
 20
142.3748637010321
 30
0.0
 11
134.8522210301912
 21
142.38087646551301
 31
0.0
  0
LINE
  5
1017
  8
3
 10
134.97848908429029
 20
142.01409783217781
 30
0.0
 11
134.99051461325189
 21
142.0080850676969
 31
0.0
  0
LINE
  5
1018
  8
3
 10
134.60569768647409
 20
142.3628381720703
 30
0.0
 11
134.59367215751229
 21
142.4650551682457
 31
0.0
  0
LINE
  5
1019
  8
3
 10
134.7259529760922
 20
142.3748637010321
 30
0.0
 11
134.60569768647409
 21
142.3628381720703
 31
0.0
  0
LINE
  5
101A
  8
3
 10
134.54557004166509
 20
140.48084288954701
 30
0.0
 11
134.5876593930314
 21
140.45679183162341
 31
0.0
  0
LINE
  5
101B
  8
3
 10
134.1306892924826
 20
140.39666418681429
 30
0.0
 11
134.1787914083298
 21
140.36660036440981
 31
0.0
  0
LINE
  5
101C
  8
3
 10
134.50348069029869
 20
140.22229401686809
 30
0.0
 11
134.5335445127032
 21
140.43875353818061
 31
0.0
  0
LINE
  5
101D
  8
3
 10
134.52151898374149
 20
140.55299606331789
 30
0.0
 11
134.52151898374149
 21
140.60109817916509
 31
0.0
  0
LINE
  5
101E
  8
3
 10
134.52151898374149
 20
140.64318753053141
 30
0.0
 11
134.52151898374149
 21
140.68527688189781
 31
0.0
  0
LINE
  5
101F
  8
3
 10
134.52151898374149
 20
140.60109817916509
 30
0.0
 11
134.52151898374149
 21
140.64318753053141
 31
0.0
  0
LINE
  5
1020
  8
3
 10
134.5275317482224
 20
140.49888118298969
 30
0.0
 11
134.52151898374149
 21
140.55299606331789
 31
0.0
  0
LINE
  5
1021
  8
3
 10
134.5335445127032
 20
140.43875353818061
 30
0.0
 11
134.5275317482224
 21
140.49888118298969
 31
0.0
  0
LINE
  5
1022
  8
3
 10
134.53955727718409
 20
140.49286841850881
 30
0.0
 11
134.54557004166509
 21
140.48084288954701
 31
0.0
  0
LINE
  5
1023
  8
3
 10
134.53955727718409
 20
140.49888118298969
 30
0.0
 11
134.53955727718409
 21
140.49286841850881
 31
0.0
  0
LINE
  5
1024
  8
3
 10
134.54557004166509
 20
140.49888118298969
 30
0.0
 11
134.53955727718409
 21
140.49888118298969
 31
0.0
  0
LINE
  5
1025
  8
3
 10
134.1306892924826
 20
140.93781299009569
 30
0.0
 11
134.11866376352069
 21
140.92578746113401
 31
0.0
  0
LINE
  5
1026
  8
3
 10
134.14872758592529
 20
140.94382575457669
 30
0.0
 11
134.1306892924826
 21
140.93781299009569
 31
0.0
  0
LINE
  5
1027
  8
3
 10
134.16676587936811
 20
140.95585128353849
 30
0.0
 11
134.14872758592529
 21
140.94382575457669
 31
0.0
  0
LINE
  5
1028
  8
3
 10
134.1787914083298
 20
140.96787681250029
 30
0.0
 11
134.16676587936811
 21
140.95585128353849
 31
0.0
  0
LINE
  5
1029
  8
3
 10
134.1968297017726
 20
140.97990234146209
 30
0.0
 11
134.1787914083298
 21
140.96787681250029
 31
0.0
  0
LINE
  5
102A
  8
3
 10
134.2148679952154
 20
140.99192787042401
 30
0.0
 11
134.1968297017726
 21
140.97990234146209
 31
0.0
  0
LINE
  5
102B
  8
3
 10
134.226893524177
 20
141.00395339938581
 30
0.0
 11
134.2148679952154
 21
140.99192787042401
 31
0.0
  0
LINE
  5
102C
  8
3
 10
134.2449318176198
 20
141.01597892834761
 30
0.0
 11
134.226893524177
 21
141.00395339938581
 31
0.0
  0
LINE
  5
102D
  8
3
 10
134.2569573465816
 20
141.02800445730929
 30
0.0
 11
134.2449318176198
 21
141.01597892834761
 31
0.0
  0
LINE
  5
102E
  8
3
 10
134.5275317482224
 20
140.94382575457669
 30
0.0
 11
134.52151898374149
 21
140.97388957698121
 31
0.0
  0
LINE
  5
102F
  8
3
 10
134.5275317482224
 20
140.91376193217221
 30
0.0
 11
134.5275317482224
 21
140.94382575457669
 31
0.0
  0
LINE
  5
1030
  8
3
 10
134.5275317482224
 20
140.88369810976761
 30
0.0
 11
134.5275317482224
 21
140.91376193217221
 31
0.0
  0
LINE
  5
1031
  8
3
 10
134.5275317482224
 20
140.85363428736309
 30
0.0
 11
134.5275317482224
 21
140.88369810976761
 31
0.0
  0
LINE
  5
1032
  8
3
 10
134.5275317482224
 20
140.82357046495861
 30
0.0
 11
134.5275317482224
 21
140.85363428736309
 31
0.0
  0
LINE
  5
1033
  8
3
 10
134.5275317482224
 20
140.78749387807321
 30
0.0
 11
134.5275317482224
 21
140.82357046495861
 31
0.0
  0
LINE
  5
1034
  8
3
 10
134.5275317482224
 20
140.75743005566861
 30
0.0
 11
134.5275317482224
 21
140.78749387807321
 31
0.0
  0
LINE
  5
1035
  8
3
 10
134.52151898374149
 20
140.72135346878321
 30
0.0
 11
134.5275317482224
 21
140.75743005566861
 31
0.0
  0
LINE
  5
1036
  8
3
 10
134.52151898374149
 20
140.68527688189781
 30
0.0
 11
134.52151898374149
 21
140.72135346878321
 31
0.0
  0
LINE
  5
1037
  8
3
 10
134.28702116898609
 20
141.04604275075201
 30
0.0
 11
134.27499564002429
 21
141.04002998627121
 31
0.0
  0
LINE
  5
1038
  8
3
 10
134.29904669794789
 20
141.05806827971389
 30
0.0
 11
134.28702116898609
 21
141.04604275075201
 31
0.0
  0
LINE
  5
1039
  8
3
 10
134.3110722269098
 20
141.07009380867569
 30
0.0
 11
134.29904669794789
 21
141.05806827971389
 31
0.0
  0
LINE
  5
103A
  8
3
 10
134.32911052035249
 20
141.08211933763749
 30
0.0
 11
134.3110722269098
 21
141.07009380867569
 31
0.0
  0
LINE
  5
103B
  8
3
 10
134.353161578276
 20
141.09414486659929
 30
0.0
 11
134.32911052035249
 21
141.08211933763749
 31
0.0
  0
LINE
  5
103C
  8
3
 10
134.36518710723789
 20
141.09414486659929
 30
0.0
 11
134.353161578276
 21
141.09414486659929
 31
0.0
  0
LINE
  5
103D
  8
3
 10
134.37721263619969
 20
141.10015763108021
 30
0.0
 11
134.36518710723789
 21
141.09414486659929
 31
0.0
  0
LINE
  5
103E
  8
3
 10
134.3952509296424
 20
141.10015763108021
 30
0.0
 11
134.37721263619969
 21
141.10015763108021
 31
0.0
  0
LINE
  5
103F
  8
3
 10
134.4072764586042
 20
141.10015763108021
 30
0.0
 11
134.3952509296424
 21
141.10015763108021
 31
0.0
  0
LINE
  5
1040
  8
3
 10
134.41930198756609
 20
141.09414486659929
 30
0.0
 11
134.4072764586042
 21
141.10015763108021
 31
0.0
  0
LINE
  5
1041
  8
3
 10
134.4313275165278
 20
141.09414486659929
 30
0.0
 11
134.41930198756609
 21
141.09414486659929
 31
0.0
  0
LINE
  5
1042
  8
3
 10
134.44335304548969
 20
141.08813210211841
 30
0.0
 11
134.4313275165278
 21
141.09414486659929
 31
0.0
  0
LINE
  5
1043
  8
3
 10
134.45537857445149
 20
141.08813210211841
 30
0.0
 11
134.44335304548969
 21
141.08813210211841
 31
0.0
  0
LINE
  5
1044
  8
3
 10
134.4674041034134
 20
141.08211933763749
 30
0.0
 11
134.45537857445149
 21
141.08813210211841
 31
0.0
  0
LINE
  5
1045
  8
3
 10
134.4794296323752
 20
141.07610657315661
 30
0.0
 11
134.4674041034134
 21
141.08211933763749
 31
0.0
  0
LINE
  5
1046
  8
3
 10
134.49145516133689
 20
141.07009380867569
 30
0.0
 11
134.4794296323752
 21
141.07610657315661
 31
0.0
  0
LINE
  5
1047
  8
3
 10
134.49746792581789
 20
141.05806827971389
 30
0.0
 11
134.49145516133689
 21
141.07009380867569
 31
0.0
  0
LINE
  5
1048
  8
3
 10
134.50348069029869
 20
141.05205551523301
 30
0.0
 11
134.49746792581789
 21
141.05806827971389
 31
0.0
  0
LINE
  5
1049
  8
3
 10
134.5155062192606
 20
141.04002998627121
 30
0.0
 11
134.50348069029869
 21
141.05205551523301
 31
0.0
  0
LINE
  5
104A
  8
3
 10
134.27499564002429
 20
141.04002998627121
 30
0.0
 11
134.2569573465816
 21
141.02800445730929
 31
0.0
  0
LINE
  5
104B
  8
3
 10
134.52151898374149
 20
140.97388957698121
 30
0.0
 11
134.5155062192606
 21
141.04002998627121
 31
0.0
  0
LINE
  5
104C
  8
3
 10
134.52151898374149
 20
139.65108139118209
 30
0.0
 11
134.5155062192606
 21
139.7653239163192
 31
0.0
  0
LINE
  5
104D
  8
3
 10
134.5155062192606
 20
139.7653239163192
 30
0.0
 11
134.5094934547796
 21
139.8795664414564
 31
0.0
  0
LINE
  5
104E
  8
3
 10
134.50348069029869
 20
139.99380896659369
 30
0.0
 11
134.50348069029869
 21
140.10805149173089
 31
0.0
  0
LINE
  5
104F
  8
3
 10
134.5094934547796
 20
139.8795664414564
 30
0.0
 11
134.50348069029869
 21
139.99380896659369
 31
0.0
  0
LINE
  5
1050
  8
3
 10
134.28100840450529
 20
140.25837060375349
 30
0.0
 11
134.28702116898609
 21
140.25235783927261
 31
0.0
  0
LINE
  5
1051
  8
3
 10
134.28100840450529
 20
140.26438336823441
 30
0.0
 11
134.28100840450529
 21
140.25837060375349
 31
0.0
  0
LINE
  5
1052
  8
3
 10
134.28100840450529
 20
140.27039613271529
 30
0.0
 11
134.28100840450529
 21
140.26438336823441
 31
0.0
  0
LINE
  5
1053
  8
3
 10
134.27499564002429
 20
140.27640889719609
 30
0.0
 11
134.28100840450529
 21
140.27039613271529
 31
0.0
  0
LINE
  5
1054
  8
3
 10
134.27499564002429
 20
140.28242166167709
 30
0.0
 11
134.27499564002429
 21
140.27640889719609
 31
0.0
  0
LINE
  5
1055
  8
3
 10
134.27499564002429
 20
140.28843442615801
 30
0.0
 11
134.27499564002429
 21
140.28242166167709
 31
0.0
  0
LINE
  5
1056
  8
3
 10
134.26898287554349
 20
140.28843442615801
 30
0.0
 11
134.27499564002429
 21
140.28843442615801
 31
0.0
  0
LINE
  5
1057
  8
3
 10
134.50348069029869
 20
140.10805149173089
 30
0.0
 11
134.50348069029869
 21
140.22229401686809
 31
0.0
  0
LINE
  5
1058
  8
3
 10
134.1787914083298
 20
140.36660036440981
 30
0.0
 11
134.26898287554349
 21
140.29444719063889
 31
0.0
  0
LINE
  5
1059
  8
3
 10
134.26898287554349
 20
140.29444719063889
 30
0.0
 11
134.26898287554349
 21
140.28843442615801
 31
0.0
  0
LINE
  5
105A
  8
3
 10
134.8882976170766
 20
140.37261312889069
 30
0.0
 11
134.9424124974048
 21
140.36660036440981
 31
0.0
  0
LINE
  5
105B
  8
3
 10
134.5876593930314
 20
140.45679183162341
 30
0.0
 11
134.6357615088786
 21
140.43274077369981
 31
0.0
  0
LINE
  5
105C
  8
3
 10
134.78608062090129
 20
140.39065142233341
 30
0.0
 11
134.8401955012294
 21
140.37862589337161
 31
0.0
  0
LINE
  5
105D
  8
3
 10
134.737978505054
 20
140.40267695129529
 30
0.0
 11
134.78608062090129
 21
140.39065142233341
 31
0.0
  0
LINE
  5
105E
  8
3
 10
134.6838636247258
 20
140.41470248025701
 30
0.0
 11
134.737978505054
 21
140.40267695129529
 31
0.0
  0
LINE
  5
105F
  8
3
 10
134.6357615088786
 20
140.43274077369981
 30
0.0
 11
134.6838636247258
 21
140.41470248025701
 31
0.0
  0
LINE
  5
1060
  8
3
 10
134.8401955012294
 20
140.37862589337161
 30
0.0
 11
134.8882976170766
 21
140.37261312889069
 31
0.0
  0
LINE
  5
1061
  8
3
 10
134.9424124974048
 20
140.36660036440981
 30
0.0
 11
134.99652737773289
 21
140.36058759992881
 31
0.0
  0
LINE
  5
1062
  8
3
 10
135.59179106134249
 20
141.15427251140829
 30
0.0
 11
135.59179106134249
 21
141.11819592452289
 31
0.0
  0
LINE
  5
1063
  8
3
 10
135.53767618101449
 20
142.38087646551301
 30
0.0
 11
135.4775485362054
 21
142.3748637010321
 31
0.0
  0
LINE
  5
1064
  8
3
 10
135.4775485362054
 20
141.4849745578581
 30
0.0
 11
135.50761235860969
 21
141.42484691304909
 31
0.0
  0
LINE
  5
1065
  8
3
 10
135.1408337252746
 20
141.8938425425597
 30
0.0
 11
135.1949486056028
 21
141.85175319119341
 31
0.0
  0
LINE
  5
1066
  8
3
 10
135.03861672909929
 20
141.9720084808115
 30
0.0
 11
135.09273160942729
 21
141.93593189392601
 31
0.0
  0
LINE
  5
1067
  8
3
 10
135.1047571383892
 20
142.3748637010321
 30
0.0
 11
135.0446294935802
 21
142.3748637010321
 31
0.0
  0
LINE
  5
1068
  8
3
 10
135.1648847831984
 20
142.36885093655121
 30
0.0
 11
135.1047571383892
 21
142.3748637010321
 31
0.0
  0
LINE
  5
1069
  8
3
 10
135.2310251924882
 20
142.36885093655121
 30
0.0
 11
135.1648847831984
 21
142.36885093655121
 31
0.0
  0
LINE
  5
106A
  8
3
 10
135.29115283729729
 20
142.36885093655121
 30
0.0
 11
135.2310251924882
 21
142.36885093655121
 31
0.0
  0
LINE
  5
106B
  8
3
 10
135.35128048210629
 20
142.36885093655121
 30
0.0
 11
135.29115283729729
 21
142.36885093655121
 31
0.0
  0
LINE
  5
106C
  8
3
 10
135.41742089139629
 20
142.3748637010321
 30
0.0
 11
135.35128048210629
 21
142.36885093655121
 31
0.0
  0
LINE
  5
106D
  8
3
 10
135.4775485362054
 20
142.3748637010321
 30
0.0
 11
135.41742089139629
 21
142.3748637010321
 31
0.0
  0
LINE
  5
106E
  8
3
 10
135.09273160942729
 20
141.93593189392601
 30
0.0
 11
135.1408337252746
 21
141.8938425425597
 31
0.0
  0
LINE
  5
106F
  8
3
 10
135.44748471380089
 20
141.54510220266721
 30
0.0
 11
135.4775485362054
 21
141.4849745578581
 31
0.0
  0
LINE
  5
1070
  8
3
 10
135.4114081269154
 20
141.5992170829953
 30
0.0
 11
135.44748471380089
 21
141.54510220266721
 31
0.0
  0
LINE
  5
1071
  8
3
 10
135.36931877554909
 20
141.6533319633235
 30
0.0
 11
135.4114081269154
 21
141.5992170829953
 31
0.0
  0
LINE
  5
1072
  8
3
 10
135.32722942418269
 20
141.70744684365161
 30
0.0
 11
135.36931877554909
 21
141.6533319633235
 31
0.0
  0
LINE
  5
1073
  8
3
 10
135.2851400728164
 20
141.7555489594989
 30
0.0
 11
135.32722942418269
 21
141.70744684365161
 31
0.0
  0
LINE
  5
1074
  8
3
 10
135.1949486056028
 20
141.85175319119341
 30
0.0
 11
135.24305072145009
 21
141.8036510753461
 31
0.0
  0
LINE
  5
1075
  8
3
 10
135.24305072145009
 20
141.8036510753461
 30
0.0
 11
135.2851400728164
 21
141.7555489594989
 31
0.0
  0
LINE
  5
1076
  8
3
 10
135.60381659030449
 20
142.3868892299939
 30
0.0
 11
135.53767618101449
 21
142.38087646551301
 31
0.0
  0
LINE
  5
1077
  8
3
 10
135.53767618101449
 20
141.35870650375909
 30
0.0
 11
135.5557144744572
 21
141.29256609446921
 31
0.0
  0
LINE
  5
1078
  8
3
 10
135.50761235860969
 20
141.42484691304909
 30
0.0
 11
135.53767618101449
 21
141.35870650375909
 31
0.0
  0
LINE
  5
1079
  8
3
 10
135.5557144744572
 20
141.29256609446921
 30
0.0
 11
135.59179106134249
 21
141.15427251140829
 31
0.0
  0
LINE
  5
107A
  8
3
 10
135.3452677176254
 20
140.26438336823441
 30
0.0
 11
135.5497017099764
 21
140.03589831796
 31
0.0
  0
LINE
  5
107B
  8
3
 10
135.20096137008369
 20
140.32451101304349
 30
0.0
 11
135.24906348593089
 21
140.30647271960069
 31
0.0
  0
LINE
  5
107C
  8
3
 10
135.1468464897556
 20
140.33653654200521
 30
0.0
 11
135.20096137008369
 21
140.32451101304349
 31
0.0
  0
LINE
  5
107D
  8
3
 10
135.0987443739084
 20
140.34254930648621
 30
0.0
 11
135.1468464897556
 21
140.33653654200521
 31
0.0
  0
LINE
  5
107E
  8
3
 10
135.0446294935802
 20
140.34856207096709
 30
0.0
 11
135.0987443739084
 21
140.34254930648621
 31
0.0
  0
LINE
  5
107F
  8
3
 10
135.24906348593089
 20
140.30647271960069
 30
0.0
 11
135.3452677176254
 21
140.26438336823441
 31
0.0
  0
LINE
  5
1080
  8
3
 10
135.59179106134249
 20
140.62514923708869
 30
0.0
 11
135.59179106134249
 21
140.58305988572229
 31
0.0
  0
LINE
  5
1081
  8
3
 10
135.59179106134249
 20
140.66723858845501
 30
0.0
 11
135.59179106134249
 21
140.62514923708869
 31
0.0
  0
LINE
  5
1082
  8
3
 10
135.59179106134249
 20
140.70331517534049
 30
0.0
 11
135.59179106134249
 21
140.66723858845501
 31
0.0
  0
LINE
  5
1083
  8
3
 10
135.59179106134249
 20
140.58305988572229
 30
0.0
 11
135.59179106134249
 21
140.49888118298969
 31
0.0
  0
LINE
  5
1084
  8
3
 10
135.59179106134249
 20
140.78749387807321
 30
0.0
 11
135.59179106134249
 21
140.74540452670681
 31
0.0
  0
LINE
  5
1085
  8
3
 10
135.59179106134249
 20
140.82958322943949
 30
0.0
 11
135.59179106134249
 21
140.78749387807321
 31
0.0
  0
LINE
  5
1086
  8
3
 10
135.59179106134249
 20
140.86565981632489
 30
0.0
 11
135.59179106134249
 21
140.82958322943949
 31
0.0
  0
LINE
  5
1087
  8
3
 10
135.59179106134249
 20
140.90774916769121
 30
0.0
 11
135.59179106134249
 21
140.86565981632489
 31
0.0
  0
LINE
  5
1088
  8
3
 10
135.59179106134249
 20
140.94983851905761
 30
0.0
 11
135.59179106134249
 21
140.90774916769121
 31
0.0
  0
LINE
  5
1089
  8
3
 10
135.59179106134249
 20
140.99192787042401
 30
0.0
 11
135.59179106134249
 21
140.94983851905761
 31
0.0
  0
LINE
  5
108A
  8
3
 10
135.59179106134249
 20
141.03401722179029
 30
0.0
 11
135.59179106134249
 21
140.99192787042401
 31
0.0
  0
LINE
  5
108B
  8
3
 10
135.59179106134249
 20
140.74540452670681
 30
0.0
 11
135.59179106134249
 21
140.70331517534049
 31
0.0
  0
LINE
  5
108C
  8
3
 10
135.59179106134249
 20
141.11819592452289
 30
0.0
 11
135.59179106134249
 21
141.07610657315661
 31
0.0
  0
LINE
  5
108D
  8
3
 10
135.59179106134249
 20
141.07610657315661
 30
0.0
 11
135.59179106134249
 21
141.03401722179029
 31
0.0
  0
LINE
  5
108E
  8
3
 10
135.57375276789989
 20
139.6931707425484
 30
0.0
 11
135.57375276789989
 21
139.63905586222029
 31
0.0
  0
LINE
  5
108F
  8
3
 10
135.57375276789989
 20
139.74127285839569
 30
0.0
 11
135.57375276789989
 21
139.6931707425484
 31
0.0
  0
LINE
  5
1090
  8
3
 10
135.567740003419
 20
139.78937497424289
 30
0.0
 11
135.57375276789989
 21
139.74127285839569
 31
0.0
  0
LINE
  5
1091
  8
3
 10
135.567740003419
 20
139.89159197041829
 30
0.0
 11
135.567740003419
 21
139.843489854571
 31
0.0
  0
LINE
  5
1092
  8
3
 10
135.56172723893809
 20
139.93969408626549
 30
0.0
 11
135.567740003419
 21
139.89159197041829
 31
0.0
  0
LINE
  5
1093
  8
3
 10
135.567740003419
 20
139.843489854571
 30
0.0
 11
135.567740003419
 21
139.78937497424289
 31
0.0
  0
LINE
  5
1094
  8
3
 10
135.5497017099764
 20
140.03589831796
 30
0.0
 11
135.5557144744572
 21
139.98779620211269
 31
0.0
  0
LINE
  5
1095
  8
3
 10
135.5557144744572
 20
139.98779620211269
 30
0.0
 11
135.56172723893809
 21
139.93969408626549
 31
0.0
  0
LINE
  5
1096
  8
3
 10
136.6686503713687
 20
145.27301618082839
 30
0.0
 11
136.6686503713687
 21
146.3477108004887
 31
0.0
  0
LINE
  5
1097
  8
3
 10
136.4642163790179
 20
145.27301618082839
 30
0.0
 11
136.21110580287581
 21
145.26700341634739
 31
0.0
  0
LINE
  5
1098
  8
3
 10
136.21110580287581
 20
145.26700341634739
 30
0.0
 11
135.98262075260141
 21
145.26700341634739
 31
0.0
  0
LINE
  5
1099
  8
3
 10
136.6686503713687
 20
145.27301618082839
 30
0.0
 11
136.4642163790179
 21
145.27301618082839
 31
0.0
  0
LINE
  5
109A
  8
3
 10
134.226893524177
 20
137.4624351201326
 30
0.0
 11
134.0585361187118
 21
137.438384062209
 31
0.0
  0
LINE
  5
109B
  8
3
 10
133.21674909138511
 20
137.4263585332472
 30
0.0
 11
133.04839168591971
 21
137.4203457687662
 31
0.0
  0
LINE
  5
109C
  8
3
 10
132.31483441924919
 20
138.82131989281709
 30
0.0
 11
132.29679612580651
 21
138.893473066588
 31
0.0
  0
LINE
  5
109D
  8
3
 10
132.29679612580651
 20
138.893473066588
 30
0.0
 11
132.28477059684471
 21
138.9656262403588
 31
0.0
  0
LINE
  5
109E
  8
3
 10
132.30882165476831
 20
138.4244774370774
 30
0.0
 11
132.31483441924919
 21
138.43049020155831
 31
0.0
  0
LINE
  5
109F
  8
3
 10
132.29679612580651
 20
138.41846467259651
 30
0.0
 11
132.30882165476831
 21
138.4244774370774
 31
0.0
  0
LINE
  5
10A0
  8
3
 10
132.29078336132571
 20
138.4124519081156
 30
0.0
 11
132.29679612580651
 21
138.41846467259651
 31
0.0
  0
LINE
  5
10A1
  8
3
 10
132.28477059684471
 20
138.40643914363471
 30
0.0
 11
132.29078336132571
 21
138.4124519081156
 31
0.0
  0
LINE
  5
10A2
  8
3
 10
132.31483441924919
 20
138.43049020155831
 30
0.0
 11
132.32685994821111
 21
138.4365029660392
 31
0.0
  0
LINE
  5
10A3
  8
3
 10
132.33287271269191
 20
138.74916671904629
 30
0.0
 11
132.31483441924919
 21
138.82131989281709
 31
0.0
  0
LINE
  5
10A4
  8
3
 10
132.34489824165379
 20
138.7311284256036
 30
0.0
 11
132.33287271269191
 21
138.74916671904629
 31
0.0
  0
LINE
  5
10A5
  8
3
 10
132.35091100613451
 20
138.7191028966418
 30
0.0
 11
132.34489824165379
 21
138.7311284256036
 31
0.0
  0
LINE
  5
10A6
  8
3
 10
132.35692377061559
 20
138.70707736767989
 30
0.0
 11
132.35091100613451
 21
138.7191028966418
 31
0.0
  0
LINE
  5
10A7
  8
3
 10
132.36293653509651
 20
138.69505183871809
 30
0.0
 11
132.35692377061559
 21
138.70707736767989
 31
0.0
  0
LINE
  5
10A8
  8
3
 10
132.36894929957731
 20
138.68302630975629
 30
0.0
 11
132.36293653509651
 21
138.69505183871809
 31
0.0
  0
LINE
  5
10A9
  8
3
 10
132.37496206405831
 20
138.67100078079449
 30
0.0
 11
132.36894929957731
 21
138.68302630975629
 31
0.0
  0
LINE
  5
10AA
  8
3
 10
132.38097482853919
 20
138.6529624873518
 30
0.0
 11
132.37496206405831
 21
138.67100078079449
 31
0.0
  0
LINE
  5
10AB
  8
3
 10
132.38698759302019
 20
138.64093695839
 30
0.0
 11
132.38097482853919
 21
138.6529624873518
 31
0.0
  0
LINE
  5
10AC
  8
3
 10
132.39300035750099
 20
138.6289114294282
 30
0.0
 11
132.38698759302019
 21
138.64093695839
 31
0.0
  0
LINE
  5
10AD
  8
3
 10
132.3990131219818
 20
138.6168859004664
 30
0.0
 11
132.39300035750099
 21
138.6289114294282
 31
0.0
  0
LINE
  5
10AE
  8
3
 10
132.41103865094371
 20
138.60486037150449
 30
0.0
 11
132.3990131219818
 21
138.6168859004664
 31
0.0
  0
LINE
  5
10AF
  8
3
 10
132.41705141542451
 20
138.5868220780618
 30
0.0
 11
132.41103865094371
 21
138.60486037150449
 31
0.0
  0
LINE
  5
10B0
  8
3
 10
132.42306417990551
 20
138.57479654910011
 30
0.0
 11
132.41705141542451
 21
138.5868220780618
 31
0.0
  0
LINE
  5
10B1
  8
3
 10
132.4290769443864
 20
138.5627710201382
 30
0.0
 11
132.42306417990551
 21
138.57479654910011
 31
0.0
  0
LINE
  5
10B2
  8
3
 10
132.4411024733482
 20
138.5507454911764
 30
0.0
 11
132.4290769443864
 21
138.5627710201382
 31
0.0
  0
LINE
  5
10B3
  8
3
 10
132.43508970886739
 20
138.54473272669551
 30
0.0
 11
132.4411024733482
 21
138.5507454911764
 31
0.0
  0
LINE
  5
10B4
  8
3
 10
132.43508970886739
 20
138.5387199622146
 30
0.0
 11
132.43508970886739
 21
138.54473272669551
 31
0.0
  0
LINE
  5
10B5
  8
3
 10
132.43508970886739
 20
138.53270719773371
 30
0.0
 11
132.43508970886739
 21
138.5387199622146
 31
0.0
  0
LINE
  5
10B6
  8
3
 10
132.43508970886739
 20
138.5266944332528
 30
0.0
 11
132.43508970886739
 21
138.53270719773371
 31
0.0
  0
LINE
  5
10B7
  8
3
 10
132.43508970886739
 20
138.52068166877191
 30
0.0
 11
132.43508970886739
 21
138.5266944332528
 31
0.0
  0
LINE
  5
10B8
  8
3
 10
132.43508970886739
 20
138.514668904291
 30
0.0
 11
132.43508970886739
 21
138.52068166877191
 31
0.0
  0
LINE
  5
10B9
  8
3
 10
132.43508970886739
 20
138.50865613981011
 30
0.0
 11
132.43508970886739
 21
138.514668904291
 31
0.0
  0
LINE
  5
10BA
  8
3
 10
132.43508970886739
 20
138.5026433753292
 30
0.0
 11
132.43508970886739
 21
138.50865613981011
 31
0.0
  0
LINE
  5
10BB
  8
3
 10
132.43508970886739
 20
138.49663061084831
 30
0.0
 11
132.43508970886739
 21
138.5026433753292
 31
0.0
  0
LINE
  5
10BC
  8
3
 10
132.4290769443864
 20
138.4906178463674
 30
0.0
 11
132.43508970886739
 21
138.49663061084831
 31
0.0
  0
LINE
  5
10BD
  8
3
 10
132.4290769443864
 20
138.4846050818864
 30
0.0
 11
132.4290769443864
 21
138.4906178463674
 31
0.0
  0
LINE
  5
10BE
  8
3
 10
132.42306417990551
 20
138.4846050818864
 30
0.0
 11
132.4290769443864
 21
138.4846050818864
 31
0.0
  0
LINE
  5
10BF
  8
3
 10
132.42306417990551
 20
138.4785923174056
 30
0.0
 11
132.42306417990551
 21
138.4846050818864
 31
0.0
  0
LINE
  5
10C0
  8
3
 10
132.42306417990551
 20
138.4725795529246
 30
0.0
 11
132.42306417990551
 21
138.4785923174056
 31
0.0
  0
LINE
  5
10C1
  8
3
 10
132.39300035750099
 20
138.46656678844371
 30
0.0
 11
132.42306417990551
 21
138.4725795529246
 31
0.0
  0
LINE
  5
10C2
  8
3
 10
132.38097482853919
 20
138.4605540239628
 30
0.0
 11
132.39300035750099
 21
138.46656678844371
 31
0.0
  0
LINE
  5
10C3
  8
3
 10
132.36894929957731
 20
138.45454125948191
 30
0.0
 11
132.38097482853919
 21
138.4605540239628
 31
0.0
  0
LINE
  5
10C4
  8
3
 10
132.35692377061559
 20
138.45454125948191
 30
0.0
 11
132.36894929957731
 21
138.45454125948191
 31
0.0
  0
LINE
  5
10C5
  8
3
 10
132.34489824165379
 20
138.44852849500111
 30
0.0
 11
132.35692377061559
 21
138.45454125948191
 31
0.0
  0
LINE
  5
10C6
  8
3
 10
132.33888547717279
 20
138.44251573052011
 30
0.0
 11
132.34489824165379
 21
138.44852849500111
 31
0.0
  0
LINE
  5
10C7
  8
3
 10
132.32685994821111
 20
138.4365029660392
 30
0.0
 11
132.33888547717279
 21
138.44251573052011
 31
0.0
  0
LINE
  5
10C8
  8
3
 10
132.88003428045431
 20
137.40832023980451
 30
0.0
 11
132.71768963946991
 21
137.3902819463618
 31
0.0
  0
LINE
  5
10C9
  8
3
 10
132.71768963946991
 20
137.3902819463618
 30
0.0
 11
132.5613577629664
 21
137.35420535947631
 31
0.0
  0
LINE
  5
10CA
  8
3
 10
133.04839168591971
 20
137.4203457687662
 30
0.0
 11
132.88003428045431
 21
137.40832023980451
 31
0.0
  0
POLYLINE
  5
10CB
  8
3
 66
     1
 10
0.0
 20
0.0
 30
0.0
 70
     1
  0
VERTEX
  5
10CC
  8
3
 10
133.57150219575851
 20
139.5007622791594
 30
0.0
  0
VERTEX
  5
10CD
  8
3
 10
133.57150219575851
 20
138.65897525183269
 30
0.0
  0
VERTEX
  5
10CE
  8
3
 10
133.5594766667966
 20
138.6529624873518
 30
0.0
  0
VERTEX
  5
10CF
  8
3
 10
133.5474511378348
 20
138.64694972287089
 30
0.0
  0
VERTEX
  5
10D0
  8
3
 10
133.54143837335391
 20
138.64694972287089
 30
0.0
  0
VERTEX
  5
10D1
  8
3
 10
133.52941284439211
 20
138.64694972287089
 30
0.0
  0
VERTEX
  5
10D2
  8
3
 10
133.5234000799112
 20
138.6529624873518
 30
0.0
  0
VERTEX
  5
10D3
  8
3
 10
133.5113745509494
 20
138.65897525183269
 30
0.0
  0
VERTEX
  5
10D4
  8
3
 10
133.49934902198751
 20
138.6649880163136
 30
0.0
  0
VERTEX
  5
10D5
  8
3
 10
133.48732349302571
 20
138.6770135452754
 30
0.0
  0
VERTEX
  5
10D6
  8
3
 10
133.4813107285448
 20
138.6890390742372
 30
0.0
  0
VERTEX
  5
10D7
  8
3
 10
133.469285199583
 20
138.70106460319909
 30
0.0
  0
VERTEX
  5
10D8
  8
3
 10
133.45725967062111
 20
138.7130901321608
 30
0.0
  0
VERTEX
  5
10D9
  8
3
 10
133.4452341416594
 20
138.7251156611226
 30
0.0
  0
VERTEX
  5
10DA
  8
3
 10
133.43922137717851
 20
138.73714119008449
 30
0.0
  0
VERTEX
  5
10DB
  8
3
 10
133.4271958482168
 20
138.74916671904629
 30
0.0
  0
VERTEX
  5
10DC
  8
3
 10
133.40915755477411
 20
138.767205012489
 30
0.0
  0
VERTEX
  5
10DD
  8
3
 10
133.3851064968504
 20
138.80328159937449
 30
0.0
  0
VERTEX
  5
10DE
  8
3
 10
133.3610554389268
 20
138.8453709507408
 30
0.0
  0
VERTEX
  5
10DF
  8
3
 10
133.343017145484
 20
138.8814475376262
 30
0.0
  0
VERTEX
  5
10E0
  8
3
 10
133.33099161652211
 20
138.9175241245116
 30
0.0
  0
VERTEX
  5
10E1
  8
3
 10
133.3189660875604
 20
138.959613475878
 30
0.0
  0
VERTEX
  5
10E2
  8
3
 10
133.3069405585986
 20
138.9956900627634
 30
0.0
  0
VERTEX
  5
10E3
  8
3
 10
133.2949150296366
 20
139.0377794141298
 30
0.0
  0
VERTEX
  5
10E4
  8
3
 10
133.28890226515591
 20
139.07986876549609
 30
0.0
  0
VERTEX
  5
10E5
  8
3
 10
133.28288950067491
 20
139.1219581168624
 30
0.0
  0
VERTEX
  5
10E6
  8
3
 10
133.28288950067491
 20
139.16404746822869
 30
0.0
  0
VERTEX
  5
10E7
  8
3
 10
133.28288950067491
 20
139.20613681959509
 30
0.0
  0
VERTEX
  5
10E8
  8
3
 10
133.28288950067491
 20
139.2482261709614
 30
0.0
  0
VERTEX
  5
10E9
  8
3
 10
133.28890226515591
 20
139.28430275784689
 30
0.0
  0
VERTEX
  5
10EA
  8
3
 10
133.2949150296366
 20
139.3263921092132
 30
0.0
  0
VERTEX
  5
10EB
  8
3
 10
133.31295332307951
 20
139.40455804746489
 30
0.0
  0
VERTEX
  5
10EC
  8
3
 10
133.3189660875604
 20
139.4225963409076
 30
0.0
  0
VERTEX
  5
10ED
  8
3
 10
133.3249788520412
 20
139.43462186986949
 30
0.0
  0
VERTEX
  5
10EE
  8
3
 10
133.33099161652211
 20
139.4526601633122
 30
0.0
  0
VERTEX
  5
10EF
  8
3
 10
133.343017145484
 20
139.464685692274
 30
0.0
  0
VERTEX
  5
10F0
  8
3
 10
133.34902990996491
 20
139.4767112212358
 30
0.0
  0
VERTEX
  5
10F1
  8
3
 10
133.3610554389268
 20
139.4887367501976
 30
0.0
  0
VERTEX
  5
10F2
  8
3
 10
133.37308096788851
 20
139.5007622791594
 30
0.0
  0
VERTEX
  5
10F3
  8
3
 10
133.3851064968504
 20
139.50677504364029
 30
0.0
  0
VERTEX
  5
10F4
  8
3
 10
133.3971320258122
 20
139.51880057260209
 30
0.0
  0
VERTEX
  5
10F5
  8
3
 10
133.40915755477411
 20
139.524813337083
 30
0.0
  0
VERTEX
  5
10F6
  8
3
 10
133.4211830837358
 20
139.530826101564
 30
0.0
  0
VERTEX
  5
10F7
  8
3
 10
133.4332086126976
 20
139.53683886604489
 30
0.0
  0
VERTEX
  5
10F8
  8
3
 10
133.4452341416594
 20
139.54285163052569
 30
0.0
  0
VERTEX
  5
10F9
  8
3
 10
133.46327243510211
 20
139.54886439500669
 30
0.0
  0
VERTEX
  5
10FA
  8
3
 10
133.49333625750671
 20
139.5548771594876
 30
0.0
  0
VERTEX
  5
10FB
  8
3
 10
133.56548943127751
 20
139.5127878081212
 30
0.0
  0
VERTEX
  5
10FC
  8
3
 10
133.56548943127751
 20
139.50677504364029
 30
0.0
  0
VERTEX
  5
10FD
  8
3
 10
133.57150219575851
 20
139.5007622791594
 30
0.0
  0
SEQEND
  5
10FE
  8
3
  0
LINE
  5
10FF
  8
3
 10
133.727834072262
 20
137.4263585332472
 30
0.0
 11
133.55346390231571
 21
137.4263585332472
 31
0.0
  0
LINE
  5
1100
  8
3
 10
133.38510649685051
 20
137.4263585332472
 30
0.0
 11
133.21674909138511
 21
137.4263585332472
 31
0.0
  0
LINE
  5
1101
  8
3
 10
133.55346390231571
 20
137.4263585332472
 30
0.0
 11
133.38510649685051
 21
137.4263585332472
 31
0.0
  0
LINE
  5
1102
  8
3
 10
133.89619147772731
 20
137.4263585332472
 30
0.0
 11
133.727834072262
 21
137.4263585332472
 31
0.0
  0
LINE
  5
1103
  8
3
 10
134.0585361187118
 20
137.438384062209
 30
0.0
 11
133.89619147772731
 21
137.4263585332472
 31
0.0
  0
LINE
  5
1104
  8
3
 10
135.06868055150389
 20
137.9194052206814
 30
0.0
 11
134.99051461325189
 21
137.84725204691051
 31
0.0
  0
LINE
  5
1105
  8
3
 10
134.40126369412329
 20
138.7972688348936
 30
0.0
 11
134.4493658099706
 21
138.88746030210709
 31
0.0
  0
LINE
  5
1106
  8
3
 10
134.48544239685589
 20
138.98967729828249
 30
0.0
 11
134.5094934547796
 21
139.0918942944578
 31
0.0
  0
LINE
  5
1107
  8
3
 10
134.4493658099706
 20
138.88746030210709
 30
0.0
 11
134.48544239685589
 21
138.98967729828249
 31
0.0
  0
LINE
  5
1108
  8
3
 10
134.52151898374149
 20
139.2001240551142
 30
0.0
 11
134.5275317482224
 21
139.30835381577049
 31
0.0
  0
LINE
  5
1109
  8
3
 10
134.5275317482224
 20
139.4225963409076
 30
0.0
 11
134.5275317482224
 21
139.53683886604489
 31
0.0
  0
LINE
  5
110A
  8
3
 10
134.5275317482224
 20
139.30835381577049
 30
0.0
 11
134.5275317482224
 21
139.4225963409076
 31
0.0
  0
LINE
  5
110B
  8
3
 10
134.5094934547796
 20
139.0918942944578
 30
0.0
 11
134.52151898374149
 21
139.2001240551142
 31
0.0
  0
LINE
  5
110C
  8
3
 10
134.3471488137952
 20
138.70106460319909
 30
0.0
 11
134.40126369412329
 21
138.7972688348936
 31
0.0
  0
LINE
  5
110D
  8
3
 10
134.3351232848334
 20
138.70707736767989
 30
0.0
 11
134.3471488137952
 21
138.70106460319909
 31
0.0
  0
LINE
  5
110E
  8
3
 10
134.32911052035249
 20
138.70707736767989
 30
0.0
 11
134.3351232848334
 21
138.70707736767989
 31
0.0
  0
LINE
  5
110F
  8
3
 10
134.32309775587149
 20
138.70707736767989
 30
0.0
 11
134.32911052035249
 21
138.70707736767989
 31
0.0
  0
LINE
  5
1110
  8
3
 10
134.31708499139069
 20
138.70707736767989
 30
0.0
 11
134.32309775587149
 21
138.70707736767989
 31
0.0
  0
LINE
  5
1111
  8
3
 10
134.3110722269098
 20
138.70707736767989
 30
0.0
 11
134.31708499139069
 21
138.70707736767989
 31
0.0
  0
LINE
  5
1112
  8
3
 10
134.30505946242869
 20
138.70707736767989
 30
0.0
 11
134.3110722269098
 21
138.70707736767989
 31
0.0
  0
LINE
  5
1113
  8
3
 10
134.6838636247258
 20
137.624779761117
 30
0.0
 11
134.53955727718409
 21
137.5526265873462
 31
0.0
  0
LINE
  5
1114
  8
3
 10
134.38322540068069
 20
137.498511707018
 30
0.0
 11
134.226893524177
 21
137.4624351201326
 31
0.0
  0
LINE
  5
1115
  8
3
 10
134.53955727718409
 20
137.5526265873462
 30
0.0
 11
134.38322540068069
 21
137.498511707018
 31
0.0
  0
LINE
  5
1116
  8
3
 10
134.99051461325189
 20
137.84725204691051
 30
0.0
 11
134.8281699722676
 21
137.72098399281151
 31
0.0
  0
LINE
  5
1117
  8
3
 10
134.8281699722676
 20
137.72098399281151
 30
0.0
 11
134.6838636247258
 21
137.624779761117
 31
0.0
  0
LINE
  5
1118
  8
3
 10
135.2671017793736
 20
138.16592856439851
 30
0.0
 11
135.20697413456449
 21
138.07573709718491
 31
0.0
  0
LINE
  5
1119
  8
3
 10
135.501599594129
 20
138.6649880163136
 30
0.0
 11
135.46552300724349
 21
138.55675825565729
 31
0.0
  0
LINE
  5
111A
  8
3
 10
135.38134430451089
 20
138.35232426330651
 30
0.0
 11
135.32722942418269
 21
138.256120031612
 31
0.0
  0
LINE
  5
111B
  8
3
 10
135.32722942418269
 20
138.256120031612
 30
0.0
 11
135.2671017793736
 21
138.16592856439851
 31
0.0
  0
LINE
  5
111C
  8
3
 10
135.46552300724349
 20
138.55675825565729
 30
0.0
 11
135.4234336558772
 21
138.45454125948191
 31
0.0
  0
LINE
  5
111D
  8
3
 10
135.4234336558772
 20
138.45454125948191
 30
0.0
 11
135.38134430451089
 21
138.35232426330651
 31
0.0
  0
LINE
  5
111E
  8
3
 10
135.5557144744572
 20
138.88746030210709
 30
0.0
 11
135.53166341653349
 21
138.77321777696989
 31
0.0
  0
LINE
  5
111F
  8
3
 10
135.58577829686169
 20
139.1219581168624
 30
0.0
 11
135.57375276789989
 21
139.00170282724429
 31
0.0
  0
LINE
  5
1120
  8
3
 10
135.57375276789989
 20
139.00170282724429
 30
0.0
 11
135.5557144744572
 21
138.88746030210709
 31
0.0
  0
LINE
  5
1121
  8
3
 10
135.57976553238069
 20
139.338417638175
 30
0.0
 11
135.59179106134249
 21
139.23620064199949
 31
0.0
  0
LINE
  5
1122
  8
3
 10
135.57375276789989
 20
139.3865197540222
 30
0.0
 11
135.57976553238069
 21
139.338417638175
 31
0.0
  0
LINE
  5
1123
  8
3
 10
135.57375276789989
 20
139.54285163052569
 30
0.0
 11
135.57375276789989
 21
139.4887367501976
 31
0.0
  0
LINE
  5
1124
  8
3
 10
135.57375276789989
 20
139.4887367501976
 30
0.0
 11
135.57375276789989
 21
139.4406346343504
 31
0.0
  0
LINE
  5
1125
  8
3
 10
135.57375276789989
 20
139.4406346343504
 30
0.0
 11
135.57375276789989
 21
139.3865197540222
 31
0.0
  0
LINE
  5
1126
  8
3
 10
135.59179106134249
 20
139.23620064199949
 30
0.0
 11
135.58577829686169
 21
139.1219581168624
 31
0.0
  0
LINE
  5
1127
  8
3
 10
135.57375276789989
 20
139.590953746373
 30
0.0
 11
135.57375276789989
 21
139.54285163052569
 31
0.0
  0
LINE
  5
1128
  8
3
 10
135.53166341653349
 20
138.77321777696989
 30
0.0
 11
135.501599594129
 21
138.6649880163136
 31
0.0
  0
TEXT
  5
1129
  8
3
 10
135.19482512198189
 20
137.5334244824802
 30
0.0
 40
0.3131267876644771
  1
R
 50
270.0
  7
ITALICC
  0
CIRCLE
  5
112A
  8
3
 10
135.35619364112131
 20
137.44155412705851
 30
0.0
 40
0.241100623305389
  0
LINE
  5
112B
  8
3
 10
135.1408337252746
 20
137.9975711589332
 30
0.0
 11
135.06868055150389
 21
137.9194052206814
 31
0.0
  0
LINE
  5
112C
  8
3
 10
135.20697413456449
 20
138.07573709718491
 30
0.0
 11
135.1408337252746
 21
137.9975711589332
 31
0.0
  0
LINE
  5
112D
  8
3
 10
185.99205702967259
 20
148.66728521390201
 30
0.0
 11
186.28668248923699
 21
148.79956603248201
 31
0.0
  0
LINE
  5
112E
  8
3
 10
186.28066972475619
 20
146.44857512044811
 30
0.0
 11
186.2686441957942
 21
146.38243471115811
 31
0.0
  0
LINE
  5
112F
  8
3
 10
186.27465696027511
 20
147.62707695870549
 30
0.0
 11
186.2686441957942
 21
147.61505142974369
 31
0.0
  0
LINE
  5
1130
  8
3
 10
186.2686441957942
 20
147.05586433301951
 30
0.0
 11
186.28066972475619
 21
146.9897239237296
 31
0.0
  0
LINE
  5
1131
  8
3
 10
186.2626314313132
 20
143.1475674204311
 30
0.0
 11
186.27465696027511
 21
143.06940148217939
 31
0.0
  0
LINE
  5
1132
  8
3
 10
186.27465696027511
 20
143.91720127398699
 30
0.0
 11
186.2686441957942
 21
143.8751119226207
 31
0.0
  0
LINE
  5
1133
  8
3
 10
186.2686441957942
 20
144.1516990887423
 30
0.0
 11
186.27465696027511
 21
144.10359697289499
 31
0.0
  0
LINE
  5
1134
  8
3
 10
186.27465696027511
 20
142.73869943572959
 30
0.0
 11
186.2686441957942
 21
142.66053349747779
 31
0.0
  0
LINE
  5
1135
  8
3
 10
186.27465696027511
 20
142.9852227794467
 30
0.0
 11
186.28066972475619
 21
142.9070568411949
 31
0.0
  0
LINE
  5
1136
  8
3
 10
186.27465696027511
 20
143.06940148217939
 30
0.0
 11
186.27465696027511
 21
142.9852227794467
 31
0.0
  0
LINE
  5
1137
  8
3
 10
186.28066972475619
 20
142.9070568411949
 30
0.0
 11
186.28066972475619
 21
142.8228781384623
 31
0.0
  0
LINE
  5
1138
  8
3
 10
186.28066972475619
 20
142.8228781384623
 30
0.0
 11
186.27465696027511
 21
142.73869943572959
 31
0.0
  0
LINE
  5
1139
  8
3
 10
186.27465696027511
 20
144.10359697289499
 30
0.0
 11
186.27465696027511
 21
144.05549485704779
 31
0.0
  0
LINE
  5
113A
  8
3
 10
186.27465696027511
 20
143.96530338983419
 30
0.0
 11
186.27465696027511
 21
143.91720127398699
 31
0.0
  0
LINE
  5
113B
  8
3
 10
186.27465696027511
 20
144.01340550568139
 30
0.0
 11
186.27465696027511
 21
143.96530338983419
 31
0.0
  0
LINE
  5
113C
  8
3
 10
186.27465696027511
 20
144.05549485704779
 30
0.0
 11
186.27465696027511
 21
144.01340550568139
 31
0.0
  0
LINE
  5
113D
  8
3
 10
186.28668248923699
 20
147.94575347619349
 30
0.0
 11
186.28668248923699
 21
147.6451152521482
 31
0.0
  0
LINE
  5
113E
  8
3
 10
186.28668248923699
 20
146.514715529738
 30
0.0
 11
186.28066972475619
 21
146.44857512044811
 31
0.0
  0
LINE
  5
113F
  8
3
 10
186.28066972475619
 20
146.9897239237296
 30
0.0
 11
186.28668248923699
 21
146.91757074995871
 31
0.0
  0
LINE
  5
1140
  8
3
 10
186.2926952537178
 20
146.85143034066871
 30
0.0
 11
186.29870801819879
 21
146.7852899313788
 31
0.0
  0
LINE
  5
1141
  8
3
 10
186.29870801819879
 20
146.7191495220888
 30
0.0
 11
186.29870801819879
 21
146.64699634831791
 31
0.0
  0
LINE
  5
1142
  8
3
 10
186.29870801819879
 20
146.7852899313788
 30
0.0
 11
186.29870801819879
 21
146.7191495220888
 31
0.0
  0
LINE
  5
1143
  8
3
 10
186.2926952537178
 20
146.58085593902791
 30
0.0
 11
186.28668248923699
 21
146.514715529738
 31
0.0
  0
LINE
  5
1144
  8
3
 10
186.29870801819879
 20
146.64699634831791
 30
0.0
 11
186.2926952537178
 21
146.58085593902791
 31
0.0
  0
LINE
  5
1145
  8
3
 10
186.28668248923699
 20
146.91757074995871
 30
0.0
 11
186.2926952537178
 21
146.85143034066871
 31
0.0
  0
LINE
  5
1146
  8
3
 10
186.28668248923699
 20
147.6330897231864
 30
0.0
 11
186.27465696027511
 21
147.62707695870549
 31
0.0
  0
LINE
  5
1147
  8
3
 10
186.28668248923699
 20
147.6451152521482
 30
0.0
 11
186.28668248923699
 21
147.6330897231864
 31
0.0
  0
LINE
  5
1148
  8
3
 10
186.28668248923699
 20
148.79956603248201
 30
0.0
 11
186.28668248923699
 21
147.94575347619349
 31
0.0
  0
LINE
  5
1149
  8
3
 10
184.0258830444165
 20
146.48465170733351
 30
0.0
 11
184.0318958088975
 21
146.37040918219631
 31
0.0
  0
LINE
  5
114A
  8
3
 10
184.26639362365279
 20
145.7691327341058
 30
0.0
 11
184.24835533021019
 21
147.31441320569849
 31
0.0
  0
LINE
  5
114B
  8
3
 10
182.9796620247391
 20
146.38243471115811
 30
0.0
 11
182.9796620247391
 21
146.43053682700531
 31
0.0
  0
LINE
  5
114C
  8
3
 10
183.0818790209145
 20
139.69323422615111
 30
0.0
 11
181.88476442127021
 21
139.6737797728897
 31
0.0
  0
LINE
  5
114D
  8
3
 10
182.5707940400375
 20
140.75448715703089
 30
0.0
 11
182.8173173837547
 21
140.75448715703089
 31
0.0
  0
LINE
  5
114E
  8
3
 10
186.22054207994699
 20
141.4399423078541
 30
0.0
 11
186.22054207994699
 21
140.12915965101669
 31
0.0
  0
LINE
  5
114F
  8
3
 10
184.4046872067135
 20
139.41965344226989
 30
0.0
 11
184.4527893225609
 21
139.41965344226989
 31
0.0
  0
LINE
  5
1150
  8
3
 10
184.5309552608125
 20
139.66617678598701
 30
0.0
 11
184.29645744605719
 21
139.66016402150609
 31
0.0
  0
LINE
  5
1151
  8
3
 10
184.44677655807979
 20
136.79808812859531
 30
0.0
 11
184.3505723263855
 21
136.81011365755711
 31
0.0
  0
LINE
  5
1152
  8
3
 10
185.79363580180279
 20
137.3572752253194
 30
0.0
 11
185.76357197939819
 21
137.32721140291491
 31
0.0
  0
LINE
  5
1153
  8
3
 10
185.36672952365851
 20
137.0145476499078
 30
0.0
 11
185.34869123021571
 21
137.002522120946
 31
0.0
  0
LINE
  5
1154
  8
3
 10
185.64932945426091
 20
137.21296887777771
 30
0.0
 11
185.61926563185651
 21
137.18891781985411
 31
0.0
  0
LINE
  5
1155
  8
3
 10
185.37875505262011
 20
137.02056041438871
 30
0.0
 11
185.36672952365851
 21
137.0145476499078
 31
0.0
  0
LINE
  5
1156
  8
3
 10
185.40881887502471
 20
137.0385987078314
 30
0.0
 11
185.39679334606291
 21
137.02657317886971
 31
0.0
  0
LINE
  5
1157
  8
3
 10
185.42685716846739
 20
137.0446114723124
 30
0.0
 11
185.40881887502471
 21
137.0385987078314
 31
0.0
  0
LINE
  5
1158
  8
3
 10
185.44489546191011
 20
137.05062423679331
 30
0.0
 11
185.42685716846739
 21
137.0446114723124
 31
0.0
  0
LINE
  5
1159
  8
3
 10
185.45692099087199
 20
137.06264976575511
 30
0.0
 11
185.44489546191011
 21
137.05062423679331
 31
0.0
  0
LINE
  5
115A
  8
3
 10
185.46894651983379
 20
137.068662530236
 30
0.0
 11
185.45692099087199
 21
137.06264976575511
 31
0.0
  0
LINE
  5
115B
  8
3
 10
185.48097204879559
 20
137.0806880591978
 30
0.0
 11
185.46894651983379
 21
137.068662530236
 31
0.0
  0
LINE
  5
115C
  8
3
 10
185.49901034223831
 20
137.0927135881596
 30
0.0
 11
185.48097204879559
 21
137.0806880591978
 31
0.0
  0
LINE
  5
115D
  8
3
 10
185.50502310671919
 20
137.09872635264051
 30
0.0
 11
185.49901034223831
 21
137.0927135881596
 31
0.0
  0
LINE
  5
115E
  8
3
 10
185.51704863568111
 20
137.11075188160231
 30
0.0
 11
185.50502310671919
 21
137.09872635264051
 31
0.0
  0
LINE
  5
115F
  8
3
 10
185.52306140016191
 20
137.12879017504511
 30
0.0
 11
185.51704863568111
 21
137.11075188160231
 31
0.0
  0
LINE
  5
1160
  8
3
 10
185.58920180945191
 20
137.16486676193051
 30
0.0
 11
185.52306140016191
 21
137.12879017504511
 31
0.0
  0
LINE
  5
1161
  8
3
 10
185.61926563185651
 20
137.18891781985411
 30
0.0
 11
185.58920180945191
 21
137.16486676193051
 31
0.0
  0
LINE
  5
1162
  8
3
 10
185.39679334606291
 20
137.02657317886971
 30
0.0
 11
185.37875505262011
 21
137.02056041438871
 31
0.0
  0
LINE
  5
1163
  8
3
 10
185.67939327666539
 20
137.23701993570131
 30
0.0
 11
185.64932945426091
 21
137.21296887777771
 31
0.0
  0
LINE
  5
1164
  8
3
 10
185.70945709906999
 20
137.26708375810591
 30
0.0
 11
185.67939327666539
 21
137.23701993570131
 31
0.0
  0
LINE
  5
1165
  8
3
 10
185.73952092147459
 20
137.2971475805104
 30
0.0
 11
185.70945709906999
 21
137.26708375810591
 31
0.0
  0
LINE
  5
1166
  8
3
 10
185.76357197939819
 20
137.32721140291491
 30
0.0
 11
185.73952092147459
 21
137.2971475805104
 31
0.0
  0
LINE
  5
1167
  8
3
 10
184.9398232455143
 20
136.8401774799616
 30
0.0
 11
184.83760624933879
 21
136.82213918651891
 31
0.0
  0
LINE
  5
1168
  8
3
 10
185.30660187884939
 20
136.9784710630224
 30
0.0
 11
185.21641041163579
 21
136.93036894717511
 31
0.0
  0
LINE
  5
1169
  8
3
 10
185.34869123021571
 20
137.002522120946
 30
0.0
 11
185.33666570125391
 21
136.9965093564652
 31
0.0
  0
LINE
  5
116A
  8
3
 10
185.33666570125391
 20
136.9965093564652
 30
0.0
 11
185.30660187884939
 21
136.9784710630224
 31
0.0
  0
LINE
  5
116B
  8
3
 10
185.12621894442219
 20
136.8942923602898
 30
0.0
 11
185.03001471272771
 21
136.8642285378852
 31
0.0
  0
LINE
  5
116C
  8
3
 10
185.21641041163579
 20
136.93036894717511
 30
0.0
 11
185.12621894442219
 21
136.8942923602898
 31
0.0
  0
LINE
  5
116D
  8
3
 10
185.03001471272771
 20
136.8642285378852
 30
0.0
 11
184.9398232455143
 21
136.8401774799616
 31
0.0
  0
LINE
  5
116E
  8
3
 10
184.7414020176443
 20
136.80410089307611
 30
0.0
 11
184.64519778594979
 21
136.79808812859531
 31
0.0
  0
LINE
  5
116F
  8
3
 10
184.64519778594979
 20
136.79808812859531
 30
0.0
 11
184.5429807897743
 21
136.79808812859531
 31
0.0
  0
LINE
  5
1170
  8
3
 10
184.5429807897743
 20
136.79808812859531
 30
0.0
 11
184.44677655807979
 21
136.79808812859531
 31
0.0
  0
LINE
  5
1171
  8
3
 10
184.83760624933879
 20
136.82213918651891
 30
0.0
 11
184.7414020176443
 21
136.80410089307611
 31
0.0
  0
LINE
  5
1172
  8
3
 10
185.45090822639111
 20
139.79244484008601
 30
0.0
 11
185.22242317611671
 21
139.73832995975789
 31
0.0
  0
LINE
  5
1173
  8
3
 10
185.33065293677291
 20
139.63010019910161
 30
0.0
 11
185.37875505262011
 21
139.62408743462069
 31
0.0
  0
LINE
  5
1174
  8
3
 10
186.22054207994699
 20
138.8845174034694
 30
0.0
 11
186.2265548444278
 21
138.77628764281309
 31
0.0
  0
LINE
  5
1175
  8
3
 10
185.81768685972631
 20
137.38733904772391
 30
0.0
 11
185.79363580180279
 21
137.3572752253194
 31
0.0
  0
LINE
  5
1176
  8
3
 10
186.1784527285806
 20
138.14494737231809
 30
0.0
 11
186.15440167065711
 21
138.0427303761426
 31
0.0
  0
LINE
  5
1177
  8
3
 10
186.05819743896251
 20
137.7541176810592
 30
0.0
 11
185.95598044278711
 21
137.57974751111291
 31
0.0
  0
LINE
  5
1178
  8
3
 10
185.91389109142079
 20
137.513607101823
 30
0.0
 11
185.89585279797819
 21
137.4835432794184
 31
0.0
  0
LINE
  5
1179
  8
3
 10
185.93794214934451
 20
137.54367092422751
 30
0.0
 11
185.91389109142079
 21
137.513607101823
 31
0.0
  0
LINE
  5
117A
  8
3
 10
185.95598044278711
 20
137.57974751111291
 30
0.0
 11
185.93794214934451
 21
137.54367092422751
 31
0.0
  0
LINE
  5
117B
  8
3
 10
186.13035061273351
 20
137.9405133799672
 30
0.0
 11
186.09427402584791
 21
137.84430914827271
 31
0.0
  0
LINE
  5
117C
  8
3
 10
186.15440167065711
 20
138.0427303761426
 30
0.0
 11
186.13035061273351
 21
137.9405133799672
 31
0.0
  0
LINE
  5
117D
  8
3
 10
186.09427402584791
 20
137.84430914827271
 30
0.0
 11
186.05819743896251
 21
137.7541176810592
 31
0.0
  0
LINE
  5
117E
  8
3
 10
185.87180174005431
 20
137.447466692533
 30
0.0
 11
185.84173791764999
 21
137.41740287012851
 31
0.0
  0
LINE
  5
117F
  8
3
 10
185.84173791764999
 20
137.41740287012851
 30
0.0
 11
185.81768685972631
 21
137.38733904772391
 31
0.0
  0
LINE
  5
1180
  8
3
 10
185.89585279797819
 20
137.4835432794184
 30
0.0
 11
185.87180174005431
 21
137.447466692533
 31
0.0
  0
LINE
  5
1181
  8
3
 10
186.22054207994699
 20
138.5658408859814
 30
0.0
 11
186.214529315466
 21
138.457611125325
 31
0.0
  0
LINE
  5
1182
  8
3
 10
186.20851655098519
 20
138.34938136466869
 30
0.0
 11
186.19649102202331
 21
138.2471643684934
 31
0.0
  0
LINE
  5
1183
  8
3
 10
186.19649102202331
 20
138.2471643684934
 30
0.0
 11
186.1784527285806
 21
138.14494737231809
 31
0.0
  0
LINE
  5
1184
  8
3
 10
186.214529315466
 20
138.457611125325
 30
0.0
 11
186.20851655098519
 21
138.34938136466869
 31
0.0
  0
LINE
  5
1185
  8
3
 10
186.2265548444278
 20
138.67407064663769
 30
0.0
 11
186.22054207994699
 21
138.5658408859814
 31
0.0
  0
LINE
  5
1186
  8
3
 10
186.2265548444278
 20
138.77628764281309
 30
0.0
 11
186.2265548444278
 21
138.67407064663769
 31
0.0
  0
LINE
  5
1187
  8
3
 10
185.77559750835991
 20
139.56997255429249
 30
0.0
 11
185.82971238868799
 21
139.56395978981169
 31
0.0
  0
LINE
  5
1188
  8
3
 10
185.91389109142079
 20
139.94877671658961
 30
0.0
 11
185.67939327666539
 21
139.85858524937601
 31
0.0
  0
LINE
  5
1189
  8
3
 10
186.16041443513791
 20
139.34750026849909
 30
0.0
 11
186.17243996409979
 21
139.3234492105754
 31
0.0
  0
LINE
  5
118A
  8
3
 10
186.18446549306159
 20
139.2993981526518
 30
0.0
 11
186.1904782575424
 21
139.2753470947282
 31
0.0
  0
LINE
  5
118B
  8
3
 10
186.1904782575424
 20
139.2753470947282
 30
0.0
 11
186.20250378650439
 21
139.2512960368046
 31
0.0
  0
LINE
  5
118C
  8
3
 10
186.17243996409979
 20
139.3234492105754
 30
0.0
 11
186.18446549306159
 21
139.2993981526518
 31
0.0
  0
LINE
  5
118D
  8
3
 10
186.20851655098519
 20
139.2092066854382
 30
0.0
 11
186.214529315466
 21
139.10097692478189
 31
0.0
  0
LINE
  5
118E
  8
3
 10
186.22054207994699
 20
138.9927471641256
 30
0.0
 11
186.22054207994699
 21
138.8845174034694
 31
0.0
  0
LINE
  5
118F
  8
3
 10
186.214529315466
 20
139.10097692478189
 30
0.0
 11
186.22054207994699
 21
138.9927471641256
 31
0.0
  0
LINE
  5
1190
  8
3
 10
186.20250378650439
 20
139.2512960368046
 30
0.0
 11
186.20851655098519
 21
139.2092066854382
 31
0.0
  0
LINE
  5
1191
  8
3
 10
186.01009532311519
 20
139.50984490948349
 30
0.0
 11
186.03414638103891
 21
139.49781938052161
 31
0.0
  0
LINE
  5
1192
  8
3
 10
186.14838890617611
 20
139.3715513264226
 30
0.0
 11
186.16041443513791
 21
139.34750026849909
 31
0.0
  0
LINE
  5
1193
  8
3
 10
186.13636337721431
 20
139.3895896198654
 30
0.0
 11
186.14838890617611
 21
139.3715513264226
 31
0.0
  0
LINE
  5
1194
  8
3
 10
186.12433784825251
 20
139.413640677789
 30
0.0
 11
186.13636337721431
 21
139.3895896198654
 31
0.0
  0
LINE
  5
1195
  8
3
 10
186.10629955480971
 20
139.43167897123169
 30
0.0
 11
186.12433784825251
 21
139.413640677789
 31
0.0
  0
LINE
  5
1196
  8
3
 10
186.08826126136699
 20
139.4497172646744
 30
0.0
 11
186.10629955480971
 21
139.43167897123169
 31
0.0
  0
LINE
  5
1197
  8
3
 10
186.07022296792431
 20
139.46775555811709
 30
0.0
 11
186.08826126136699
 21
139.4497172646744
 31
0.0
  0
LINE
  5
1198
  8
3
 10
186.05218467448159
 20
139.48579385155989
 30
0.0
 11
186.07022296792431
 21
139.46775555811709
 31
0.0
  0
LINE
  5
1199
  8
3
 10
186.03414638103891
 20
139.49781938052161
 30
0.0
 11
186.05218467448159
 21
139.48579385155989
 31
0.0
  0
LINE
  5
119A
  8
3
 10
185.98604426519171
 20
139.5278832029262
 30
0.0
 11
186.01009532311519
 21
139.50984490948349
 31
0.0
  0
LINE
  5
119B
  8
3
 10
185.88382726901639
 20
139.55193426084981
 30
0.0
 11
185.98604426519171
 21
139.5278832029262
 31
0.0
  0
LINE
  5
119C
  8
3
 10
185.82971238868799
 20
139.56395978981169
 30
0.0
 11
185.88382726901639
 21
139.55193426084981
 31
0.0
  0
LINE
  5
119D
  8
3
 10
186.16041443513791
 20
140.08707029965041
 30
0.0
 11
186.16041443513791
 21
140.08105753516949
 31
0.0
  0
LINE
  5
119E
  8
3
 10
186.15440167065711
 20
140.06301924172669
 30
0.0
 11
185.91389109142079
 21
139.94877671658961
 31
0.0
  0
LINE
  5
119F
  8
3
 10
186.16041443513791
 20
140.06903200620769
 30
0.0
 11
186.15440167065711
 21
140.06301924172669
 31
0.0
  0
LINE
  5
11A0
  8
3
 10
186.16041443513791
 20
140.07504477068861
 30
0.0
 11
186.16041443513791
 21
140.06903200620769
 31
0.0
  0
LINE
  5
11A1
  8
3
 10
186.16041443513791
 20
140.08105753516949
 30
0.0
 11
186.16041443513791
 21
140.07504477068861
 31
0.0
  0
LINE
  5
11A2
  8
3
 10
186.16642719961871
 20
140.08707029965041
 30
0.0
 11
186.16041443513791
 21
140.08707029965041
 31
0.0
  0
LINE
  5
11A3
  8
3
 10
186.16642719961871
 20
140.09308306413129
 30
0.0
 11
186.16642719961871
 21
140.08707029965041
 31
0.0
  0
LINE
  5
11A4
  8
3
 10
186.16642719961871
 20
140.09909582861221
 30
0.0
 11
186.16642719961871
 21
140.09308306413129
 31
0.0
  0
LINE
  5
11A5
  8
3
 10
186.16642719961871
 20
140.10510859309309
 30
0.0
 11
186.16642719961871
 21
140.09909582861221
 31
0.0
  0
LINE
  5
11A6
  8
3
 10
186.1784527285806
 20
140.10510859309309
 30
0.0
 11
186.16642719961871
 21
140.10510859309309
 31
0.0
  0
LINE
  5
11A7
  8
3
 10
186.18446549306159
 20
140.10510859309309
 30
0.0
 11
186.1784527285806
 21
140.10510859309309
 31
0.0
  0
LINE
  5
11A8
  8
3
 10
186.1904782575424
 20
140.11112135757401
 30
0.0
 11
186.18446549306159
 21
140.10510859309309
 31
0.0
  0
LINE
  5
11A9
  8
3
 10
186.19649102202331
 20
140.11112135757401
 30
0.0
 11
186.1904782575424
 21
140.11112135757401
 31
0.0
  0
LINE
  5
11AA
  8
3
 10
186.20250378650439
 20
140.11713412205489
 30
0.0
 11
186.19649102202331
 21
140.11112135757401
 31
0.0
  0
LINE
  5
11AB
  8
3
 10
186.20851655098519
 20
140.11713412205489
 30
0.0
 11
186.20250378650439
 21
140.11713412205489
 31
0.0
  0
LINE
  5
11AC
  8
3
 10
186.214529315466
 20
140.11713412205489
 30
0.0
 11
186.20851655098519
 21
140.11713412205489
 31
0.0
  0
LINE
  5
11AD
  8
3
 10
186.22054207994699
 20
140.12314688653581
 30
0.0
 11
186.214529315466
 21
140.11713412205489
 31
0.0
  0
LINE
  5
11AE
  8
3
 10
186.22054207994699
 20
140.12915965101669
 30
0.0
 11
186.22054207994699
 21
140.12314688653581
 31
0.0
  0
LINE
  5
11AF
  8
3
 10
185.54711245808551
 20
139.60003637669709
 30
0.0
 11
185.60122733841379
 21
139.5940236122162
 31
0.0
  0
LINE
  5
11B0
  8
3
 10
185.71546986355079
 20
139.5819980832544
 30
0.0
 11
185.77559750835991
 21
139.56997255429249
 31
0.0
  0
LINE
  5
11B1
  8
3
 10
185.66135498322271
 20
139.58801084773529
 30
0.0
 11
185.71546986355079
 21
139.5819980832544
 31
0.0
  0
LINE
  5
11B2
  8
3
 10
185.60122733841379
 20
139.5940236122162
 30
0.0
 11
185.66135498322271
 21
139.58801084773529
 31
0.0
  0
LINE
  5
11B3
  8
3
 10
185.67939327666539
 20
139.85858524937601
 30
0.0
 11
185.45090822639111
 21
139.79244484008601
 31
0.0
  0
LINE
  5
11B4
  8
3
 10
185.48698481327651
 20
139.606049141178
 30
0.0
 11
185.54711245808551
 21
139.60003637669709
 31
0.0
  0
LINE
  5
11B5
  8
3
 10
185.43286993294819
 20
139.6180746701398
 30
0.0
 11
185.48698481327651
 21
139.606049141178
 31
0.0
  0
LINE
  5
11B6
  8
3
 10
185.37875505262011
 20
139.62408743462069
 30
0.0
 11
185.43286993294819
 21
139.6180746701398
 31
0.0
  0
LINE
  5
11B7
  8
3
 10
184.86165730726231
 20
138.91458122587389
 30
0.0
 11
184.86165730726231
 21
138.82438975866029
 31
0.0
  0
LINE
  5
11B8
  8
3
 10
185.18033382475039
 20
138.7943259362558
 30
0.0
 11
185.18033382475039
 21
138.9205939903548
 31
0.0
  0
LINE
  5
11B9
  8
3
 10
184.8977338941479
 20
137.9946282602954
 30
0.0
 11
184.90374665862871
 21
137.9946282602954
 31
0.0
  0
LINE
  5
11BA
  8
3
 10
184.96387430343771
 20
138.0307048471808
 30
0.0
 11
185.02400194824691
 21
138.1088707854326
 31
0.0
  0
LINE
  5
11BB
  8
3
 10
184.95786153895679
 20
138.01867931821911
 30
0.0
 11
184.96387430343771
 21
138.0307048471808
 31
0.0
  0
LINE
  5
11BC
  8
3
 10
184.95184877447591
 20
138.01867931821911
 30
0.0
 11
184.95786153895679
 21
138.01867931821911
 31
0.0
  0
LINE
  5
11BD
  8
3
 10
184.9398232455143
 20
138.01266655373809
 30
0.0
 11
184.95184877447591
 21
138.01867931821911
 31
0.0
  0
LINE
  5
11BE
  8
3
 10
184.9338104810333
 20
138.0066537892572
 30
0.0
 11
184.9398232455143
 21
138.01266655373809
 31
0.0
  0
LINE
  5
11BF
  8
3
 10
184.92779771655239
 20
138.0066537892572
 30
0.0
 11
184.9338104810333
 21
138.0066537892572
 31
0.0
  0
LINE
  5
11C0
  8
3
 10
184.92178495207139
 20
138.00064102477629
 30
0.0
 11
184.92779771655239
 21
138.0066537892572
 31
0.0
  0
LINE
  5
11C1
  8
3
 10
184.90975942310959
 20
138.00064102477629
 30
0.0
 11
184.92178495207139
 21
138.00064102477629
 31
0.0
  0
LINE
  5
11C2
  8
3
 10
184.90374665862871
 20
137.9946282602954
 30
0.0
 11
184.90975942310959
 21
138.00064102477629
 31
0.0
  0
LINE
  5
11C3
  8
3
 10
185.02400194824691
 20
138.1088707854326
 30
0.0
 11
185.07210406409411
 21
138.205075017127
 31
0.0
  0
LINE
  5
11C4
  8
3
 10
185.07210406409411
 20
138.205075017127
 30
0.0
 11
185.11419341546031
 21
138.31330477778329
 31
0.0
  0
LINE
  5
11C5
  8
3
 10
185.11419341546031
 20
138.31330477778329
 30
0.0
 11
185.13824447338391
 21
138.42754730292049
 31
0.0
  0
LINE
  5
11C6
  8
3
 10
185.17432106026939
 20
138.6680578821568
 30
0.0
 11
185.18033382475039
 21
138.7943259362558
 31
0.0
  0
LINE
  5
11C7
  8
3
 10
185.16229553130771
 20
138.54780259253869
 30
0.0
 11
185.17432106026939
 21
138.6680578821568
 31
0.0
  0
LINE
  5
11C8
  8
3
 10
185.13824447338391
 20
138.42754730292049
 30
0.0
 11
185.16229553130771
 21
138.54780259253869
 31
0.0
  0
LINE
  5
11C9
  8
3
 10
184.8556445427815
 20
138.19906225264609
 30
0.0
 11
184.86165730726231
 21
138.0307048471808
 31
0.0
  0
LINE
  5
11CA
  8
3
 10
184.89172112966679
 20
137.9946282602954
 30
0.0
 11
184.8977338941479
 21
137.9946282602954
 31
0.0
  0
LINE
  5
11CB
  8
3
 10
184.87969560070491
 20
138.00064102477629
 30
0.0
 11
184.89172112966679
 21
137.9946282602954
 31
0.0
  0
LINE
  5
11CC
  8
3
 10
184.87368283622419
 20
138.00064102477629
 30
0.0
 11
184.87969560070491
 21
138.00064102477629
 31
0.0
  0
LINE
  5
11CD
  8
3
 10
184.87368283622419
 20
138.0066537892572
 30
0.0
 11
184.87368283622419
 21
138.00064102477629
 31
0.0
  0
LINE
  5
11CE
  8
3
 10
184.86767007174331
 20
138.01867931821911
 30
0.0
 11
184.87368283622419
 21
138.0066537892572
 31
0.0
  0
LINE
  5
11CF
  8
3
 10
184.86165730726231
 20
138.0307048471808
 30
0.0
 11
184.86767007174331
 21
138.01867931821911
 31
0.0
  0
LINE
  5
11D0
  8
3
 10
184.8556445427815
 20
138.5538153570196
 30
0.0
 11
184.8556445427815
 21
138.463623889806
 31
0.0
  0
LINE
  5
11D1
  8
3
 10
184.8556445427815
 20
138.463623889806
 30
0.0
 11
184.8556445427815
 21
138.3734324225924
 31
0.0
  0
LINE
  5
11D2
  8
3
 10
184.8556445427815
 20
138.28925371985969
 30
0.0
 11
184.8556445427815
 21
138.19906225264609
 31
0.0
  0
LINE
  5
11D3
  8
3
 10
184.8556445427815
 20
138.3734324225924
 30
0.0
 11
184.8556445427815
 21
138.28925371985969
 31
0.0
  0
LINE
  5
11D4
  8
3
 10
184.86165730726231
 20
138.73419829144669
 30
0.0
 11
184.86165730726231
 21
138.64400682423309
 31
0.0
  0
LINE
  5
11D5
  8
3
 10
184.86165730726231
 20
138.82438975866029
 30
0.0
 11
184.86165730726231
 21
138.73419829144669
 31
0.0
  0
LINE
  5
11D6
  8
3
 10
184.86165730726231
 20
138.64400682423309
 30
0.0
 11
184.8556445427815
 21
138.5538153570196
 31
0.0
  0
LINE
  5
11D7
  8
3
 10
184.99393812584231
 20
139.70225337287241
 30
0.0
 11
184.7654530755679
 21
139.67820231494881
 31
0.0
  0
LINE
  5
11D8
  8
3
 10
185.15027000234591
 20
139.55794702533069
 30
0.0
 11
185.14425723786479
 21
139.67820231494881
 31
0.0
  0
LINE
  5
11D9
  8
3
 10
185.16830829578851
 20
139.2753470947282
 30
0.0
 11
185.16229553130771
 21
139.3775640909036
 31
0.0
  0
LINE
  5
11DA
  8
3
 10
185.18033382475039
 20
138.9205939903548
 30
0.0
 11
185.18033382475039
 21
139.04084927997289
 31
0.0
  0
LINE
  5
11DB
  8
3
 10
185.18033382475039
 20
139.04084927997289
 30
0.0
 11
185.17432106026939
 21
139.161104569591
 31
0.0
  0
LINE
  5
11DC
  8
3
 10
185.17432106026939
 20
139.161104569591
 30
0.0
 11
185.16830829578851
 21
139.2753470947282
 31
0.0
  0
LINE
  5
11DD
  8
3
 10
185.15628276682671
 20
139.47376832259809
 30
0.0
 11
185.15027000234591
 21
139.55794702533069
 31
0.0
  0
LINE
  5
11DE
  8
3
 10
185.16229553130771
 20
139.3775640909036
 30
0.0
 11
185.15628276682671
 21
139.47376832259809
 31
0.0
  0
LINE
  5
11DF
  8
3
 10
185.18634658923131
 20
139.66016402150609
 30
0.0
 11
185.23444870507851
 21
139.64813849254429
 31
0.0
  0
LINE
  5
11E0
  8
3
 10
185.23444870507851
 20
139.64813849254429
 30
0.0
 11
185.28255082092571
 21
139.64212572806341
 31
0.0
  0
LINE
  5
11E1
  8
3
 10
185.28255082092571
 20
139.64212572806341
 30
0.0
 11
185.33065293677291
 21
139.63010019910161
 31
0.0
  0
LINE
  5
11E2
  8
3
 10
185.14425723786479
 20
139.67820231494881
 30
0.0
 11
185.18634658923131
 21
139.66016402150609
 31
0.0
  0
LINE
  5
11E3
  8
3
 10
185.22242317611671
 20
139.73832995975789
 30
0.0
 11
184.99393812584231
 21
139.70225337287241
 31
0.0
  0
LINE
  5
11E4
  8
3
 10
184.6812743728353
 20
139.41965344226989
 30
0.0
 11
184.72336372420159
 21
139.41965344226989
 31
0.0
  0
LINE
  5
11E5
  8
3
 10
184.72336372420159
 20
139.41965344226989
 30
0.0
 11
184.7654530755679
 21
139.41965344226989
 31
0.0
  0
LINE
  5
11E6
  8
3
 10
184.63317225698799
 20
139.41965344226989
 30
0.0
 11
184.6812743728353
 21
139.41965344226989
 31
0.0
  0
LINE
  5
11E7
  8
3
 10
184.4948786739271
 20
139.41965344226989
 30
0.0
 11
184.5429807897743
 21
139.41965344226989
 31
0.0
  0
LINE
  5
11E8
  8
3
 10
184.4527893225609
 20
139.41965344226989
 30
0.0
 11
184.4948786739271
 21
139.41965344226989
 31
0.0
  0
LINE
  5
11E9
  8
3
 10
184.58507014114079
 20
139.41965344226989
 30
0.0
 11
184.63317225698799
 21
139.41965344226989
 31
0.0
  0
LINE
  5
11EA
  8
3
 10
184.5429807897743
 20
139.41965344226989
 30
0.0
 11
184.58507014114079
 21
139.41965344226989
 31
0.0
  0
LINE
  5
11EB
  8
3
 10
184.84963177830059
 20
139.43167897123169
 30
0.0
 11
184.8556445427815
 21
139.34750026849909
 31
0.0
  0
LINE
  5
11EC
  8
3
 10
184.7654530755679
 20
139.41965344226989
 30
0.0
 11
184.84963177830059
 21
139.43167897123169
 31
0.0
  0
LINE
  5
11ED
  8
3
 10
184.86165730726231
 20
139.17914286303369
 30
0.0
 11
184.86165730726231
 21
139.08895139582009
 31
0.0
  0
LINE
  5
11EE
  8
3
 10
184.86165730726231
 20
139.00477269308749
 30
0.0
 11
184.86165730726231
 21
138.91458122587389
 31
0.0
  0
LINE
  5
11EF
  8
3
 10
184.86165730726231
 20
139.08895139582009
 30
0.0
 11
184.86165730726231
 21
139.00477269308749
 31
0.0
  0
LINE
  5
11F0
  8
3
 10
184.86165730726231
 20
139.26332156576629
 30
0.0
 11
184.86165730726231
 21
139.17914286303369
 31
0.0
  0
LINE
  5
11F1
  8
3
 10
184.8556445427815
 20
139.34750026849909
 30
0.0
 11
184.86165730726231
 21
139.26332156576629
 31
0.0
  0
LINE
  5
11F2
  8
3
 10
184.7654530755679
 20
139.67820231494881
 30
0.0
 11
184.5309552608125
 21
139.66617678598701
 31
0.0
  0
LINE
  5
11F3
  8
3
 10
183.5027725345777
 20
137.1588539974496
 30
0.0
 11
183.31036407118879
 21
137.3332241673958
 31
0.0
  0
LINE
  5
11F4
  8
3
 10
183.54486188594419
 20
137.13480293952591
 30
0.0
 11
183.5027725345777
 21
137.1588539974496
 31
0.0
  0
LINE
  5
11F5
  8
3
 10
184.06195963130199
 20
136.87024130236611
 30
0.0
 11
183.96575539960759
 21
136.90030512477071
 31
0.0
  0
LINE
  5
11F6
  8
3
 10
184.25436809469099
 20
136.82213918651891
 30
0.0
 11
184.1521510985155
 21
136.84619024444251
 31
0.0
  0
LINE
  5
11F7
  8
3
 10
184.3505723263855
 20
136.81011365755711
 30
0.0
 11
184.25436809469099
 21
136.82213918651891
 31
0.0
  0
LINE
  5
11F8
  8
3
 10
184.1521510985155
 20
136.84619024444251
 30
0.0
 11
184.06195963130199
 21
136.87024130236611
 31
0.0
  0
LINE
  5
11F9
  8
3
 10
183.96575539960759
 20
136.90030512477071
 30
0.0
 11
183.7793597006995
 21
136.9784710630224
 31
0.0
  0
LINE
  5
11FA
  8
3
 10
183.56290017938699
 20
137.12879017504511
 30
0.0
 11
183.54486188594419
 21
137.13480293952591
 31
0.0
  0
LINE
  5
11FB
  8
3
 10
183.5749257083487
 20
137.1167646460832
 30
0.0
 11
183.56290017938699
 21
137.12879017504511
 31
0.0
  0
LINE
  5
11FC
  8
3
 10
183.59296400179139
 20
137.1047391171214
 30
0.0
 11
183.5749257083487
 21
137.1167646460832
 31
0.0
  0
LINE
  5
11FD
  8
3
 10
183.6110022952341
 20
137.0927135881596
 30
0.0
 11
183.59296400179139
 21
137.1047391171214
 31
0.0
  0
LINE
  5
11FE
  8
3
 10
183.6230278241959
 20
137.08670082367871
 30
0.0
 11
183.6110022952341
 21
137.0927135881596
 31
0.0
  0
LINE
  5
11FF
  8
3
 10
183.6410661176387
 20
137.07467529471691
 30
0.0
 11
183.6230278241959
 21
137.08670082367871
 31
0.0
  0
LINE
  5
1200
  8
3
 10
183.6591044110813
 20
137.06264976575511
 30
0.0
 11
183.6410661176387
 21
137.07467529471691
 31
0.0
  0
LINE
  5
1201
  8
3
 10
183.67714270452399
 20
137.05062423679331
 30
0.0
 11
183.6591044110813
 21
137.06264976575511
 31
0.0
  0
LINE
  5
1202
  8
3
 10
183.6891682334857
 20
137.0385987078314
 30
0.0
 11
183.67714270452399
 21
137.05062423679331
 31
0.0
  0
LINE
  5
1203
  8
3
 10
183.70720652692859
 20
137.02657317886971
 30
0.0
 11
183.6891682334857
 21
137.0385987078314
 31
0.0
  0
LINE
  5
1204
  8
3
 10
183.76132140725679
 20
136.9904965919842
 30
0.0
 11
183.7432831138139
 21
137.002522120946
 31
0.0
  0
LINE
  5
1205
  8
3
 10
183.7793597006995
 20
136.9784710630224
 30
0.0
 11
183.76132140725679
 21
136.9904965919842
 31
0.0
  0
LINE
  5
1206
  8
3
 10
183.7432831138139
 20
137.002522120946
 30
0.0
 11
183.7252448203713
 21
137.0145476499078
 31
0.0
  0
LINE
  5
1207
  8
3
 10
183.7252448203713
 20
137.0145476499078
 30
0.0
 11
183.70720652692859
 21
137.02657317886971
 31
0.0
  0
LINE
  5
1208
  8
3
 10
183.7913852296611
 20
139.67218955046789
 30
0.0
 11
183.5208108280205
 21
139.68421507942969
 31
0.0
  0
LINE
  5
1209
  8
3
 10
182.8654194996017
 20
139.52187043844529
 30
0.0
 11
183.9056277547985
 21
139.50984490948349
 31
0.0
  0
LINE
  5
120A
  8
3
 10
184.1401255695537
 20
138.07279419854709
 30
0.0
 11
184.1461383340347
 21
139.3895896198654
 31
0.0
  0
LINE
  5
120B
  8
3
 10
183.9236660482411
 20
138.84844081658389
 30
0.0
 11
183.9176532837603
 21
138.74622382040849
 31
0.0
  0
LINE
  5
120C
  8
3
 10
183.96575539960759
 20
138.28925371985969
 30
0.0
 11
184.0018319864929
 21
138.205075017127
 31
0.0
  0
LINE
  5
120D
  8
3
 10
184.0018319864929
 20
138.205075017127
 30
0.0
 11
184.1040489826683
 21
138.0607686695854
 31
0.0
  0
LINE
  5
120E
  8
3
 10
184.1401255695537
 20
138.0667814340662
 30
0.0
 11
184.1401255695537
 21
138.07279419854709
 31
0.0
  0
LINE
  5
120F
  8
3
 10
184.13411280507279
 20
138.0667814340662
 30
0.0
 11
184.1401255695537
 21
138.0667814340662
 31
0.0
  0
LINE
  5
1210
  8
3
 10
184.13411280507279
 20
138.0607686695854
 30
0.0
 11
184.13411280507279
 21
138.0667814340662
 31
0.0
  0
LINE
  5
1211
  8
3
 10
184.12810004059199
 20
138.0607686695854
 30
0.0
 11
184.13411280507279
 21
138.0607686695854
 31
0.0
  0
LINE
  5
1212
  8
3
 10
184.1220872761111
 20
138.0607686695854
 30
0.0
 11
184.12810004059199
 21
138.0607686695854
 31
0.0
  0
LINE
  5
1213
  8
3
 10
184.1160745116301
 20
138.0607686695854
 30
0.0
 11
184.1220872761111
 21
138.0607686695854
 31
0.0
  0
LINE
  5
1214
  8
3
 10
184.11006174714919
 20
138.0607686695854
 30
0.0
 11
184.1160745116301
 21
138.0607686695854
 31
0.0
  0
LINE
  5
1215
  8
3
 10
184.1040489826683
 20
138.0607686695854
 30
0.0
 11
184.11006174714919
 21
138.0607686695854
 31
0.0
  0
LINE
  5
1216
  8
3
 10
183.9417043416839
 20
138.3734324225924
 30
0.0
 11
183.96575539960759
 21
138.28925371985969
 31
0.0
  0
LINE
  5
1217
  8
3
 10
183.9176532837603
 20
138.55982812150049
 30
0.0
 11
183.9296788127221
 21
138.463623889806
 31
0.0
  0
LINE
  5
1218
  8
3
 10
183.9176532837603
 20
138.65001958871409
 30
0.0
 11
183.9176532837603
 21
138.55982812150049
 31
0.0
  0
LINE
  5
1219
  8
3
 10
183.9176532837603
 20
138.74622382040849
 30
0.0
 11
183.9176532837603
 21
138.65001958871409
 31
0.0
  0
LINE
  5
121A
  8
3
 10
183.9296788127221
 20
138.463623889806
 30
0.0
 11
183.9417043416839
 21
138.3734324225924
 31
0.0
  0
LINE
  5
121B
  8
3
 10
184.04392133785919
 20
139.66617678598701
 30
0.0
 11
183.7913852296611
 21
139.67218955046789
 31
0.0
  0
LINE
  5
121C
  8
3
 10
184.3625978553473
 20
139.41965344226989
 30
0.0
 11
184.4046872067135
 21
139.41965344226989
 31
0.0
  0
LINE
  5
121D
  8
3
 10
184.31449573949999
 20
139.413640677789
 30
0.0
 11
184.3625978553473
 21
139.41965344226989
 31
0.0
  0
LINE
  5
121E
  8
3
 10
184.27240638813359
 20
139.413640677789
 30
0.0
 11
184.31449573949999
 21
139.413640677789
 31
0.0
  0
LINE
  5
121F
  8
3
 10
184.2303170367675
 20
139.40762791330809
 30
0.0
 11
184.27240638813359
 21
139.413640677789
 31
0.0
  0
LINE
  5
1220
  8
3
 10
184.18822768540099
 20
139.39560238434629
 30
0.0
 11
184.2303170367675
 21
139.40762791330809
 31
0.0
  0
LINE
  5
1221
  8
3
 10
184.1461383340347
 20
139.3895896198654
 30
0.0
 11
184.18822768540099
 21
139.39560238434629
 31
0.0
  0
LINE
  5
1222
  8
3
 10
184.29645744605719
 20
139.66016402150609
 30
0.0
 11
184.04392133785919
 21
139.66617678598701
 31
0.0
  0
LINE
  5
1223
  8
3
 10
183.9296788127221
 20
139.04084927997289
 30
0.0
 11
183.9296788127221
 21
138.9446450482784
 31
0.0
  0
LINE
  5
1224
  8
3
 10
183.9296788127221
 20
138.9446450482784
 30
0.0
 11
183.9236660482411
 21
138.84844081658389
 31
0.0
  0
LINE
  5
1225
  8
3
 10
183.9056277547985
 20
139.50984490948349
 30
0.0
 11
183.9236660482411
 21
139.41965344226989
 31
0.0
  0
LINE
  5
1226
  8
3
 10
183.93569157720299
 20
139.32946197505629
 30
0.0
 11
183.93569157720299
 21
139.23325774336189
 31
0.0
  0
LINE
  5
1227
  8
3
 10
183.93569157720299
 20
139.23325774336189
 30
0.0
 11
183.93569157720299
 21
139.1370535116674
 31
0.0
  0
LINE
  5
1228
  8
3
 10
183.9236660482411
 20
139.41965344226989
 30
0.0
 11
183.93569157720299
 21
139.32946197505629
 31
0.0
  0
LINE
  5
1229
  8
3
 10
183.93569157720299
 20
139.1370535116674
 30
0.0
 11
183.9296788127221
 21
139.04084927997289
 31
0.0
  0
LINE
  5
122A
  8
3
 10
182.87143226408281
 20
138.4095090094778
 30
0.0
 11
182.8654194996017
 21
139.52187043844529
 31
0.0
  0
LINE
  5
122B
  8
3
 10
183.0818790209145
 20
137.6639262138456
 30
0.0
 11
183.0698534919527
 21
137.68196450728831
 31
0.0
  0
LINE
  5
122C
  8
3
 10
183.09991731435721
 20
137.6278496269602
 30
0.0
 11
183.09390454987621
 21
137.64588792040291
 31
0.0
  0
LINE
  5
122D
  8
3
 10
183.12396837228081
 20
137.57974751111291
 30
0.0
 11
183.09991731435721
 21
137.6278496269602
 31
0.0
  0
LINE
  5
122E
  8
3
 10
183.1420066657235
 20
137.5617092176702
 30
0.0
 11
183.12396837228081
 21
137.57974751111291
 31
0.0
  0
LINE
  5
122F
  8
3
 10
183.1540321946853
 20
137.53765815974651
 30
0.0
 11
183.1420066657235
 21
137.5617092176702
 31
0.0
  0
LINE
  5
1230
  8
3
 10
183.16605772364721
 20
137.51961986630391
 30
0.0
 11
183.1540321946853
 21
137.53765815974651
 31
0.0
  0
LINE
  5
1231
  8
3
 10
183.17808325260901
 20
137.5015815728612
 30
0.0
 11
183.16605772364721
 21
137.51961986630391
 31
0.0
  0
LINE
  5
1232
  8
3
 10
183.19010878157081
 20
137.4835432794184
 30
0.0
 11
183.17808325260901
 21
137.5015815728612
 31
0.0
  0
LINE
  5
1233
  8
3
 10
183.09390454987621
 20
137.64588792040291
 30
0.0
 11
183.0818790209145
 21
137.6639262138456
 31
0.0
  0
LINE
  5
1234
  8
3
 10
183.22017260397519
 20
137.45347945701391
 30
0.0
 11
183.20814707501339
 21
137.4715177504566
 31
0.0
  0
LINE
  5
1235
  8
3
 10
183.2321981329371
 20
137.4354411635712
 30
0.0
 11
183.22017260397519
 21
137.45347945701391
 31
0.0
  0
LINE
  5
1236
  8
3
 10
183.2502364263797
 20
137.41740287012851
 30
0.0
 11
183.2321981329371
 21
137.4354411635712
 31
0.0
  0
LINE
  5
1237
  8
3
 10
183.26226195534159
 20
137.3993645766858
 30
0.0
 11
183.2502364263797
 21
137.41740287012851
 31
0.0
  0
LINE
  5
1238
  8
3
 10
183.28631301326519
 20
137.3693007542812
 30
0.0
 11
183.27428748430339
 21
137.38733904772391
 31
0.0
  0
LINE
  5
1239
  8
3
 10
183.2983385422269
 20
137.35126246083851
 30
0.0
 11
183.28631301326519
 21
137.3693007542812
 31
0.0
  0
LINE
  5
123A
  8
3
 10
183.31036407118879
 20
137.3332241673958
 30
0.0
 11
183.2983385422269
 21
137.35126246083851
 31
0.0
  0
LINE
  5
123B
  8
3
 10
183.27428748430339
 20
137.38733904772391
 30
0.0
 11
183.26226195534159
 21
137.3993645766858
 31
0.0
  0
LINE
  5
123C
  8
3
 10
183.20814707501339
 20
137.4715177504566
 30
0.0
 11
183.19010878157081
 21
137.4835432794184
 31
0.0
  0
LINE
  5
123D
  8
3
 10
182.9135216154491
 20
138.078806963028
 30
0.0
 11
182.9075088509681
 21
138.11488354991349
 31
0.0
  0
LINE
  5
123E
  8
3
 10
182.91953437993001
 20
138.04874314062349
 30
0.0
 11
182.9135216154491
 21
138.078806963028
 31
0.0
  0
LINE
  5
123F
  8
3
 10
182.92554714441101
 20
138.01867931821911
 30
0.0
 11
182.91953437993001
 21
138.04874314062349
 31
0.0
  0
LINE
  5
1240
  8
3
 10
182.93155990889181
 20
137.98861549581451
 30
0.0
 11
182.92554714441101
 21
138.01867931821911
 31
0.0
  0
LINE
  5
1241
  8
3
 10
182.93757267337261
 20
137.95855167341
 30
0.0
 11
182.93155990889181
 21
137.98861549581451
 31
0.0
  0
LINE
  5
1242
  8
3
 10
182.9435854378537
 20
137.9284878510054
 30
0.0
 11
182.93757267337261
 21
137.95855167341
 31
0.0
  0
LINE
  5
1243
  8
3
 10
182.96763649577721
 20
137.89241126412
 30
0.0
 11
182.9435854378537
 21
137.9284878510054
 31
0.0
  0
LINE
  5
1244
  8
3
 10
182.9796620247391
 20
137.87437297067731
 30
0.0
 11
182.96763649577721
 21
137.89241126412
 31
0.0
  0
LINE
  5
1245
  8
3
 10
182.99168755370081
 20
137.85633467723451
 30
0.0
 11
182.9796620247391
 21
137.87437297067731
 31
0.0
  0
LINE
  5
1246
  8
3
 10
182.99770031818181
 20
137.83829638379191
 30
0.0
 11
182.99168755370081
 21
137.85633467723451
 31
0.0
  0
LINE
  5
1247
  8
3
 10
183.00972584714361
 20
137.82025809034911
 30
0.0
 11
182.99770031818181
 21
137.83829638379191
 31
0.0
  0
LINE
  5
1248
  8
3
 10
183.01573861162441
 20
137.79620703242551
 30
0.0
 11
183.00972584714361
 21
137.82025809034911
 31
0.0
  0
LINE
  5
1249
  8
3
 10
183.02175137610541
 20
137.7781687389828
 30
0.0
 11
183.01573861162441
 21
137.79620703242551
 31
0.0
  0
LINE
  5
124A
  8
3
 10
183.0397896695481
 20
137.7420921520974
 30
0.0
 11
183.0337769050671
 21
137.76013044554011
 31
0.0
  0
LINE
  5
124B
  8
3
 10
183.05181519850979
 20
137.7240538586546
 30
0.0
 11
183.0397896695481
 21
137.7420921520974
 31
0.0
  0
LINE
  5
124C
  8
3
 10
183.0578279629909
 20
137.700002800731
 30
0.0
 11
183.05181519850979
 21
137.7240538586546
 31
0.0
  0
LINE
  5
124D
  8
3
 10
183.0698534919527
 20
137.68196450728831
 30
0.0
 11
183.0578279629909
 21
137.700002800731
 31
0.0
  0
LINE
  5
124E
  8
3
 10
183.0337769050671
 20
137.76013044554011
 30
0.0
 11
183.02175137610541
 21
137.7781687389828
 31
0.0
  0
LINE
  5
124F
  8
3
 10
182.9075088509681
 20
138.11488354991349
 30
0.0
 11
182.90149608648721
 21
138.14494737231809
 31
0.0
  0
LINE
  5
1250
  8
3
 10
182.87143226408281
 20
138.4095090094778
 30
0.0
 11
182.87143226408281
 21
138.4095090094778
 31
0.0
  0
LINE
  5
1251
  8
3
 10
182.87744502856381
 20
138.31931754226429
 30
0.0
 11
182.87744502856381
 21
138.34938136466869
 31
0.0
  0
LINE
  5
1252
  8
3
 10
182.88345779304461
 20
138.28925371985969
 30
0.0
 11
182.87744502856381
 21
138.31931754226429
 31
0.0
  0
LINE
  5
1253
  8
3
 10
182.88947055752541
 20
138.26520266193609
 30
0.0
 11
182.88345779304461
 21
138.28925371985969
 31
0.0
  0
LINE
  5
1254
  8
3
 10
182.88947055752541
 20
138.2351388395316
 30
0.0
 11
182.88947055752541
 21
138.26520266193609
 31
0.0
  0
LINE
  5
1255
  8
3
 10
182.89548332200641
 20
138.205075017127
 30
0.0
 11
182.88947055752541
 21
138.2351388395316
 31
0.0
  0
LINE
  5
1256
  8
3
 10
182.90149608648721
 20
138.17501119472249
 30
0.0
 11
182.89548332200641
 21
138.205075017127
 31
0.0
  0
LINE
  5
1257
  8
3
 10
182.90149608648721
 20
138.14494737231809
 30
0.0
 11
182.90149608648721
 21
138.17501119472249
 31
0.0
  0
LINE
  5
1258
  8
3
 10
182.87744502856381
 20
138.34938136466869
 30
0.0
 11
182.87143226408281
 21
138.4095090094778
 31
0.0
  0
LINE
  5
1259
  8
3
 10
183.2321981329371
 20
139.69022784391069
 30
0.0
 11
183.0818790209145
 21
139.69323422615111
 31
0.0
  0
LINE
  5
125A
  8
3
 10
183.5208108280205
 20
139.68421507942969
 30
0.0
 11
183.2321981329371
 21
139.69022784391069
 31
0.0
  0
LINE
  5
125B
  8
3
 10
184.42873826463719
 20
143.53839711168999
 30
0.0
 11
184.4708276160035
 21
143.53839711168999
 31
0.0
  0
LINE
  5
125C
  8
3
 10
184.4948786739271
 20
143.9352395674297
 30
0.0
 11
184.4347510291181
 21
143.91720127398699
 31
0.0
  0
LINE
  5
125D
  8
3
 10
184.4708276160035
 20
145.6007753286404
 30
0.0
 11
184.42272550015639
 21
145.624826386564
 31
0.0
  0
LINE
  5
125E
  8
3
 10
184.4347510291181
 20
145.09570311224439
 30
0.0
 11
184.46481485152259
 21
145.12576693464891
 31
0.0
  0
LINE
  5
125F
  8
3
 10
184.44677655807979
 20
140.92885732697709
 30
0.0
 11
184.3986744422327
 21
140.92885732697709
 31
0.0
  0
LINE
  5
1260
  8
3
 10
184.26038085917179
 20
140.77252545047361
 30
0.0
 11
184.45880208704159
 21
140.77252545047361
 31
0.0
  0
LINE
  5
1261
  8
3
 10
185.31261464333019
 20
143.3640269417437
 30
0.0
 11
185.30660187884939
 21
143.47225670239999
 31
0.0
  0
LINE
  5
1262
  8
3
 10
186.20250378650439
 20
143.3820652351865
 30
0.0
 11
186.2265548444278
 21
143.3038992969347
 31
0.0
  0
LINE
  5
1263
  8
3
 10
184.94583600999499
 20
143.5444098761709
 30
0.0
 11
184.95184877447591
 21
142.16748681004361
 31
0.0
  0
LINE
  5
1264
  8
3
 10
185.35470399469659
 20
140.88676797561081
 30
0.0
 11
185.39078058158219
 21
140.89879350457261
 31
0.0
  0
LINE
  5
1265
  8
3
 10
185.41483163950579
 20
141.13930408380881
 30
0.0
 11
185.34869123021571
 21
141.1032274969233
 31
0.0
  0
LINE
  5
1266
  8
3
 10
186.09427402584791
 20
141.8908996439219
 30
0.0
 11
186.07623573240531
 21
141.86083582151741
 31
0.0
  0
LINE
  5
1267
  8
3
 10
185.84173791764999
 20
141.5000699526631
 30
0.0
 11
185.78762303732179
 21
141.4399423078541
 31
0.0
  0
LINE
  5
1268
  8
3
 10
185.79964856628359
 20
141.09120196796161
 30
0.0
 11
185.83572515316899
 21
141.11525302588521
 31
0.0
  0
LINE
  5
1269
  8
3
 10
186.15440167065711
 20
141.3738018985641
 30
0.0
 11
186.22054207994699
 21
141.4399423078541
 31
0.0
  0
LINE
  5
126A
  8
3
 10
186.11832508377151
 20
141.34373807615961
 30
0.0
 11
186.15440167065711
 21
141.3738018985641
 31
0.0
  0
LINE
  5
126B
  8
3
 10
186.08224849688619
 20
141.31367425375501
 30
0.0
 11
186.11832508377151
 21
141.34373807615961
 31
0.0
  0
LINE
  5
126C
  8
3
 10
185.93794214934451
 20
141.6383635357239
 30
0.0
 11
185.88984003349731
 21
141.5662103619531
 31
0.0
  0
LINE
  5
126D
  8
3
 10
185.88984003349731
 20
141.5662103619531
 30
0.0
 11
185.84173791764999
 21
141.5000699526631
 31
0.0
  0
LINE
  5
126E
  8
3
 10
185.98003150071071
 20
141.69849118053301
 30
0.0
 11
185.93794214934451
 21
141.6383635357239
 31
0.0
  0
LINE
  5
126F
  8
3
 10
186.00408255863439
 20
141.7285550029375
 30
0.0
 11
185.98003150071071
 21
141.69849118053301
 31
0.0
  0
LINE
  5
1270
  8
3
 10
186.02212085207699
 20
141.7646315898229
 30
0.0
 11
186.00408255863439
 21
141.7285550029375
 31
0.0
  0
LINE
  5
1271
  8
3
 10
186.04015914551971
 20
141.7946954122275
 30
0.0
 11
186.02212085207699
 21
141.7646315898229
 31
0.0
  0
LINE
  5
1272
  8
3
 10
186.05819743896251
 20
141.82475923463201
 30
0.0
 11
186.04015914551971
 21
141.7946954122275
 31
0.0
  0
LINE
  5
1273
  8
3
 10
186.07623573240531
 20
141.86083582151741
 30
0.0
 11
186.05819743896251
 21
141.82475923463201
 31
0.0
  0
LINE
  5
1274
  8
3
 10
186.01610808759619
 20
141.25354660894601
 30
0.0
 11
186.05218467448159
 21
141.2836104313505
 31
0.0
  0
LINE
  5
1275
  8
3
 10
185.98003150071071
 20
141.22348278654141
 30
0.0
 11
186.01610808759619
 21
141.25354660894601
 31
0.0
  0
LINE
  5
1276
  8
3
 10
185.94996767830611
 20
141.19943172861781
 30
0.0
 11
185.98003150071071
 21
141.22348278654141
 31
0.0
  0
LINE
  5
1277
  8
3
 10
185.91389109142079
 20
141.1693679062133
 30
0.0
 11
185.94996767830611
 21
141.19943172861781
 31
0.0
  0
LINE
  5
1278
  8
3
 10
185.87781450453531
 20
141.1453168482897
 30
0.0
 11
185.91389109142079
 21
141.1693679062133
 31
0.0
  0
LINE
  5
1279
  8
3
 10
185.83572515316899
 20
141.11525302588521
 30
0.0
 11
185.87781450453531
 21
141.1453168482897
 31
0.0
  0
LINE
  5
127A
  8
3
 10
186.05218467448159
 20
141.2836104313505
 30
0.0
 11
186.08224849688619
 21
141.31367425375501
 31
0.0
  0
LINE
  5
127B
  8
3
 10
185.42685716846739
 20
140.9108190335343
 30
0.0
 11
185.46293375535291
 21
140.92284456249621
 31
0.0
  0
LINE
  5
127C
  8
3
 10
185.39078058158219
 20
140.89879350457261
 30
0.0
 11
185.42685716846739
 21
140.9108190335343
 31
0.0
  0
LINE
  5
127D
  8
3
 10
185.56515075152819
 20
140.96493391386261
 30
0.0
 11
185.61926563185651
 21
141.0010105007479
 31
0.0
  0
LINE
  5
127E
  8
3
 10
185.52907416464279
 20
140.9529083849007
 30
0.0
 11
185.56515075152819
 21
140.96493391386261
 31
0.0
  0
LINE
  5
127F
  8
3
 10
185.49901034223831
 20
140.9408828559389
 30
0.0
 11
185.52907416464279
 21
140.9529083849007
 31
0.0
  0
LINE
  5
1280
  8
3
 10
185.46293375535291
 20
140.92284456249621
 30
0.0
 11
185.49901034223831
 21
140.9408828559389
 31
0.0
  0
LINE
  5
1281
  8
3
 10
185.75755921491719
 20
141.0671509100379
 30
0.0
 11
185.79964856628359
 21
141.09120196796161
 31
0.0
  0
LINE
  5
1282
  8
3
 10
185.71546986355079
 20
141.0430998521143
 30
0.0
 11
185.75755921491719
 21
141.0671509100379
 31
0.0
  0
LINE
  5
1283
  8
3
 10
185.66736774770371
 20
141.0190487941907
 30
0.0
 11
185.71546986355079
 21
141.0430998521143
 31
0.0
  0
LINE
  5
1284
  8
3
 10
185.61926563185651
 20
141.0010105007479
 30
0.0
 11
185.66736774770371
 21
141.0190487941907
 31
0.0
  0
LINE
  5
1285
  8
3
 10
185.78762303732179
 20
141.4399423078541
 30
0.0
 11
185.73350815699359
 21
141.37981466304501
 31
0.0
  0
LINE
  5
1286
  8
3
 10
185.73350815699359
 20
141.37981466304501
 30
0.0
 11
185.67338051218459
 21
141.32569978271681
 31
0.0
  0
LINE
  5
1287
  8
3
 10
185.48698481327651
 20
141.1813934351751
 30
0.0
 11
185.41483163950579
 21
141.13930408380881
 31
0.0
  0
LINE
  5
1288
  8
3
 10
185.61325286737551
 20
141.2715849023887
 30
0.0
 11
185.54711245808551
 21
141.2294955510223
 31
0.0
  0
LINE
  5
1289
  8
3
 10
185.54711245808551
 20
141.2294955510223
 30
0.0
 11
185.48698481327651
 21
141.1813934351751
 31
0.0
  0
LINE
  5
128A
  8
3
 10
185.67338051218459
 20
141.32569978271681
 30
0.0
 11
185.61325286737551
 21
141.2715849023887
 31
0.0
  0
LINE
  5
128B
  8
3
 10
186.2686441957942
 20
142.66053349747779
 30
0.0
 11
186.2626314313132
 21
142.5763547947451
 31
0.0
  0
LINE
  5
128C
  8
3
 10
186.2626314313132
 20
142.5763547947451
 30
0.0
 11
186.2506059023514
 21
142.4921760920125
 31
0.0
  0
LINE
  5
128D
  8
3
 10
186.16642719961871
 20
142.06526981386821
 30
0.0
 11
186.15440167065711
 21
142.0291932269827
 31
0.0
  0
LINE
  5
128E
  8
3
 10
186.18446549306159
 20
142.10134640075361
 30
0.0
 11
186.16642719961871
 21
142.06526981386821
 31
0.0
  0
LINE
  5
128F
  8
3
 10
186.19649102202331
 20
142.13742298763901
 30
0.0
 11
186.18446549306159
 21
142.10134640075361
 31
0.0
  0
LINE
  5
1290
  8
3
 10
186.20250378650439
 20
142.17951233900541
 30
0.0
 11
186.19649102202331
 21
142.13742298763901
 31
0.0
  0
LINE
  5
1291
  8
3
 10
186.2265548444278
 20
142.3358442155089
 30
0.0
 11
186.20250378650439
 21
142.17951233900541
 31
0.0
  0
LINE
  5
1292
  8
3
 10
186.23858037338971
 20
142.41401015376059
 30
0.0
 11
186.2265548444278
 21
142.3358442155089
 31
0.0
  0
LINE
  5
1293
  8
3
 10
186.14237614169519
 20
141.9931166400973
 30
0.0
 11
186.12433784825251
 21
141.9570400532119
 31
0.0
  0
LINE
  5
1294
  8
3
 10
186.11231231929071
 20
141.92697623080741
 30
0.0
 11
186.09427402584791
 21
141.8908996439219
 31
0.0
  0
LINE
  5
1295
  8
3
 10
186.12433784825251
 20
141.9570400532119
 30
0.0
 11
186.11231231929071
 21
141.92697623080741
 31
0.0
  0
LINE
  5
1296
  8
3
 10
186.15440167065711
 20
142.0291932269827
 30
0.0
 11
186.14237614169519
 21
141.9931166400973
 31
0.0
  0
LINE
  5
1297
  8
3
 10
186.2506059023514
 20
142.4921760920125
 30
0.0
 11
186.23858037338971
 21
142.41401015376059
 31
0.0
  0
LINE
  5
1298
  8
3
 10
186.2265548444278
 20
143.3038992969347
 30
0.0
 11
186.2506059023514
 21
143.23174612316379
 31
0.0
  0
LINE
  5
1299
  8
3
 10
186.2506059023514
 20
143.23174612316379
 30
0.0
 11
186.2626314313132
 21
143.1475674204311
 31
0.0
  0
LINE
  5
129A
  8
3
 10
185.04805300617039
 20
140.98297220730529
 30
0.0
 11
184.88570836518599
 21
140.9408828559389
 31
0.0
  0
LINE
  5
129B
  8
3
 10
184.7895041334915
 20
140.78455097943541
 30
0.0
 11
184.90975942310959
 21
140.78455097943541
 31
0.0
  0
LINE
  5
129C
  8
3
 10
185.20438488267399
 20
140.83866585976361
 30
0.0
 11
185.24647423404031
 21
140.85069138872529
 31
0.0
  0
LINE
  5
129D
  8
3
 10
185.27653805644491
 20
141.0671509100379
 30
0.0
 11
185.20438488267399
 21
141.03708708763341
 31
0.0
  0
LINE
  5
129E
  8
3
 10
185.24647423404031
 20
140.85069138872529
 30
0.0
 11
185.28255082092571
 21
140.8627169176871
 31
0.0
  0
LINE
  5
129F
  8
3
 10
185.31862740781119
 20
140.87474244664901
 30
0.0
 11
185.35470399469659
 21
140.88676797561081
 31
0.0
  0
LINE
  5
12A0
  8
3
 10
185.28255082092571
 20
140.8627169176871
 30
0.0
 11
185.31862740781119
 21
140.87474244664901
 31
0.0
  0
LINE
  5
12A1
  8
3
 10
185.34869123021571
 20
141.1032274969233
 30
0.0
 11
185.27653805644491
 21
141.0671509100379
 31
0.0
  0
LINE
  5
12A2
  8
3
 10
185.12621894442219
 20
141.0070232652289
 30
0.0
 11
185.04805300617039
 21
140.98297220730529
 31
0.0
  0
LINE
  5
12A3
  8
3
 10
185.20438488267399
 20
141.03708708763341
 30
0.0
 11
185.12621894442219
 21
141.0070232652289
 31
0.0
  0
LINE
  5
12A4
  8
3
 10
184.90975942310959
 20
140.78455097943541
 30
0.0
 11
185.04805300617039
 21
140.79657650839721
 31
0.0
  0
LINE
  5
12A5
  8
3
 10
185.09014235753691
 20
140.80258927287809
 30
0.0
 11
185.12621894442219
 21
140.81461480183989
 31
0.0
  0
LINE
  5
12A6
  8
3
 10
185.04805300617039
 20
140.79657650839721
 30
0.0
 11
185.09014235753691
 21
140.80258927287809
 31
0.0
  0
LINE
  5
12A7
  8
3
 10
185.16830829578851
 20
140.82664033080169
 30
0.0
 11
185.20438488267399
 21
140.83866585976361
 31
0.0
  0
LINE
  5
12A8
  8
3
 10
185.12621894442219
 20
140.81461480183989
 30
0.0
 11
185.16830829578851
 21
140.82664033080169
 31
0.0
  0
LINE
  5
12A9
  8
3
 10
184.63918502146879
 20
140.77853821495449
 30
0.0
 11
184.7895041334915
 21
140.78455097943541
 31
0.0
  0
LINE
  5
12AA
  8
3
 10
184.72336372420159
 20
140.92284456249621
 30
0.0
 11
184.66924884387339
 21
140.92284456249621
 31
0.0
  0
LINE
  5
12AB
  8
3
 10
184.77747860452959
 20
140.92885732697709
 30
0.0
 11
184.72336372420159
 21
140.92284456249621
 31
0.0
  0
LINE
  5
12AC
  8
3
 10
184.66924884387339
 20
140.92284456249621
 30
0.0
 11
184.6091211990643
 21
140.92284456249621
 31
0.0
  0
LINE
  5
12AD
  8
3
 10
184.5008914384081
 20
140.92284456249621
 30
0.0
 11
184.44677655807979
 21
140.92885732697709
 31
0.0
  0
LINE
  5
12AE
  8
3
 10
184.6091211990643
 20
140.92284456249621
 30
0.0
 11
184.5550063187363
 21
140.92284456249621
 31
0.0
  0
LINE
  5
12AF
  8
3
 10
184.45880208704159
 20
140.77252545047361
 30
0.0
 11
184.63918502146879
 21
140.77853821495449
 31
0.0
  0
LINE
  5
12B0
  8
3
 10
184.5550063187363
 20
140.92284456249621
 30
0.0
 11
184.5008914384081
 21
140.92284456249621
 31
0.0
  0
LINE
  5
12B1
  8
3
 10
184.83159348485779
 20
140.92885732697709
 30
0.0
 11
184.77747860452959
 21
140.92885732697709
 31
0.0
  0
LINE
  5
12B2
  8
3
 10
184.88570836518599
 20
140.9408828559389
 30
0.0
 11
184.83159348485779
 21
140.92885732697709
 31
0.0
  0
LINE
  5
12B3
  8
3
 10
185.27653805644491
 20
142.59439308818779
 30
0.0
 11
185.28255082092571
 21
142.70863561332499
 31
0.0
  0
LINE
  5
12B4
  8
3
 10
185.22242317611671
 20
142.43204844720341
 30
0.0
 11
185.24046146955931
 21
142.4500867406461
 31
0.0
  0
LINE
  5
12B5
  8
3
 10
185.25849976300231
 20
142.48616332753161
 30
0.0
 11
185.27653805644491
 21
142.59439308818779
 31
0.0
  0
LINE
  5
12B6
  8
3
 10
185.24046146955931
 20
142.4500867406461
 30
0.0
 11
185.25849976300231
 21
142.48616332753161
 31
0.0
  0
LINE
  5
12B7
  8
3
 10
184.95184877447591
 20
142.16748681004361
 30
0.0
 11
184.96988706791859
 21
142.16748681004361
 31
0.0
  0
LINE
  5
12B8
  8
3
 10
185.01197641928499
 20
142.1855251034863
 30
0.0
 11
185.03602747720859
 21
142.20356339692901
 31
0.0
  0
LINE
  5
12B9
  8
3
 10
184.99393812584231
 20
142.1734995745245
 30
0.0
 11
185.01197641928499
 21
142.1855251034863
 31
0.0
  0
LINE
  5
12BA
  8
3
 10
184.96988706791859
 20
142.16748681004361
 30
0.0
 11
184.99393812584231
 21
142.1734995745245
 31
0.0
  0
LINE
  5
12BB
  8
3
 10
185.10216788649859
 20
142.2757165706999
 30
0.0
 11
185.12621894442219
 21
142.2997676286235
 31
0.0
  0
LINE
  5
12BC
  8
3
 10
185.07811682857491
 20
142.2456527482953
 30
0.0
 11
185.10216788649859
 21
142.2757165706999
 31
0.0
  0
LINE
  5
12BD
  8
3
 10
185.06007853513219
 20
142.22761445485261
 30
0.0
 11
185.07811682857491
 21
142.2456527482953
 31
0.0
  0
LINE
  5
12BE
  8
3
 10
185.03602747720859
 20
142.20356339692901
 30
0.0
 11
185.06007853513219
 21
142.22761445485261
 31
0.0
  0
LINE
  5
12BF
  8
3
 10
185.21039764715479
 20
142.40799738927981
 30
0.0
 11
185.22242317611671
 21
142.43204844720341
 31
0.0
  0
LINE
  5
12C0
  8
3
 10
185.19235935371211
 20
142.3779335668753
 30
0.0
 11
185.21039764715479
 21
142.40799738927981
 31
0.0
  0
LINE
  5
12C1
  8
3
 10
185.16830829578851
 20
142.3538825089517
 30
0.0
 11
185.19235935371211
 21
142.3779335668753
 31
0.0
  0
LINE
  5
12C2
  8
3
 10
185.15027000234591
 20
142.3238186865471
 30
0.0
 11
185.16830829578851
 21
142.3538825089517
 31
0.0
  0
LINE
  5
12C3
  8
3
 10
185.12621894442219
 20
142.2997676286235
 30
0.0
 11
185.15027000234591
 21
142.3238186865471
 31
0.0
  0
LINE
  5
12C4
  8
3
 10
185.31261464333019
 20
143.25579718108739
 30
0.0
 11
185.31261464333019
 21
143.3640269417437
 31
0.0
  0
LINE
  5
12C5
  8
3
 10
185.30660187884939
 20
143.03933765977479
 30
0.0
 11
185.30660187884939
 21
143.1475674204311
 31
0.0
  0
LINE
  5
12C6
  8
3
 10
185.30660187884939
 20
143.1475674204311
 30
0.0
 11
185.31261464333019
 21
143.25579718108739
 31
0.0
  0
LINE
  5
12C7
  8
3
 10
185.30058911436839
 20
142.9311078991185
 30
0.0
 11
185.30660187884939
 21
143.03933765977479
 31
0.0
  0
LINE
  5
12C8
  8
3
 10
185.29457634988751
 20
142.8168653739813
 30
0.0
 11
185.30058911436839
 21
142.9311078991185
 31
0.0
  0
LINE
  5
12C9
  8
3
 10
185.28255082092571
 20
142.70863561332499
 30
0.0
 11
185.29457634988751
 21
142.8168653739813
 31
0.0
  0
LINE
  5
12CA
  8
3
 10
185.54109969360471
 20
143.71276728163619
 30
0.0
 11
185.29457634988751
 21
143.7067545171553
 31
0.0
  0
ARC
  5
12CB
  8
3
 10
185.42623310822671
 20
143.73463057786429
 30
0.0
 40
0.1345755430122404
 50
191.9548373798298
 51
264.96835913919062
  0
LINE
  5
12CC
  8
3
 10
185.41483163950579
 20
145.49254556798411
 30
0.0
 11
185.33666570125391
 21
145.47450727454139
 31
0.0
  0
LINE
  5
12CD
  8
3
 10
185.34869123021571
 20
145.26406051770971
 30
0.0
 11
185.42084440398659
 21
145.24602222426699
 31
0.0
  0
LINE
  5
12CE
  8
3
 10
185.96199320726811
 20
144.92734570677899
 30
0.0
 11
185.99806979415339
 21
144.88525635541271
 31
0.0
  0
LINE
  5
12CF
  8
3
 10
185.76958474387899
 20
143.57447369857539
 30
0.0
 11
185.82369962420711
 21
143.5684609340945
 31
0.0
  0
LINE
  5
12D0
  8
3
 10
185.83572515316899
 20
143.7187800461171
 30
0.0
 11
185.78161027284091
 21
143.7187800461171
 31
0.0
  0
LINE
  5
12D1
  8
3
 10
186.2686441957942
 20
143.8751119226207
 30
0.0
 11
186.2686441957942
 21
143.82700980677339
 31
0.0
  0
LINE
  5
12D2
  8
3
 10
186.2686441957942
 20
143.82700980677339
 30
0.0
 11
186.2686441957942
 21
143.73681833955979
 31
0.0
  0
LINE
  5
12D3
  8
3
 10
186.08224849688619
 20
143.50833328928539
 30
0.0
 11
186.17243996409979
 21
143.46023117343819
 31
0.0
  0
LINE
  5
12D4
  8
3
 10
186.17243996409979
 20
143.46023117343819
 30
0.0
 11
186.20250378650439
 21
143.3820652351865
 31
0.0
  0
LINE
  5
12D5
  8
3
 10
186.2686441957942
 20
143.73681833955979
 30
0.0
 11
186.20851655098519
 21
143.7308055750789
 31
0.0
  0
LINE
  5
12D6
  8
3
 10
186.03414638103891
 20
143.52637158272819
 30
0.0
 11
186.08224849688619
 21
143.50833328928539
 31
0.0
  0
LINE
  5
12D7
  8
3
 10
185.98003150071071
 20
143.5444098761709
 30
0.0
 11
186.03414638103891
 21
143.52637158272819
 31
0.0
  0
LINE
  5
12D8
  8
3
 10
185.93192938486351
 20
143.5564354051327
 30
0.0
 11
185.98003150071071
 21
143.5444098761709
 31
0.0
  0
LINE
  5
12D9
  8
3
 10
185.87781450453531
 20
143.56244816961359
 30
0.0
 11
185.93192938486351
 21
143.5564354051327
 31
0.0
  0
LINE
  5
12DA
  8
3
 10
185.82369962420711
 20
143.5684609340945
 30
0.0
 11
185.87781450453531
 21
143.56244816961359
 31
0.0
  0
LINE
  5
12DB
  8
3
 10
185.88382726901639
 20
143.7187800461171
 30
0.0
 11
185.83572515316899
 21
143.7187800461171
 31
0.0
  0
LINE
  5
12DC
  8
3
 10
185.92591662038259
 20
143.7187800461171
 30
0.0
 11
185.88382726901639
 21
143.7187800461171
 31
0.0
  0
LINE
  5
12DD
  8
3
 10
185.96199320726811
 20
143.7187800461171
 30
0.0
 11
185.92591662038259
 21
143.7187800461171
 31
0.0
  0
LINE
  5
12DE
  8
3
 10
185.99806979415339
 20
143.7187800461171
 30
0.0
 11
185.96199320726811
 21
143.7187800461171
 31
0.0
  0
LINE
  5
12DF
  8
3
 10
186.03414638103891
 20
143.7187800461171
 30
0.0
 11
185.99806979415339
 21
143.7187800461171
 31
0.0
  0
LINE
  5
12E0
  8
3
 10
186.07022296792431
 20
143.7187800461171
 30
0.0
 11
186.03414638103891
 21
143.7187800461171
 31
0.0
  0
LINE
  5
12E1
  8
3
 10
186.10629955480971
 20
143.7187800461171
 30
0.0
 11
186.07022296792431
 21
143.7187800461171
 31
0.0
  0
LINE
  5
12E2
  8
3
 10
186.15440167065711
 20
143.72479281059799
 30
0.0
 11
186.10629955480971
 21
143.7187800461171
 31
0.0
  0
LINE
  5
12E3
  8
3
 10
186.20851655098519
 20
143.7308055750789
 30
0.0
 11
186.15440167065711
 21
143.72479281059799
 31
0.0
  0
LINE
  5
12E4
  8
3
 10
186.13035061273351
 20
144.69284789202371
 30
0.0
 11
186.16041443513791
 21
144.64474577617651
 31
0.0
  0
LINE
  5
12E5
  8
3
 10
186.2686441957942
 20
144.19980120458951
 30
0.0
 11
186.2686441957942
 21
144.1516990887423
 31
0.0
  0
LINE
  5
12E6
  8
3
 10
186.16041443513791
 20
144.64474577617651
 30
0.0
 11
186.18446549306159
 21
144.59063089584831
 31
0.0
  0
LINE
  5
12E7
  8
3
 10
186.22054207994699
 20
144.48240113519211
 30
0.0
 11
186.23858037338971
 21
144.43429901934479
 31
0.0
  0
LINE
  5
12E8
  8
3
 10
186.23858037338971
 20
144.43429901934479
 30
0.0
 11
186.2445931378706
 21
144.38619690349759
 31
0.0
  0
LINE
  5
12E9
  8
3
 10
186.2566186668324
 20
144.33809478765039
 30
0.0
 11
186.2626314313132
 21
144.28999267180311
 31
0.0
  0
LINE
  5
12EA
  8
3
 10
186.2445931378706
 20
144.38619690349759
 30
0.0
 11
186.2566186668324
 21
144.33809478765039
 31
0.0
  0
LINE
  5
12EB
  8
3
 10
186.2626314313132
 20
144.24189055595591
 30
0.0
 11
186.2686441957942
 21
144.19980120458951
 31
0.0
  0
LINE
  5
12EC
  8
3
 10
186.2626314313132
 20
144.28999267180311
 30
0.0
 11
186.2626314313132
 21
144.24189055595591
 31
0.0
  0
LINE
  5
12ED
  8
3
 10
186.18446549306159
 20
144.59063089584831
 30
0.0
 11
186.22054207994699
 21
144.48240113519211
 31
0.0
  0
LINE
  5
12EE
  8
3
 10
186.04015914551971
 20
144.84316700404639
 30
0.0
 11
186.07022296792431
 21
144.79506488819911
 31
0.0
  0
LINE
  5
12EF
  8
3
 10
185.99806979415339
 20
144.88525635541271
 30
0.0
 11
186.04015914551971
 21
144.84316700404639
 31
0.0
  0
LINE
  5
12F0
  8
3
 10
186.10629955480971
 20
144.74696277235191
 30
0.0
 11
186.13035061273351
 21
144.69284789202371
 31
0.0
  0
LINE
  5
12F1
  8
3
 10
186.07022296792431
 20
144.79506488819911
 30
0.0
 11
186.10629955480971
 21
144.74696277235191
 31
0.0
  0
LINE
  5
12F2
  8
3
 10
185.41443004379209
 20
143.60057363307189
 30
0.0
 11
185.48698481327651
 21
143.5925119920181
 31
0.0
  0
LINE
  5
12F3
  8
3
 10
185.70945709906999
 20
143.5804864630563
 30
0.0
 11
185.76958474387899
 21
143.57447369857539
 31
0.0
  0
LINE
  5
12F4
  8
3
 10
185.65534221874191
 20
143.5804864630563
 30
0.0
 11
185.70945709906999
 21
143.5804864630563
 31
0.0
  0
LINE
  5
12F5
  8
3
 10
185.60122733841379
 20
143.58649922753719
 30
0.0
 11
185.65534221874191
 21
143.5804864630563
 31
0.0
  0
LINE
  5
12F6
  8
3
 10
185.54109969360471
 20
143.58649922753719
 30
0.0
 11
185.60122733841379
 21
143.58649922753719
 31
0.0
  0
LINE
  5
12F7
  8
3
 10
185.63730392529919
 20
143.7187800461171
 30
0.0
 11
185.54109969360471
 21
143.71276728163619
 31
0.0
  0
LINE
  5
12F8
  8
3
 10
185.71546986355079
 20
143.7187800461171
 30
0.0
 11
185.63730392529919
 21
143.7187800461171
 31
0.0
  0
LINE
  5
12F9
  8
3
 10
185.78161027284091
 20
143.7187800461171
 30
0.0
 11
185.71546986355079
 21
143.7187800461171
 31
0.0
  0
LINE
  5
12FA
  8
3
 10
185.48698481327651
 20
143.5925119920181
 30
0.0
 11
185.54109969360471
 21
143.58649922753719
 31
0.0
  0
LINE
  5
12FB
  8
3
 10
185.83572515316899
 20
145.69697956033491
 30
0.0
 11
185.76958474387899
 21
145.6548902089686
 31
0.0
  0
LINE
  5
12FC
  8
3
 10
185.78161027284091
 20
145.08367758328259
 30
0.0
 11
185.82971238868799
 21
145.04760099639719
 31
0.0
  0
LINE
  5
12FD
  8
3
 10
185.82971238868799
 20
145.04760099639719
 30
0.0
 11
185.87781450453531
 21
145.01152440951171
 31
0.0
  0
LINE
  5
12FE
  8
3
 10
185.91990385590171
 20
144.96943505814539
 30
0.0
 11
185.96199320726811
 21
144.92734570677899
 31
0.0
  0
LINE
  5
12FF
  8
3
 10
185.87781450453531
 20
145.01152440951171
 30
0.0
 11
185.91990385590171
 21
144.96943505814539
 31
0.0
  0
LINE
  5
1300
  8
3
 10
186.2686441957942
 20
146.38243471115811
 30
0.0
 11
186.2506059023514
 21
146.31629430186811
 31
0.0
  0
LINE
  5
1301
  8
3
 10
186.20250378650439
 20
146.1479368964028
 30
0.0
 11
186.19649102202331
 21
146.14192413192191
 31
0.0
  0
LINE
  5
1302
  8
3
 10
186.1784527285806
 20
146.1058475450364
 30
0.0
 11
186.1784527285806
 21
146.09983478055551
 31
0.0
  0
LINE
  5
1303
  8
3
 10
186.1784527285806
 20
146.09983478055551
 30
0.0
 11
186.17243996409979
 21
146.0878092515938
 31
0.0
  0
LINE
  5
1304
  8
3
 10
186.1784527285806
 20
146.1118603095174
 30
0.0
 11
186.1784527285806
 21
146.1058475450364
 31
0.0
  0
LINE
  5
1305
  8
3
 10
186.18446549306159
 20
146.1118603095174
 30
0.0
 11
186.1784527285806
 21
146.1118603095174
 31
0.0
  0
LINE
  5
1306
  8
3
 10
186.18446549306159
 20
146.11787307399831
 30
0.0
 11
186.18446549306159
 21
146.1118603095174
 31
0.0
  0
LINE
  5
1307
  8
3
 10
186.18446549306159
 20
146.1238858384792
 30
0.0
 11
186.18446549306159
 21
146.11787307399831
 31
0.0
  0
LINE
  5
1308
  8
3
 10
186.1904782575424
 20
146.12989860296
 30
0.0
 11
186.18446549306159
 21
146.1238858384792
 31
0.0
  0
LINE
  5
1309
  8
3
 10
186.1904782575424
 20
146.135911367441
 30
0.0
 11
186.1904782575424
 21
146.12989860296
 31
0.0
  0
LINE
  5
130A
  8
3
 10
186.19649102202331
 20
146.14192413192191
 30
0.0
 11
186.1904782575424
 21
146.135911367441
 31
0.0
  0
LINE
  5
130B
  8
3
 10
186.20250378650439
 20
146.15394966088371
 30
0.0
 11
186.20250378650439
 21
146.1479368964028
 31
0.0
  0
LINE
  5
130C
  8
3
 10
186.20851655098519
 20
146.1599624253646
 30
0.0
 11
186.20250378650439
 21
146.15394966088371
 31
0.0
  0
LINE
  5
130D
  8
3
 10
186.20851655098519
 20
146.16597518984551
 30
0.0
 11
186.20851655098519
 21
146.1599624253646
 31
0.0
  0
LINE
  5
130E
  8
3
 10
186.214529315466
 20
146.17198795432651
 30
0.0
 11
186.20851655098519
 21
146.16597518984551
 31
0.0
  0
LINE
  5
130F
  8
3
 10
186.214529315466
 20
146.1840134832882
 30
0.0
 11
186.214529315466
 21
146.17198795432651
 31
0.0
  0
LINE
  5
1310
  8
3
 10
186.2506059023514
 20
146.31629430186811
 30
0.0
 11
186.214529315466
 21
146.1840134832882
 31
0.0
  0
LINE
  5
1311
  8
3
 10
186.13636337721431
 20
146.02166884230371
 30
0.0
 11
186.09427402584791
 21
145.9555284330138
 31
0.0
  0
LINE
  5
1312
  8
3
 10
186.09427402584791
 20
145.9555284330138
 30
0.0
 11
186.05218467448159
 21
145.8954007882048
 31
0.0
  0
LINE
  5
1313
  8
3
 10
186.17243996409979
 20
146.0878092515938
 30
0.0
 11
186.13636337721431
 21
146.02166884230371
 31
0.0
  0
LINE
  5
1314
  8
3
 10
185.94996767830611
 20
145.78717102754851
 30
0.0
 11
185.89585279797819
 21
145.7390689117012
 31
0.0
  0
LINE
  5
1315
  8
3
 10
186.00408255863439
 20
145.84128590787671
 30
0.0
 11
185.94996767830611
 21
145.78717102754851
 31
0.0
  0
LINE
  5
1316
  8
3
 10
186.05218467448159
 20
145.8954007882048
 30
0.0
 11
186.00408255863439
 21
145.84128590787671
 31
0.0
  0
LINE
  5
1317
  8
3
 10
185.89585279797819
 20
145.7390689117012
 30
0.0
 11
185.83572515316899
 21
145.69697956033491
 31
0.0
  0
LINE
  5
1318
  8
3
 10
185.76958474387899
 20
145.6548902089686
 30
0.0
 11
185.70945709906999
 21
145.61280085760231
 31
0.0
  0
LINE
  5
1319
  8
3
 10
185.49299757775731
 20
145.51659662590771
 30
0.0
 11
185.41483163950579
 21
145.49254556798411
 31
0.0
  0
LINE
  5
131A
  8
3
 10
185.42084440398659
 20
145.24602222426699
 30
0.0
 11
185.49299757775731
 21
145.22798393082431
 31
0.0
  0
LINE
  5
131B
  8
3
 10
185.63730392529919
 20
145.5767242707168
 30
0.0
 11
185.56515075152819
 21
145.5466604483122
 31
0.0
  0
LINE
  5
131C
  8
3
 10
185.70945709906999
 20
145.61280085760231
 30
0.0
 11
185.63730392529919
 21
145.5767242707168
 31
0.0
  0
LINE
  5
131D
  8
3
 10
185.73350815699359
 20
145.11374140568711
 30
0.0
 11
185.78161027284091
 21
145.08367758328259
 31
0.0
  0
LINE
  5
131E
  8
3
 10
185.67939327666539
 20
145.14380522809159
 30
0.0
 11
185.73350815699359
 21
145.11374140568711
 31
0.0
  0
LINE
  5
131F
  8
3
 10
185.62527839633739
 20
145.17386905049619
 30
0.0
 11
185.67939327666539
 21
145.14380522809159
 31
0.0
  0
LINE
  5
1320
  8
3
 10
185.56515075152819
 20
145.5466604483122
 30
0.0
 11
185.49299757775731
 21
145.51659662590771
 31
0.0
  0
LINE
  5
1321
  8
3
 10
185.49299757775731
 20
145.22798393082431
 30
0.0
 11
185.62527839633739
 21
145.17386905049619
 31
0.0
  0
LINE
  5
1322
  8
3
 10
184.98191259688039
 20
144.24189055595591
 30
0.0
 11
184.88570836518599
 21
144.13366079529951
 31
0.0
  0
LINE
  5
1323
  8
3
 10
184.8977338941479
 20
143.55042264065179
 30
0.0
 11
184.90374665862871
 21
143.55042264065179
 31
0.0
  0
LINE
  5
1324
  8
3
 10
185.26451252748299
 20
144.01941827016239
 30
0.0
 11
185.23444870507851
 21
144.24189055595591
 31
0.0
  0
LINE
  5
1325
  8
3
 10
185.28856358540671
 20
143.79694598436879
 30
0.0
 11
185.27653805644491
 21
143.90517574502519
 31
0.0
  0
LINE
  5
1326
  8
3
 10
185.27653805644491
 20
143.90517574502519
 30
0.0
 11
185.26451252748299
 21
144.01941827016239
 31
0.0
  0
LINE
  5
1327
  8
3
 10
185.30660187884939
 20
143.47225670239999
 30
0.0
 11
185.30660187884939
 21
143.5804864630563
 31
0.0
  0
LINE
  5
1328
  8
3
 10
185.30660187884939
 20
143.5804864630563
 30
0.0
 11
185.29457634988751
 21
143.68871622371259
 31
0.0
  0
LINE
  5
1329
  8
3
 10
185.29457634988751
 20
143.7067545171553
 30
0.0
 11
185.29457634988751
 21
143.68871622371259
 31
0.0
  0
LINE
  5
132A
  8
3
 10
185.29457634988751
 20
143.68871622371259
 30
0.0
 11
185.28856358540671
 21
143.79694598436879
 31
0.0
  0
LINE
  5
132B
  8
3
 10
184.9398232455143
 20
143.5444098761709
 30
0.0
 11
184.94583600999499
 21
143.5444098761709
 31
0.0
  0
LINE
  5
132C
  8
3
 10
184.9338104810333
 20
143.5444098761709
 30
0.0
 11
184.9398232455143
 21
143.5444098761709
 31
0.0
  0
LINE
  5
132D
  8
3
 10
184.92779771655239
 20
143.5444098761709
 30
0.0
 11
184.9338104810333
 21
143.5444098761709
 31
0.0
  0
LINE
  5
132E
  8
3
 10
184.92178495207139
 20
143.5444098761709
 30
0.0
 11
184.92779771655239
 21
143.5444098761709
 31
0.0
  0
LINE
  5
132F
  8
3
 10
184.92178495207139
 20
143.55042264065179
 30
0.0
 11
184.92178495207139
 21
143.5444098761709
 31
0.0
  0
LINE
  5
1330
  8
3
 10
184.91577218759059
 20
143.55042264065179
 30
0.0
 11
184.92178495207139
 21
143.55042264065179
 31
0.0
  0
LINE
  5
1331
  8
3
 10
184.90975942310959
 20
143.55042264065179
 30
0.0
 11
184.91577218759059
 21
143.55042264065179
 31
0.0
  0
LINE
  5
1332
  8
3
 10
184.90374665862871
 20
143.55042264065179
 30
0.0
 11
184.90975942310959
 21
143.55042264065179
 31
0.0
  0
LINE
  5
1333
  8
3
 10
185.23444870507851
 20
144.24790332043679
 30
0.0
 11
185.22242317611671
 21
144.24790332043679
 31
0.0
  0
LINE
  5
1334
  8
3
 10
185.23444870507851
 20
144.24189055595591
 30
0.0
 11
185.23444870507851
 21
144.24790332043679
 31
0.0
  0
LINE
  5
1335
  8
3
 10
185.01798918376579
 20
144.24790332043679
 30
0.0
 11
184.98191259688039
 21
144.24189055595591
 31
0.0
  0
LINE
  5
1336
  8
3
 10
185.03602747720859
 20
144.25391608491759
 30
0.0
 11
185.01798918376579
 21
144.24790332043679
 31
0.0
  0
LINE
  5
1337
  8
3
 10
185.10216788649859
 20
144.25992884939859
 30
0.0
 11
185.07811682857491
 21
144.25992884939859
 31
0.0
  0
LINE
  5
1338
  8
3
 10
185.12020617994131
 20
144.25992884939859
 30
0.0
 11
185.10216788649859
 21
144.25992884939859
 31
0.0
  0
LINE
  5
1339
  8
3
 10
185.07811682857491
 20
144.25992884939859
 30
0.0
 11
185.05406577065139
 21
144.25391608491759
 31
0.0
  0
LINE
  5
133A
  8
3
 10
185.05406577065139
 20
144.25391608491759
 30
0.0
 11
185.03602747720859
 21
144.25391608491759
 31
0.0
  0
LINE
  5
133B
  8
3
 10
185.16229553130771
 20
144.25992884939859
 30
0.0
 11
185.14425723786479
 21
144.25992884939859
 31
0.0
  0
LINE
  5
133C
  8
3
 10
185.18033382475039
 20
144.25992884939859
 30
0.0
 11
185.16229553130771
 21
144.25992884939859
 31
0.0
  0
LINE
  5
133D
  8
3
 10
185.21039764715479
 20
144.25391608491759
 30
0.0
 11
185.19837211819299
 21
144.25391608491759
 31
0.0
  0
LINE
  5
133E
  8
3
 10
185.22242317611671
 20
144.24790332043679
 30
0.0
 11
185.21039764715479
 21
144.25391608491759
 31
0.0
  0
LINE
  5
133F
  8
3
 10
185.19837211819299
 20
144.25391608491759
 30
0.0
 11
185.18033382475039
 21
144.25992884939859
 31
0.0
  0
LINE
  5
1340
  8
3
 10
185.14425723786479
 20
144.25992884939859
 30
0.0
 11
185.12020617994131
 21
144.25992884939859
 31
0.0
  0
LINE
  5
1341
  8
3
 10
184.69931266627799
 20
143.5444098761709
 30
0.0
 11
184.73538925316339
 21
143.5444098761709
 31
0.0
  0
LINE
  5
1342
  8
3
 10
184.73538925316339
 20
144.03144379912419
 30
0.0
 11
184.67526160835419
 21
144.00137997671959
 31
0.0
  0
LINE
  5
1343
  8
3
 10
184.73538925316339
 20
143.5444098761709
 30
0.0
 11
184.77146584004879
 21
143.55042264065179
 31
0.0
  0
LINE
  5
1344
  8
3
 10
184.7895041334915
 20
144.0615076215287
 30
0.0
 11
184.73538925316339
 21
144.03144379912419
 31
0.0
  0
LINE
  5
1345
  8
3
 10
184.62715949250699
 20
143.5444098761709
 30
0.0
 11
184.66323607939239
 21
143.5444098761709
 31
0.0
  0
LINE
  5
1346
  8
3
 10
184.67526160835419
 20
144.00137997671959
 30
0.0
 11
184.62114672802619
 21
143.97732891879599
 31
0.0
  0
LINE
  5
1347
  8
3
 10
184.66323607939239
 20
143.5444098761709
 30
0.0
 11
184.69931266627799
 21
143.5444098761709
 31
0.0
  0
LINE
  5
1348
  8
3
 10
184.4708276160035
 20
143.53839711168999
 30
0.0
 11
184.5129169673699
 21
143.5444098761709
 31
0.0
  0
LINE
  5
1349
  8
3
 10
184.59108290562151
 20
143.5444098761709
 30
0.0
 11
184.62715949250699
 21
143.5444098761709
 31
0.0
  0
LINE
  5
134A
  8
3
 10
184.5550063187363
 20
143.5444098761709
 30
0.0
 11
184.59108290562151
 21
143.5444098761709
 31
0.0
  0
LINE
  5
134B
  8
3
 10
184.62114672802619
 20
143.97732891879599
 30
0.0
 11
184.5550063187363
 21
143.95327786087239
 31
0.0
  0
LINE
  5
134C
  8
3
 10
184.5129169673699
 20
143.5444098761709
 30
0.0
 11
184.5550063187363
 21
143.5444098761709
 31
0.0
  0
LINE
  5
134D
  8
3
 10
184.5550063187363
 20
143.95327786087239
 30
0.0
 11
184.4948786739271
 21
143.9352395674297
 31
0.0
  0
LINE
  5
134E
  8
3
 10
184.83760624933879
 20
144.0975842084141
 30
0.0
 11
184.7895041334915
 21
144.0615076215287
 31
0.0
  0
LINE
  5
134F
  8
3
 10
184.77146584004879
 20
143.55042264065179
 30
0.0
 11
184.80754242693419
 21
143.55042264065179
 31
0.0
  0
LINE
  5
1350
  8
3
 10
184.89172112966679
 20
143.55042264065179
 30
0.0
 11
184.8977338941479
 21
143.55042264065179
 31
0.0
  0
LINE
  5
1351
  8
3
 10
184.88570836518599
 20
143.55042264065179
 30
0.0
 11
184.89172112966679
 21
143.55042264065179
 31
0.0
  0
LINE
  5
1352
  8
3
 10
184.87969560070491
 20
143.5564354051327
 30
0.0
 11
184.88570836518599
 21
143.55042264065179
 31
0.0
  0
LINE
  5
1353
  8
3
 10
184.80754242693419
 20
143.55042264065179
 30
0.0
 11
184.87969560070491
 21
143.5564354051327
 31
0.0
  0
LINE
  5
1354
  8
3
 10
184.88570836518599
 20
144.13366079529951
 30
0.0
 11
184.83760624933879
 21
144.0975842084141
 31
0.0
  0
LINE
  5
1355
  8
3
 10
184.8977338941479
 20
145.26406051770971
 30
0.0
 11
184.97589983239951
 21
145.27608604667159
 31
0.0
  0
LINE
  5
1356
  8
3
 10
184.92779771655239
 20
145.4564689810986
 30
0.0
 11
184.86767007174331
 21
145.46849451006051
 31
0.0
  0
LINE
  5
1357
  8
3
 10
185.19837211819299
 20
145.28209881115251
 30
0.0
 11
185.27653805644491
 21
145.27007328219059
 31
0.0
  0
LINE
  5
1358
  8
3
 10
185.33666570125391
 20
145.47450727454139
 30
0.0
 11
185.16830829578851
 21
145.44444345213691
 31
0.0
  0
LINE
  5
1359
  8
3
 10
185.27653805644491
 20
145.27007328219059
 30
0.0
 11
185.34869123021571
 21
145.26406051770971
 31
0.0
  0
LINE
  5
135A
  8
3
 10
185.04805300617039
 20
145.44444345213691
 30
0.0
 11
184.9879253613615
 21
145.45045621661779
 31
0.0
  0
LINE
  5
135B
  8
3
 10
184.97589983239951
 20
145.27608604667159
 30
0.0
 11
185.04805300617039
 21
145.28209881115251
 31
0.0
  0
LINE
  5
135C
  8
3
 10
184.9879253613615
 20
145.45045621661779
 30
0.0
 11
184.92779771655239
 21
145.4564689810986
 31
0.0
  0
LINE
  5
135D
  8
3
 10
185.10818065097951
 20
145.44444345213691
 30
0.0
 11
185.04805300617039
 21
145.44444345213691
 31
0.0
  0
LINE
  5
135E
  8
3
 10
185.04805300617039
 20
145.28209881115251
 30
0.0
 11
185.12621894442219
 21
145.28209881115251
 31
0.0
  0
LINE
  5
135F
  8
3
 10
185.16830829578851
 20
145.44444345213691
 30
0.0
 11
185.10818065097951
 21
145.44444345213691
 31
0.0
  0
LINE
  5
1360
  8
3
 10
185.12621894442219
 20
145.28209881115251
 30
0.0
 11
185.19837211819299
 21
145.28209881115251
 31
0.0
  0
LINE
  5
1361
  8
3
 10
184.80754242693419
 20
145.48052003902231
 30
0.0
 11
184.74741478212519
 21
145.49254556798411
 31
0.0
  0
LINE
  5
1362
  8
3
 10
184.75342754660619
 20
145.23399669530519
 30
0.0
 11
184.82558072037691
 21
145.25203498874791
 31
0.0
  0
LINE
  5
1363
  8
3
 10
184.74741478212519
 20
145.49254556798411
 30
0.0
 11
184.68728713731599
 21
145.5105838614268
 31
0.0
  0
LINE
  5
1364
  8
3
 10
184.6812743728353
 20
145.21595840186251
 30
0.0
 11
184.75342754660619
 21
145.23399669530519
 31
0.0
  0
LINE
  5
1365
  8
3
 10
184.68728713731599
 20
145.5105838614268
 30
0.0
 11
184.63317225698799
 21
145.52862215486959
 31
0.0
  0
LINE
  5
1366
  8
3
 10
184.6091211990643
 20
145.18589457945799
 30
0.0
 11
184.6812743728353
 21
145.21595840186251
 31
0.0
  0
LINE
  5
1367
  8
3
 10
184.5249424963317
 20
145.57071150623591
 30
0.0
 11
184.4708276160035
 21
145.6007753286404
 31
0.0
  0
LINE
  5
1368
  8
3
 10
184.46481485152259
 20
145.12576693464891
 30
0.0
 11
184.53696802529359
 21
145.15583075705339
 31
0.0
  0
LINE
  5
1369
  8
3
 10
184.63317225698799
 20
145.52862215486959
 30
0.0
 11
184.57905737665979
 21
145.5526732127932
 31
0.0
  0
LINE
  5
136A
  8
3
 10
184.57905737665979
 20
145.5526732127932
 30
0.0
 11
184.5249424963317
 21
145.57071150623591
 31
0.0
  0
LINE
  5
136B
  8
3
 10
184.53696802529359
 20
145.15583075705339
 30
0.0
 11
184.6091211990643
 21
145.18589457945799
 31
0.0
  0
LINE
  5
136C
  8
3
 10
184.86767007174331
 20
145.46849451006051
 30
0.0
 11
184.80754242693419
 21
145.48052003902231
 31
0.0
  0
LINE
  5
136D
  8
3
 10
184.82558072037691
 20
145.25203498874791
 30
0.0
 11
184.8977338941479
 21
145.26406051770971
 31
0.0
  0
LINE
  5
136E
  8
3
 10
183.96575539960759
 20
143.4542184089573
 30
0.0
 11
183.96575539960759
 21
143.35801417726279
 31
0.0
  0
LINE
  5
136F
  8
3
 10
184.21829150780559
 20
142.2095761614099
 30
0.0
 11
184.21829150780559
 21
143.53238434720899
 31
0.0
  0
LINE
  5
1370
  8
3
 10
182.94959820233441
 20
142.48015056305061
 30
0.0
 11
182.94959820233441
 21
143.63460134338439
 31
0.0
  0
LINE
  5
1371
  8
3
 10
183.31637683566959
 20
140.76049992151181
 30
0.0
 11
183.56290017938699
 21
140.76651268599261
 31
0.0
  0
LINE
  5
1372
  8
3
 10
183.5749257083487
 20
141.2595593734269
 30
0.0
 11
183.5087852990587
 21
141.31968701823601
 31
0.0
  0
LINE
  5
1373
  8
3
 10
183.80942352310399
 20
140.76651268599261
 30
0.0
 11
184.0379085733783
 21
140.77252545047361
 31
0.0
  0
LINE
  5
1374
  8
3
 10
184.0078447509739
 20
141.0190487941907
 30
0.0
 11
183.9837936930503
 21
141.0310743231525
 31
0.0
  0
LINE
  5
1375
  8
3
 10
184.0258830444165
 20
141.0070232652289
 30
0.0
 11
184.0078447509739
 21
141.0190487941907
 31
0.0
  0
LINE
  5
1376
  8
3
 10
184.13411280507279
 20
140.9769594428243
 30
0.0
 11
184.0258830444165
 21
141.0070232652289
 31
0.0
  0
LINE
  5
1377
  8
3
 10
184.0379085733783
 20
140.77252545047361
 30
0.0
 11
184.26038085917179
 21
140.77252545047361
 31
0.0
  0
LINE
  5
1378
  8
3
 10
184.18221492091999
 20
140.96493391386261
 30
0.0
 11
184.13411280507279
 21
140.9769594428243
 31
0.0
  0
LINE
  5
1379
  8
3
 10
184.23632980124819
 20
140.9529083849007
 30
0.0
 11
184.18221492091999
 21
140.96493391386261
 31
0.0
  0
LINE
  5
137A
  8
3
 10
184.29044468157639
 20
140.94689562041981
 30
0.0
 11
184.23632980124819
 21
140.9529083849007
 31
0.0
  0
LINE
  5
137B
  8
3
 10
184.34455956190459
 20
140.93487009145801
 30
0.0
 11
184.29044468157639
 21
140.94689562041981
 31
0.0
  0
LINE
  5
137C
  8
3
 10
184.3986744422327
 20
140.92885732697709
 30
0.0
 11
184.34455956190459
 21
140.93487009145801
 31
0.0
  0
LINE
  5
137D
  8
3
 10
183.83948734550859
 20
141.1032274969233
 30
0.0
 11
183.8154362875849
 21
141.11525302588521
 31
0.0
  0
LINE
  5
137E
  8
3
 10
183.9837936930503
 20
141.0310743231525
 30
0.0
 11
183.95974263512659
 21
141.0430998521143
 31
0.0
  0
LINE
  5
137F
  8
3
 10
183.8635384034321
 20
141.09120196796161
 30
0.0
 11
183.83948734550859
 21
141.1032274969233
 31
0.0
  0
LINE
  5
1380
  8
3
 10
183.8875894613557
 20
141.07917643899981
 30
0.0
 11
183.8635384034321
 21
141.09120196796161
 31
0.0
  0
LINE
  5
1381
  8
3
 10
183.9116405192793
 20
141.0671509100379
 30
0.0
 11
183.8875894613557
 21
141.07917643899981
 31
0.0
  0
LINE
  5
1382
  8
3
 10
183.56290017938699
 20
140.76651268599261
 30
0.0
 11
183.80942352310399
 21
140.76651268599261
 31
0.0
  0
LINE
  5
1383
  8
3
 10
183.95974263512659
 20
141.0430998521143
 30
0.0
 11
183.93569157720299
 21
141.0551253810761
 31
0.0
  0
LINE
  5
1384
  8
3
 10
183.93569157720299
 20
141.0551253810761
 30
0.0
 11
183.9116405192793
 21
141.0671509100379
 31
0.0
  0
LINE
  5
1385
  8
3
 10
183.76733417173759
 20
141.13930408380881
 30
0.0
 11
183.7432831138139
 21
141.15132961277061
 31
0.0
  0
LINE
  5
1386
  8
3
 10
183.7913852296611
 20
141.1272785548469
 30
0.0
 11
183.76733417173759
 21
141.13930408380881
 31
0.0
  0
LINE
  5
1387
  8
3
 10
183.8154362875849
 20
141.11525302588521
 30
0.0
 11
183.7913852296611
 21
141.1272785548469
 31
0.0
  0
LINE
  5
1388
  8
3
 10
183.71923205589039
 20
141.16335514173241
 30
0.0
 11
183.69518099796679
 21
141.17538067069421
 31
0.0
  0
LINE
  5
1389
  8
3
 10
183.7432831138139
 20
141.15132961277061
 30
0.0
 11
183.71923205589039
 21
141.16335514173241
 31
0.0
  0
LINE
  5
138A
  8
3
 10
183.6470788821195
 20
141.2054444930987
 30
0.0
 11
183.5749257083487
 21
141.2595593734269
 31
0.0
  0
LINE
  5
138B
  8
3
 10
183.69518099796679
 20
141.17538067069421
 30
0.0
 11
183.6470788821195
 21
141.2054444930987
 31
0.0
  0
LINE
  5
138C
  8
3
 10
183.9837936930503
 20
142.57034203026419
 30
0.0
 11
184.0078447509739
 21
142.48616332753161
 31
0.0
  0
LINE
  5
138D
  8
3
 10
184.21829150780559
 20
142.1975506324481
 30
0.0
 11
184.21829150780559
 21
142.2095761614099
 31
0.0
  0
LINE
  5
138E
  8
3
 10
184.21829150780559
 20
142.19153786796721
 30
0.0
 11
184.21829150780559
 21
142.1975506324481
 31
0.0
  0
LINE
  5
138F
  8
3
 10
184.21227874332459
 20
142.19153786796721
 30
0.0
 11
184.21829150780559
 21
142.19153786796721
 31
0.0
  0
LINE
  5
1390
  8
3
 10
184.21227874332459
 20
142.1855251034863
 30
0.0
 11
184.21227874332459
 21
142.19153786796721
 31
0.0
  0
LINE
  5
1391
  8
3
 10
184.2062659788437
 20
142.1855251034863
 30
0.0
 11
184.21227874332459
 21
142.1855251034863
 31
0.0
  0
LINE
  5
1392
  8
3
 10
184.2062659788437
 20
142.17951233900541
 30
0.0
 11
184.2062659788437
 21
142.1855251034863
 31
0.0
  0
LINE
  5
1393
  8
3
 10
184.2002532143629
 20
142.17951233900541
 30
0.0
 11
184.2062659788437
 21
142.17951233900541
 31
0.0
  0
LINE
  5
1394
  8
3
 10
184.19424044988179
 20
142.17951233900541
 30
0.0
 11
184.2002532143629
 21
142.17951233900541
 31
0.0
  0
LINE
  5
1395
  8
3
 10
184.18822768540099
 20
142.17951233900541
 30
0.0
 11
184.19424044988179
 21
142.17951233900541
 31
0.0
  0
LINE
  5
1396
  8
3
 10
184.18221492091999
 20
142.17951233900541
 30
0.0
 11
184.18822768540099
 21
142.17951233900541
 31
0.0
  0
LINE
  5
1397
  8
3
 10
184.0739851602637
 20
142.31780592206621
 30
0.0
 11
184.18221492091999
 21
142.17951233900541
 31
0.0
  0
LINE
  5
1398
  8
3
 10
184.0379085733783
 20
142.4019846247989
 30
0.0
 11
184.0739851602637
 21
142.31780592206621
 31
0.0
  0
LINE
  5
1399
  8
3
 10
184.0078447509739
 20
142.48616332753161
 30
0.0
 11
184.0379085733783
 21
142.4019846247989
 31
0.0
  0
LINE
  5
139A
  8
3
 10
183.97176816408839
 20
142.66053349747779
 30
0.0
 11
183.9837936930503
 21
142.57034203026419
 31
0.0
  0
LINE
  5
139B
  8
3
 10
183.96575539960759
 20
143.25579718108739
 30
0.0
 11
183.95974263512659
 21
143.15358018491199
 31
0.0
  0
LINE
  5
139C
  8
3
 10
183.95974263512659
 20
142.75673772917219
 30
0.0
 11
183.97176816408839
 21
142.66053349747779
 31
0.0
  0
LINE
  5
139D
  8
3
 10
183.96575539960759
 20
143.35801417726279
 30
0.0
 11
183.96575539960759
 21
143.25579718108739
 31
0.0
  0
LINE
  5
139E
  8
3
 10
183.95974263512659
 20
143.15358018491199
 30
0.0
 11
183.95974263512659
 21
143.05136318873659
 31
0.0
  0
LINE
  5
139F
  8
3
 10
183.95974263512659
 20
143.05136318873659
 30
0.0
 11
183.95974263512659
 21
142.94914619256119
 31
0.0
  0
LINE
  5
13A0
  8
3
 10
183.95974263512659
 20
142.94914619256119
 30
0.0
 11
183.95974263512659
 21
142.8529419608667
 31
0.0
  0
LINE
  5
13A1
  8
3
 10
183.95974263512659
 20
142.8529419608667
 30
0.0
 11
183.95974263512659
 21
142.75673772917219
 31
0.0
  0
LINE
  5
13A2
  8
3
 10
183.1480194302043
 20
141.7946954122275
 30
0.0
 11
183.11194284331901
 21
141.87286135047921
 31
0.0
  0
LINE
  5
13A3
  8
3
 10
183.0638407274717
 20
140.76049992151181
 30
0.0
 11
183.31637683566959
 21
140.76049992151181
 31
0.0
  0
LINE
  5
13A4
  8
3
 10
183.28030024878441
 20
141.57823589091481
 30
0.0
 11
183.2321981329371
 21
141.6503890646857
 31
0.0
  0
LINE
  5
13A5
  8
3
 10
183.3344151291125
 20
141.5120954816249
 30
0.0
 11
183.28030024878441
 21
141.57823589091481
 31
0.0
  0
LINE
  5
13A6
  8
3
 10
183.3885300094405
 20
141.44595507233501
 30
0.0
 11
183.3344151291125
 21
141.5120954816249
 31
0.0
  0
LINE
  5
13A7
  8
3
 10
183.4486576542497
 20
141.37981466304501
 30
0.0
 11
183.3885300094405
 21
141.44595507233501
 31
0.0
  0
LINE
  5
13A8
  8
3
 10
183.5087852990587
 20
141.31968701823601
 30
0.0
 11
183.4486576542497
 21
141.37981466304501
 31
0.0
  0
LINE
  5
13A9
  8
3
 10
183.19010878157081
 20
141.72254223845661
 30
0.0
 11
183.1480194302043
 21
141.7946954122275
 31
0.0
  0
LINE
  5
13AA
  8
3
 10
183.2321981329371
 20
141.6503890646857
 30
0.0
 11
183.19010878157081
 21
141.72254223845661
 31
0.0
  0
LINE
  5
13AB
  8
3
 10
182.8173173837547
 20
140.75448715703089
 30
0.0
 11
183.0638407274717
 21
140.76049992151181
 31
0.0
  0
LINE
  5
13AC
  8
3
 10
183.0818790209145
 20
141.95102728873101
 30
0.0
 11
183.05181519850979
 21
142.03520599146361
 31
0.0
  0
LINE
  5
13AD
  8
3
 10
183.11194284331901
 20
141.87286135047921
 30
0.0
 11
183.0818790209145
 21
141.95102728873101
 31
0.0
  0
LINE
  5
13AE
  8
3
 10
182.96763649577721
 20
142.42002291824161
 30
0.0
 11
182.96763649577721
 21
142.4260356827225
 31
0.0
  0
LINE
  5
13AF
  8
3
 10
182.96162373129641
 20
142.3839463313561
 30
0.0
 11
182.96763649577721
 21
142.38995909583701
 31
0.0
  0
LINE
  5
13B0
  8
3
 10
183.0037130826625
 20
142.20356339692901
 30
0.0
 11
182.96162373129641
 21
142.3839463313561
 31
0.0
  0
LINE
  5
13B1
  8
3
 10
182.96763649577721
 20
142.40799738927981
 30
0.0
 11
182.96763649577721
 21
142.42002291824161
 31
0.0
  0
LINE
  5
13B2
  8
3
 10
182.96763649577721
 20
142.4019846247989
 30
0.0
 11
182.96763649577721
 21
142.40799738927981
 31
0.0
  0
LINE
  5
13B3
  8
3
 10
182.96763649577721
 20
142.39597186031801
 30
0.0
 11
182.96763649577721
 21
142.4019846247989
 31
0.0
  0
LINE
  5
13B4
  8
3
 10
182.96763649577721
 20
142.38995909583701
 30
0.0
 11
182.96763649577721
 21
142.39597186031801
 31
0.0
  0
LINE
  5
13B5
  8
3
 10
183.0277641405863
 20
142.1193846941963
 30
0.0
 11
183.0037130826625
 21
142.20356339692901
 31
0.0
  0
LINE
  5
13B6
  8
3
 10
183.05181519850979
 20
142.03520599146361
 30
0.0
 11
183.0277641405863
 21
142.1193846941963
 31
0.0
  0
LINE
  5
13B7
  8
3
 10
182.96763649577721
 20
142.43204844720341
 30
0.0
 11
182.96162373129641
 21
142.4380612116843
 31
0.0
  0
LINE
  5
13B8
  8
3
 10
182.96763649577721
 20
142.4260356827225
 30
0.0
 11
182.96763649577721
 21
142.43204844720341
 31
0.0
  0
LINE
  5
13B9
  8
3
 10
182.96162373129641
 20
142.4500867406461
 30
0.0
 11
182.95561096681541
 21
142.4500867406461
 31
0.0
  0
LINE
  5
13BA
  8
3
 10
182.96162373129641
 20
142.44407397616521
 30
0.0
 11
182.96162373129641
 21
142.4500867406461
 31
0.0
  0
LINE
  5
13BB
  8
3
 10
182.96162373129641
 20
142.4380612116843
 30
0.0
 11
182.96162373129641
 21
142.44407397616521
 31
0.0
  0
LINE
  5
13BC
  8
3
 10
182.95561096681541
 20
142.4500867406461
 30
0.0
 11
182.95561096681541
 21
142.45609950512701
 31
0.0
  0
LINE
  5
13BD
  8
3
 10
182.94959820233441
 20
142.48015056305061
 30
0.0
 11
182.94959820233441
 21
142.48015056305061
 31
0.0
  0
LINE
  5
13BE
  8
3
 10
182.95561096681541
 20
142.46812503408881
 30
0.0
 11
182.94959820233441
 21
142.48015056305061
 31
0.0
  0
LINE
  5
13BF
  8
3
 10
182.95561096681541
 20
142.4621122696079
 30
0.0
 11
182.95561096681541
 21
142.46812503408881
 31
0.0
  0
LINE
  5
13C0
  8
3
 10
182.95561096681541
 20
142.45609950512701
 30
0.0
 11
182.95561096681541
 21
142.4621122696079
 31
0.0
  0
LINE
  5
13C1
  8
3
 10
183.5087852990587
 20
143.6466268723463
 30
0.0
 11
183.5749257083487
 21
143.6466268723463
 31
0.0
  0
LINE
  5
13C2
  8
3
 10
183.56290017938699
 20
144.01340550568139
 30
0.0
 11
183.51479806353959
 21
144.0494820925669
 31
0.0
  0
LINE
  5
13C3
  8
3
 10
182.96162373129641
 20
145.52260939038871
 30
0.0
 11
184.0078447509739
 21
145.52260939038871
 31
0.0
  0
LINE
  5
13C4
  8
3
 10
183.55688741490599
 20
145.66090297344951
 30
0.0
 11
183.5087852990587
 21
145.67292850241131
 31
0.0
  0
LINE
  5
13C5
  8
3
 10
184.0379085733783
 20
143.88112468710159
 30
0.0
 11
183.9056277547985
 21
143.90517574502519
 31
0.0
  0
LINE
  5
13C6
  8
3
 10
184.38063614878999
 20
143.53839711168999
 30
0.0
 11
184.42873826463719
 21
143.53839711168999
 31
0.0
  0
LINE
  5
13C7
  8
3
 10
184.3325340329427
 20
143.53238434720899
 30
0.0
 11
184.38063614878999
 21
143.53839711168999
 31
0.0
  0
LINE
  5
13C8
  8
3
 10
184.2784191526145
 20
143.53238434720899
 30
0.0
 11
184.3325340329427
 21
143.53238434720899
 31
0.0
  0
LINE
  5
13C9
  8
3
 10
184.21829150780559
 20
143.53238434720899
 30
0.0
 11
184.2784191526145
 21
143.53238434720899
 31
0.0
  0
LINE
  5
13CA
  8
3
 10
184.1040489826683
 20
143.88112468710159
 30
0.0
 11
184.0379085733783
 21
143.88112468710159
 31
0.0
  0
LINE
  5
13CB
  8
3
 10
184.17018939195819
 20
143.88112468710159
 30
0.0
 11
184.1040489826683
 21
143.88112468710159
 31
0.0
  0
LINE
  5
13CC
  8
3
 10
184.23632980124819
 20
143.8871374515825
 30
0.0
 11
184.17018939195819
 21
143.88112468710159
 31
0.0
  0
LINE
  5
13CD
  8
3
 10
184.30247021053819
 20
143.8931502160633
 30
0.0
 11
184.23632980124819
 21
143.8871374515825
 31
0.0
  0
LINE
  5
13CE
  8
3
 10
184.3686106198281
 20
143.90517574502519
 30
0.0
 11
184.30247021053819
 21
143.8931502160633
 31
0.0
  0
LINE
  5
13CF
  8
3
 10
184.4347510291181
 20
143.91720127398699
 30
0.0
 11
184.3686106198281
 21
143.90517574502519
 31
0.0
  0
LINE
  5
13D0
  8
3
 10
183.95974263512659
 20
143.5564354051327
 30
0.0
 11
183.96575539960759
 21
143.4542184089573
 31
0.0
  0
LINE
  5
13D1
  8
3
 10
183.5749257083487
 20
144.00137997671959
 30
0.0
 11
183.5749257083487
 21
144.00739274120059
 31
0.0
  0
LINE
  5
13D2
  8
3
 10
183.58093847282959
 20
144.00137997671959
 30
0.0
 11
183.5749257083487
 21
144.00137997671959
 31
0.0
  0
LINE
  5
13D3
  8
3
 10
183.58695123731039
 20
143.9953672122387
 30
0.0
 11
183.58093847282959
 21
144.00137997671959
 31
0.0
  0
LINE
  5
13D4
  8
3
 10
183.59296400179139
 20
143.9953672122387
 30
0.0
 11
183.58695123731039
 21
143.9953672122387
 31
0.0
  0
LINE
  5
13D5
  8
3
 10
183.59897676627219
 20
143.9953672122387
 30
0.0
 11
183.59296400179139
 21
143.9953672122387
 31
0.0
  0
LINE
  5
13D6
  8
3
 10
183.6049895307533
 20
143.9953672122387
 30
0.0
 11
183.59897676627219
 21
143.9953672122387
 31
0.0
  0
LINE
  5
13D7
  8
3
 10
183.6110022952341
 20
143.9953672122387
 30
0.0
 11
183.6049895307533
 21
143.9953672122387
 31
0.0
  0
LINE
  5
13D8
  8
3
 10
183.6170150597151
 20
143.9893544477579
 30
0.0
 11
183.6110022952341
 21
143.9953672122387
 31
0.0
  0
LINE
  5
13D9
  8
3
 10
183.6230278241959
 20
143.9893544477579
 30
0.0
 11
183.6170150597151
 21
143.9893544477579
 31
0.0
  0
LINE
  5
13DA
  8
3
 10
183.62904058867679
 20
143.9893544477579
 30
0.0
 11
183.6230278241959
 21
143.9893544477579
 31
0.0
  0
LINE
  5
13DB
  8
3
 10
183.6350533531577
 20
143.9893544477579
 30
0.0
 11
183.62904058867679
 21
143.9893544477579
 31
0.0
  0
LINE
  5
13DC
  8
3
 10
183.6410661176387
 20
143.9893544477579
 30
0.0
 11
183.6350533531577
 21
143.9893544477579
 31
0.0
  0
LINE
  5
13DD
  8
3
 10
183.6470788821195
 20
143.9893544477579
 30
0.0
 11
183.6410661176387
 21
143.9893544477579
 31
0.0
  0
LINE
  5
13DE
  8
3
 10
183.67714270452399
 20
143.9713161543151
 30
0.0
 11
183.6470788821195
 21
143.9893544477579
 31
0.0
  0
LINE
  5
13DF
  8
3
 10
183.7011937624477
 20
143.9592906253533
 30
0.0
 11
183.6891682334857
 21
143.96530338983419
 31
0.0
  0
LINE
  5
13E0
  8
3
 10
183.6891682334857
 20
143.96530338983419
 30
0.0
 11
183.67714270452399
 21
143.9713161543151
 31
0.0
  0
LINE
  5
13E1
  8
3
 10
183.7011937624477
 20
143.6406141078653
 30
0.0
 11
183.76132140725679
 21
143.6466268723463
 31
0.0
  0
LINE
  5
13E2
  8
3
 10
183.76733417173759
 20
143.9412523319107
 30
0.0
 11
183.74929587829499
 21
143.9472650963915
 31
0.0
  0
LINE
  5
13E3
  8
3
 10
183.76132140725679
 20
143.6466268723463
 30
0.0
 11
183.8274618165467
 21
143.6466268723463
 31
0.0
  0
LINE
  5
13E4
  8
3
 10
183.7853724651803
 20
143.9412523319107
 30
0.0
 11
183.76733417173759
 21
143.9412523319107
 31
0.0
  0
LINE
  5
13E5
  8
3
 10
183.79739799414219
 20
143.9352395674297
 30
0.0
 11
183.7853724651803
 21
143.9412523319107
 31
0.0
  0
LINE
  5
13E6
  8
3
 10
183.8154362875849
 20
143.92922680294879
 30
0.0
 11
183.79739799414219
 21
143.9352395674297
 31
0.0
  0
LINE
  5
13E7
  8
3
 10
183.8334745810275
 20
143.92922680294879
 30
0.0
 11
183.8154362875849
 21
143.92922680294879
 31
0.0
  0
LINE
  5
13E8
  8
3
 10
183.85151287447039
 20
143.9232140384679
 30
0.0
 11
183.8334745810275
 21
143.92922680294879
 31
0.0
  0
LINE
  5
13E9
  8
3
 10
183.86955116791299
 20
143.91720127398699
 30
0.0
 11
183.85151287447039
 21
143.9232140384679
 31
0.0
  0
LINE
  5
13EA
  8
3
 10
183.8875894613557
 20
143.9111885095061
 30
0.0
 11
183.86955116791299
 21
143.91720127398699
 31
0.0
  0
LINE
  5
13EB
  8
3
 10
183.9056277547985
 20
143.90517574502519
 30
0.0
 11
183.8875894613557
 21
143.9111885095061
 31
0.0
  0
LINE
  5
13EC
  8
3
 10
183.71923205589039
 20
143.95327786087239
 30
0.0
 11
183.7011937624477
 21
143.9592906253533
 31
0.0
  0
LINE
  5
13ED
  8
3
 10
183.7312575848523
 20
143.9472650963915
 30
0.0
 11
183.71923205589039
 21
143.95327786087239
 31
0.0
  0
LINE
  5
13EE
  8
3
 10
183.74929587829499
 20
143.9472650963915
 30
0.0
 11
183.7312575848523
 21
143.9472650963915
 31
0.0
  0
LINE
  5
13EF
  8
3
 10
183.5749257083487
 20
143.6466268723463
 30
0.0
 11
183.6350533531577
 21
143.6466268723463
 31
0.0
  0
LINE
  5
13F0
  8
3
 10
183.6350533531577
 20
143.6466268723463
 30
0.0
 11
183.7011937624477
 21
143.6406141078653
 31
0.0
  0
LINE
  5
13F1
  8
3
 10
183.5749257083487
 20
144.00739274120059
 30
0.0
 11
183.56290017938699
 21
144.01340550568139
 31
0.0
  0
LINE
  5
13F2
  8
3
 10
183.9477171061649
 20
143.6586524013081
 30
0.0
 11
183.95974263512659
 21
143.5564354051327
 31
0.0
  0
LINE
  5
13F3
  8
3
 10
183.8274618165467
 20
143.6466268723463
 30
0.0
 11
183.9477171061649
 21
143.6586524013081
 31
0.0
  0
LINE
  5
13F4
  8
3
 10
184.0078447509739
 20
145.54064768383139
 30
0.0
 11
183.96575539960759
 21
145.564698741755
 31
0.0
  0
LINE
  5
13F5
  8
3
 10
184.42272550015639
 20
145.624826386564
 30
0.0
 11
184.37462338430899
 21
145.6548902089686
 31
0.0
  0
LINE
  5
13F6
  8
3
 10
184.0499341023403
 20
145.79919655651031
 30
0.0
 11
184.0198702799357
 21
145.58273703519771
 31
0.0
  0
LINE
  5
13F7
  8
3
 10
184.0318958088975
 20
145.46849451006051
 30
0.0
 11
184.0318958088975
 21
145.42039239421331
 31
0.0
  0
LINE
  5
13F8
  8
3
 10
184.0318958088975
 20
145.37830304284691
 30
0.0
 11
184.0318958088975
 21
145.33621369148059
 31
0.0
  0
LINE
  5
13F9
  8
3
 10
184.0318958088975
 20
145.42039239421331
 30
0.0
 11
184.0318958088975
 21
145.37830304284691
 31
0.0
  0
LINE
  5
13FA
  8
3
 10
184.0258830444165
 20
145.52260939038871
 30
0.0
 11
184.0318958088975
 21
145.46849451006051
 31
0.0
  0
LINE
  5
13FB
  8
3
 10
184.0198702799357
 20
145.58273703519771
 30
0.0
 11
184.0258830444165
 21
145.52260939038871
 31
0.0
  0
LINE
  5
13FC
  8
3
 10
184.0138575154547
 20
145.52862215486959
 30
0.0
 11
184.0078447509739
 21
145.54064768383139
 31
0.0
  0
LINE
  5
13FD
  8
3
 10
184.0138575154547
 20
145.52260939038871
 30
0.0
 11
184.0138575154547
 21
145.52862215486959
 31
0.0
  0
LINE
  5
13FE
  8
3
 10
184.0078447509739
 20
145.52260939038871
 30
0.0
 11
184.0138575154547
 21
145.52260939038871
 31
0.0
  0
LINE
  5
13FF
  8
3
 10
184.42272550015639
 20
145.08367758328259
 30
0.0
 11
184.4347510291181
 21
145.09570311224439
 31
0.0
  0
LINE
  5
1400
  8
3
 10
184.4046872067135
 20
145.07766481880171
 30
0.0
 11
184.42272550015639
 21
145.08367758328259
 31
0.0
  0
LINE
  5
1401
  8
3
 10
184.38664891327079
 20
145.06563928983991
 30
0.0
 11
184.4046872067135
 21
145.07766481880171
 31
0.0
  0
LINE
  5
1402
  8
3
 10
184.37462338430899
 20
145.05361376087811
 30
0.0
 11
184.38664891327079
 21
145.06563928983991
 31
0.0
  0
LINE
  5
1403
  8
3
 10
184.3565850908663
 20
145.04158823191619
 30
0.0
 11
184.37462338430899
 21
145.05361376087811
 31
0.0
  0
LINE
  5
1404
  8
3
 10
184.3385467974235
 20
145.02956270295439
 30
0.0
 11
184.3565850908663
 21
145.04158823191619
 31
0.0
  0
LINE
  5
1405
  8
3
 10
184.32652126846179
 20
145.01753717399259
 30
0.0
 11
184.3385467974235
 21
145.02956270295439
 31
0.0
  0
LINE
  5
1406
  8
3
 10
184.3084829750191
 20
145.00551164503079
 30
0.0
 11
184.32652126846179
 21
145.01753717399259
 31
0.0
  0
LINE
  5
1407
  8
3
 10
184.29645744605719
 20
144.99348611606899
 30
0.0
 11
184.3084829750191
 21
145.00551164503079
 31
0.0
  0
LINE
  5
1408
  8
3
 10
184.0258830444165
 20
145.07766481880171
 30
0.0
 11
184.0318958088975
 21
145.04760099639719
 31
0.0
  0
LINE
  5
1409
  8
3
 10
184.0258830444165
 20
145.10772864120619
 30
0.0
 11
184.0258830444165
 21
145.07766481880171
 31
0.0
  0
LINE
  5
140A
  8
3
 10
184.0258830444165
 20
145.13779246361071
 30
0.0
 11
184.0258830444165
 21
145.10772864120619
 31
0.0
  0
LINE
  5
140B
  8
3
 10
184.0258830444165
 20
145.16785628601519
 30
0.0
 11
184.0258830444165
 21
145.13779246361071
 31
0.0
  0
LINE
  5
140C
  8
3
 10
184.0258830444165
 20
145.19792010841979
 30
0.0
 11
184.0258830444165
 21
145.16785628601519
 31
0.0
  0
LINE
  5
140D
  8
3
 10
184.0258830444165
 20
145.23399669530519
 30
0.0
 11
184.0258830444165
 21
145.19792010841979
 31
0.0
  0
LINE
  5
140E
  8
3
 10
184.0258830444165
 20
145.26406051770971
 30
0.0
 11
184.0258830444165
 21
145.23399669530519
 31
0.0
  0
LINE
  5
140F
  8
3
 10
184.0318958088975
 20
145.30013710459519
 30
0.0
 11
184.0258830444165
 21
145.26406051770971
 31
0.0
  0
LINE
  5
1410
  8
3
 10
184.0318958088975
 20
145.33621369148059
 30
0.0
 11
184.0318958088975
 21
145.30013710459519
 31
0.0
  0
LINE
  5
1411
  8
3
 10
184.26639362365279
 20
144.97544782262631
 30
0.0
 11
184.2784191526145
 21
144.98146058710719
 31
0.0
  0
LINE
  5
1412
  8
3
 10
184.25436809469099
 20
144.96342229366451
 30
0.0
 11
184.26639362365279
 21
144.97544782262631
 31
0.0
  0
LINE
  5
1413
  8
3
 10
184.2423425657291
 20
144.95139676470271
 30
0.0
 11
184.25436809469099
 21
144.96342229366451
 31
0.0
  0
LINE
  5
1414
  8
3
 10
184.22430427228639
 20
144.93937123574091
 30
0.0
 11
184.2423425657291
 21
144.95139676470271
 31
0.0
  0
LINE
  5
1415
  8
3
 10
184.2002532143629
 20
144.92734570677899
 30
0.0
 11
184.22430427228639
 21
144.93937123574091
 31
0.0
  0
LINE
  5
1416
  8
3
 10
184.18822768540099
 20
144.92734570677899
 30
0.0
 11
184.2002532143629
 21
144.92734570677899
 31
0.0
  0
LINE
  5
1417
  8
3
 10
184.17620215643919
 20
144.92133294229811
 30
0.0
 11
184.18822768540099
 21
144.92734570677899
 31
0.0
  0
LINE
  5
1418
  8
3
 10
184.1581638629965
 20
144.92133294229811
 30
0.0
 11
184.17620215643919
 21
144.92133294229811
 31
0.0
  0
LINE
  5
1419
  8
3
 10
184.1461383340347
 20
144.92133294229811
 30
0.0
 11
184.1581638629965
 21
144.92133294229811
 31
0.0
  0
LINE
  5
141A
  8
3
 10
184.13411280507279
 20
144.92734570677899
 30
0.0
 11
184.1461383340347
 21
144.92133294229811
 31
0.0
  0
LINE
  5
141B
  8
3
 10
184.1220872761111
 20
144.92734570677899
 30
0.0
 11
184.13411280507279
 21
144.92734570677899
 31
0.0
  0
LINE
  5
141C
  8
3
 10
184.11006174714919
 20
144.93335847125991
 30
0.0
 11
184.1220872761111
 21
144.92734570677899
 31
0.0
  0
LINE
  5
141D
  8
3
 10
184.09803621818739
 20
144.93335847125991
 30
0.0
 11
184.11006174714919
 21
144.93335847125991
 31
0.0
  0
LINE
  5
141E
  8
3
 10
184.0860106892255
 20
144.93937123574091
 30
0.0
 11
184.09803621818739
 21
144.93335847125991
 31
0.0
  0
LINE
  5
141F
  8
3
 10
184.0739851602637
 20
144.94538400022179
 30
0.0
 11
184.0860106892255
 21
144.93937123574091
 31
0.0
  0
LINE
  5
1420
  8
3
 10
184.06195963130199
 20
144.95139676470271
 30
0.0
 11
184.0739851602637
 21
144.94538400022179
 31
0.0
  0
LINE
  5
1421
  8
3
 10
184.0559468668211
 20
144.96342229366451
 30
0.0
 11
184.06195963130199
 21
144.95139676470271
 31
0.0
  0
LINE
  5
1422
  8
3
 10
184.0499341023403
 20
144.96943505814539
 30
0.0
 11
184.0559468668211
 21
144.96342229366451
 31
0.0
  0
LINE
  5
1423
  8
3
 10
184.0379085733783
 20
144.98146058710719
 30
0.0
 11
184.0499341023403
 21
144.96943505814539
 31
0.0
  0
LINE
  5
1424
  8
3
 10
184.2784191526145
 20
144.98146058710719
 30
0.0
 11
184.29645744605719
 21
144.99348611606899
 31
0.0
  0
LINE
  5
1425
  8
3
 10
184.0318958088975
 20
145.04760099639719
 30
0.0
 11
184.0379085733783
 21
144.98146058710719
 31
0.0
  0
LINE
  5
1426
  8
3
 10
184.0318958088975
 20
146.37040918219631
 30
0.0
 11
184.0379085733783
 21
146.25616665705911
 31
0.0
  0
LINE
  5
1427
  8
3
 10
184.0379085733783
 20
146.25616665705911
 30
0.0
 11
184.04392133785919
 21
146.14192413192191
 31
0.0
  0
LINE
  5
1428
  8
3
 10
184.0499341023403
 20
146.02768160678471
 30
0.0
 11
184.0499341023403
 21
145.91343908164751
 31
0.0
  0
LINE
  5
1429
  8
3
 10
184.04392133785919
 20
146.14192413192191
 30
0.0
 11
184.0499341023403
 21
146.02768160678471
 31
0.0
  0
LINE
  5
142A
  8
3
 10
184.27240638813359
 20
145.7631199696248
 30
0.0
 11
184.26639362365279
 21
145.7691327341058
 31
0.0
  0
LINE
  5
142B
  8
3
 10
184.27240638813359
 20
145.757107205144
 30
0.0
 11
184.27240638813359
 21
145.7631199696248
 31
0.0
  0
LINE
  5
142C
  8
3
 10
184.27240638813359
 20
145.751094440663
 30
0.0
 11
184.27240638813359
 21
145.757107205144
 31
0.0
  0
LINE
  5
142D
  8
3
 10
184.2784191526145
 20
145.7450816761822
 30
0.0
 11
184.27240638813359
 21
145.751094440663
 31
0.0
  0
LINE
  5
142E
  8
3
 10
184.2784191526145
 20
145.7390689117012
 30
0.0
 11
184.2784191526145
 21
145.7450816761822
 31
0.0
  0
LINE
  5
142F
  8
3
 10
184.2784191526145
 20
145.73305614722031
 30
0.0
 11
184.2784191526145
 21
145.7390689117012
 31
0.0
  0
LINE
  5
1430
  8
3
 10
184.28443191709539
 20
145.73305614722031
 30
0.0
 11
184.2784191526145
 21
145.73305614722031
 31
0.0
  0
LINE
  5
1431
  8
3
 10
184.0499341023403
 20
145.91343908164751
 30
0.0
 11
184.0499341023403
 21
145.79919655651031
 31
0.0
  0
LINE
  5
1432
  8
3
 10
184.37462338430899
 20
145.6548902089686
 30
0.0
 11
184.28443191709539
 21
145.7270433827394
 31
0.0
  0
LINE
  5
1433
  8
3
 10
184.28443191709539
 20
145.7270433827394
 30
0.0
 11
184.28443191709539
 21
145.73305614722031
 31
0.0
  0
LINE
  5
1434
  8
3
 10
183.6651171755623
 20
145.64887744448771
 30
0.0
 11
183.6110022952341
 21
145.6548902089686
 31
0.0
  0
LINE
  5
1435
  8
3
 10
183.96575539960759
 20
145.564698741755
 30
0.0
 11
183.9176532837603
 21
145.5887497996786
 31
0.0
  0
LINE
  5
1436
  8
3
 10
183.76733417173759
 20
145.63083915104491
 30
0.0
 11
183.7132192914095
 21
145.6428646800068
 31
0.0
  0
LINE
  5
1437
  8
3
 10
183.8154362875849
 20
145.61881362208311
 30
0.0
 11
183.76733417173759
 21
145.63083915104491
 31
0.0
  0
LINE
  5
1438
  8
3
 10
183.86955116791299
 20
145.60678809312131
 30
0.0
 11
183.8154362875849
 21
145.61881362208311
 31
0.0
  0
LINE
  5
1439
  8
3
 10
183.9176532837603
 20
145.5887497996786
 30
0.0
 11
183.86955116791299
 21
145.60678809312131
 31
0.0
  0
LINE
  5
143A
  8
3
 10
183.7132192914095
 20
145.6428646800068
 30
0.0
 11
183.6651171755623
 21
145.64887744448771
 31
0.0
  0
LINE
  5
143B
  8
3
 10
183.6110022952341
 20
145.6548902089686
 30
0.0
 11
183.55688741490599
 21
145.66090297344951
 31
0.0
  0
LINE
  5
143C
  8
3
 10
182.96162373129641
 20
144.86721806196999
 30
0.0
 11
182.96162373129641
 21
144.90329464885539
 31
0.0
  0
LINE
  5
143D
  8
3
 10
183.01573861162441
 20
143.6406141078653
 30
0.0
 11
183.0758662564335
 21
143.6466268723463
 31
0.0
  0
LINE
  5
143E
  8
3
 10
183.0758662564335
 20
144.53651601552019
 30
0.0
 11
183.0458024340291
 21
144.59664366032919
 31
0.0
  0
LINE
  5
143F
  8
3
 10
183.41258106736419
 20
144.1276480308187
 30
0.0
 11
183.3584661870361
 21
144.16973738218499
 31
0.0
  0
LINE
  5
1440
  8
3
 10
183.51479806353959
 20
144.0494820925669
 30
0.0
 11
183.46068318321159
 21
144.08555867945239
 31
0.0
  0
LINE
  5
1441
  8
3
 10
183.4486576542497
 20
143.6466268723463
 30
0.0
 11
183.5087852990587
 21
143.6466268723463
 31
0.0
  0
LINE
  5
1442
  8
3
 10
183.3885300094405
 20
143.65263963682719
 30
0.0
 11
183.4486576542497
 21
143.6466268723463
 31
0.0
  0
LINE
  5
1443
  8
3
 10
183.3223896001507
 20
143.65263963682719
 30
0.0
 11
183.3885300094405
 21
143.65263963682719
 31
0.0
  0
LINE
  5
1444
  8
3
 10
183.26226195534159
 20
143.65263963682719
 30
0.0
 11
183.3223896001507
 21
143.65263963682719
 31
0.0
  0
LINE
  5
1445
  8
3
 10
183.20213431053261
 20
143.65263963682719
 30
0.0
 11
183.26226195534159
 21
143.65263963682719
 31
0.0
  0
LINE
  5
1446
  8
3
 10
183.13599390124261
 20
143.6466268723463
 30
0.0
 11
183.20213431053261
 21
143.65263963682719
 31
0.0
  0
LINE
  5
1447
  8
3
 10
183.0758662564335
 20
143.6466268723463
 30
0.0
 11
183.13599390124261
 21
143.6466268723463
 31
0.0
  0
LINE
  5
1448
  8
3
 10
183.46068318321159
 20
144.08555867945239
 30
0.0
 11
183.41258106736419
 21
144.1276480308187
 31
0.0
  0
LINE
  5
1449
  8
3
 10
183.10593007883801
 20
144.47638837071119
 30
0.0
 11
183.0758662564335
 21
144.53651601552019
 31
0.0
  0
LINE
  5
144A
  8
3
 10
183.1420066657235
 20
144.42227349038299
 30
0.0
 11
183.10593007883801
 21
144.47638837071119
 31
0.0
  0
LINE
  5
144B
  8
3
 10
183.18409601708979
 20
144.36815861005491
 30
0.0
 11
183.1420066657235
 21
144.42227349038299
 31
0.0
  0
LINE
  5
144C
  8
3
 10
183.22618536845621
 20
144.31404372972671
 30
0.0
 11
183.18409601708979
 21
144.36815861005491
 31
0.0
  0
LINE
  5
144D
  8
3
 10
183.2682747198225
 20
144.26594161387951
 30
0.0
 11
183.22618536845621
 21
144.31404372972671
 31
0.0
  0
LINE
  5
144E
  8
3
 10
183.3584661870361
 20
144.16973738218499
 30
0.0
 11
183.31036407118879
 21
144.2178394980323
 31
0.0
  0
LINE
  5
144F
  8
3
 10
183.31036407118879
 20
144.2178394980323
 30
0.0
 11
183.2682747198225
 21
144.26594161387951
 31
0.0
  0
LINE
  5
1450
  8
3
 10
182.94959820233441
 20
143.63460134338439
 30
0.0
 11
183.01573861162441
 21
143.6406141078653
 31
0.0
  0
LINE
  5
1451
  8
3
 10
183.01573861162441
 20
144.66278406961919
 30
0.0
 11
182.99770031818181
 21
144.72892447890919
 31
0.0
  0
LINE
  5
1452
  8
3
 10
183.0458024340291
 20
144.59664366032919
 30
0.0
 11
183.01573861162441
 21
144.66278406961919
 31
0.0
  0
LINE
  5
1453
  8
3
 10
182.99770031818181
 20
144.72892447890919
 30
0.0
 11
182.96162373129641
 21
144.86721806196999
 31
0.0
  0
LINE
  5
1454
  8
3
 10
183.20814707501339
 20
145.757107205144
 30
0.0
 11
183.0037130826625
 21
145.9855922554184
 31
0.0
  0
LINE
  5
1455
  8
3
 10
183.35245342255519
 20
145.69697956033491
 30
0.0
 11
183.30435130670801
 21
145.7150178537776
 31
0.0
  0
LINE
  5
1456
  8
3
 10
183.4065683028833
 20
145.68495403137311
 30
0.0
 11
183.35245342255519
 21
145.69697956033491
 31
0.0
  0
LINE
  5
1457
  8
3
 10
183.4546704187305
 20
145.6789412668922
 30
0.0
 11
183.4065683028833
 21
145.68495403137311
 31
0.0
  0
LINE
  5
1458
  8
3
 10
183.5087852990587
 20
145.67292850241131
 30
0.0
 11
183.4546704187305
 21
145.6789412668922
 31
0.0
  0
LINE
  5
1459
  8
3
 10
183.30435130670801
 20
145.7150178537776
 30
0.0
 11
183.20814707501339
 21
145.757107205144
 31
0.0
  0
LINE
  5
145A
  8
3
 10
182.96162373129641
 20
145.39634133628971
 30
0.0
 11
182.96162373129641
 21
145.43843068765599
 31
0.0
  0
LINE
  5
145B
  8
3
 10
182.96162373129641
 20
145.35425198492331
 30
0.0
 11
182.96162373129641
 21
145.39634133628971
 31
0.0
  0
LINE
  5
145C
  8
3
 10
182.96162373129641
 20
145.31817539803791
 30
0.0
 11
182.96162373129641
 21
145.35425198492331
 31
0.0
  0
LINE
  5
145D
  8
3
 10
182.96162373129641
 20
145.43843068765599
 30
0.0
 11
182.96162373129641
 21
145.52260939038871
 31
0.0
  0
LINE
  5
145E
  8
3
 10
182.96162373129641
 20
145.23399669530519
 30
0.0
 11
182.96162373129641
 21
145.27608604667159
 31
0.0
  0
LINE
  5
145F
  8
3
 10
182.96162373129641
 20
145.19190734393891
 30
0.0
 11
182.96162373129641
 21
145.23399669530519
 31
0.0
  0
LINE
  5
1460
  8
3
 10
182.96162373129641
 20
145.15583075705339
 30
0.0
 11
182.96162373129641
 21
145.19190734393891
 31
0.0
  0
LINE
  5
1461
  8
3
 10
182.96162373129641
 20
145.11374140568711
 30
0.0
 11
182.96162373129641
 21
145.15583075705339
 31
0.0
  0
LINE
  5
1462
  8
3
 10
182.96162373129641
 20
145.07165205432079
 30
0.0
 11
182.96162373129641
 21
145.11374140568711
 31
0.0
  0
LINE
  5
1463
  8
3
 10
182.96162373129641
 20
145.02956270295439
 30
0.0
 11
182.96162373129641
 21
145.07165205432079
 31
0.0
  0
LINE
  5
1464
  8
3
 10
182.96162373129641
 20
144.98747335158811
 30
0.0
 11
182.96162373129641
 21
145.02956270295439
 31
0.0
  0
LINE
  5
1465
  8
3
 10
182.96162373129641
 20
145.27608604667159
 30
0.0
 11
182.96162373129641
 21
145.31817539803791
 31
0.0
  0
LINE
  5
1466
  8
3
 10
182.96162373129641
 20
144.90329464885539
 30
0.0
 11
182.96162373129641
 21
144.94538400022179
 31
0.0
  0
LINE
  5
1467
  8
3
 10
182.96162373129641
 20
144.94538400022179
 30
0.0
 11
182.96162373129641
 21
144.98747335158811
 31
0.0
  0
LINE
  5
1468
  8
3
 10
182.9796620247391
 20
146.32831983082991
 30
0.0
 11
182.9796620247391
 21
146.38243471115811
 31
0.0
  0
LINE
  5
1469
  8
3
 10
182.9796620247391
 20
146.28021771498271
 30
0.0
 11
182.9796620247391
 21
146.32831983082991
 31
0.0
  0
LINE
  5
146A
  8
3
 10
182.9856747892199
 20
146.23211559913551
 30
0.0
 11
182.9796620247391
 21
146.28021771498271
 31
0.0
  0
LINE
  5
146B
  8
3
 10
182.9856747892199
 20
146.12989860296
 30
0.0
 11
182.9856747892199
 21
146.1780007188074
 31
0.0
  0
LINE
  5
146C
  8
3
 10
182.99168755370081
 20
146.0817964871128
 30
0.0
 11
182.9856747892199
 21
146.12989860296
 31
0.0
  0
LINE
  5
146D
  8
3
 10
182.9856747892199
 20
146.1780007188074
 30
0.0
 11
182.9856747892199
 21
146.23211559913551
 31
0.0
  0
LINE
  5
146E
  8
3
 10
183.0037130826625
 20
145.9855922554184
 30
0.0
 11
182.99770031818181
 21
146.0336943712656
 31
0.0
  0
LINE
  5
146F
  8
3
 10
182.99770031818181
 20
146.0336943712656
 30
0.0
 11
182.99168755370081
 21
146.0817964871128
 31
0.0
  0
LINE
  5
1470
  8
3
 10
181.88476442127021
 20
140.74847439254989
 30
0.0
 11
181.88476442127021
 21
139.6737797728897
 31
0.0
  0
LINE
  5
1471
  8
3
 10
182.08919841362101
 20
140.74847439254989
 30
0.0
 11
182.34230898976301
 21
140.75448715703089
 31
0.0
  0
LINE
  5
1472
  8
3
 10
182.34230898976301
 20
140.75448715703089
 30
0.0
 11
182.5707940400375
 21
140.75448715703089
 31
0.0
  0
LINE
  5
1473
  8
3
 10
181.88476442127021
 20
140.74847439254989
 30
0.0
 11
182.08919841362101
 21
140.74847439254989
 31
0.0
  0
LINE
  5
1474
  8
3
 10
184.32652126846179
 20
148.55905545324569
 30
0.0
 11
184.4948786739271
 21
148.58310651116929
 31
0.0
  0
LINE
  5
1475
  8
3
 10
185.33666570125391
 20
148.5951320401312
 30
0.0
 11
185.50502310671919
 21
148.60114480461209
 31
0.0
  0
LINE
  5
1476
  8
3
 10
186.23858037338971
 20
147.2001706805612
 30
0.0
 11
186.2566186668324
 21
147.1280175067904
 31
0.0
  0
LINE
  5
1477
  8
3
 10
186.2566186668324
 20
147.1280175067904
 30
0.0
 11
186.2686441957942
 21
147.05586433301951
 31
0.0
  0
LINE
  5
1478
  8
3
 10
186.2445931378706
 20
147.597013136301
 30
0.0
 11
186.23858037338971
 21
147.59100037182
 31
0.0
  0
LINE
  5
1479
  8
3
 10
186.2566186668324
 20
147.6030259007818
 30
0.0
 11
186.2445931378706
 21
147.597013136301
 31
0.0
  0
LINE
  5
147A
  8
3
 10
186.2626314313132
 20
147.60903866526269
 30
0.0
 11
186.2566186668324
 21
147.6030259007818
 31
0.0
  0
LINE
  5
147B
  8
3
 10
186.2686441957942
 20
147.61505142974369
 30
0.0
 11
186.2626314313132
 21
147.60903866526269
 31
0.0
  0
LINE
  5
147C
  8
3
 10
186.23858037338971
 20
147.59100037182
 30
0.0
 11
186.2265548444278
 21
147.58498760733909
 31
0.0
  0
LINE
  5
147D
  8
3
 10
186.22054207994699
 20
147.27232385433209
 30
0.0
 11
186.23858037338971
 21
147.2001706805612
 31
0.0
  0
LINE
  5
147E
  8
3
 10
186.20851655098519
 20
147.2903621477748
 30
0.0
 11
186.22054207994699
 21
147.27232385433209
 31
0.0
  0
LINE
  5
147F
  8
3
 10
186.20250378650439
 20
147.3023876767366
 30
0.0
 11
186.20851655098519
 21
147.2903621477748
 31
0.0
  0
LINE
  5
1480
  8
3
 10
186.19649102202331
 20
147.31441320569849
 30
0.0
 11
186.20250378650439
 21
147.3023876767366
 31
0.0
  0
LINE
  5
1481
  8
3
 10
186.1904782575424
 20
147.3264387346602
 30
0.0
 11
186.19649102202331
 21
147.31441320569849
 31
0.0
  0
LINE
  5
1482
  8
3
 10
186.18446549306159
 20
147.33846426362209
 30
0.0
 11
186.1904782575424
 21
147.3264387346602
 31
0.0
  0
LINE
  5
1483
  8
3
 10
186.1784527285806
 20
147.3504897925838
 30
0.0
 11
186.18446549306159
 21
147.33846426362209
 31
0.0
  0
LINE
  5
1484
  8
3
 10
186.17243996409979
 20
147.3685280860266
 30
0.0
 11
186.1784527285806
 21
147.3504897925838
 31
0.0
  0
LINE
  5
1485
  8
3
 10
186.16642719961871
 20
147.3805536149884
 30
0.0
 11
186.17243996409979
 21
147.3685280860266
 31
0.0
  0
LINE
  5
1486
  8
3
 10
186.16041443513791
 20
147.39257914395009
 30
0.0
 11
186.16642719961871
 21
147.3805536149884
 31
0.0
  0
LINE
  5
1487
  8
3
 10
186.15440167065711
 20
147.404604672912
 30
0.0
 11
186.16041443513791
 21
147.39257914395009
 31
0.0
  0
LINE
  5
1488
  8
3
 10
186.14237614169519
 20
147.4166302018738
 30
0.0
 11
186.15440167065711
 21
147.404604672912
 31
0.0
  0
LINE
  5
1489
  8
3
 10
186.13636337721431
 20
147.43466849531649
 30
0.0
 11
186.14237614169519
 21
147.4166302018738
 31
0.0
  0
LINE
  5
148A
  8
3
 10
186.13035061273351
 20
147.44669402427829
 30
0.0
 11
186.13636337721431
 21
147.43466849531649
 31
0.0
  0
LINE
  5
148B
  8
3
 10
186.12433784825251
 20
147.45871955324009
 30
0.0
 11
186.13035061273351
 21
147.44669402427829
 31
0.0
  0
LINE
  5
148C
  8
3
 10
186.11231231929071
 20
147.47074508220189
 30
0.0
 11
186.12433784825251
 21
147.45871955324009
 31
0.0
  0
LINE
  5
148D
  8
3
 10
186.11832508377151
 20
147.4767578466828
 30
0.0
 11
186.11231231929071
 21
147.47074508220189
 31
0.0
  0
LINE
  5
148E
  8
3
 10
186.11832508377151
 20
147.48277061116369
 30
0.0
 11
186.11832508377151
 21
147.4767578466828
 31
0.0
  0
LINE
  5
148F
  8
3
 10
186.11832508377151
 20
147.48878337564469
 30
0.0
 11
186.11832508377151
 21
147.48277061116369
 31
0.0
  0
LINE
  5
1490
  8
3
 10
186.11832508377151
 20
147.49479614012549
 30
0.0
 11
186.11832508377151
 21
147.48878337564469
 31
0.0
  0
LINE
  5
1491
  8
3
 10
186.11832508377151
 20
147.5008089046064
 30
0.0
 11
186.11832508377151
 21
147.49479614012549
 31
0.0
  0
LINE
  5
1492
  8
3
 10
186.11832508377151
 20
147.5068216690874
 30
0.0
 11
186.11832508377151
 21
147.5008089046064
 31
0.0
  0
LINE
  5
1493
  8
3
 10
186.11832508377151
 20
147.51283443356829
 30
0.0
 11
186.11832508377151
 21
147.5068216690874
 31
0.0
  0
LINE
  5
1494
  8
3
 10
186.11832508377151
 20
147.5188471980492
 30
0.0
 11
186.11832508377151
 21
147.51283443356829
 31
0.0
  0
LINE
  5
1495
  8
3
 10
186.11832508377151
 20
147.52485996253009
 30
0.0
 11
186.11832508377151
 21
147.5188471980492
 31
0.0
  0
LINE
  5
1496
  8
3
 10
186.12433784825251
 20
147.530872727011
 30
0.0
 11
186.11832508377151
 21
147.52485996253009
 31
0.0
  0
LINE
  5
1497
  8
3
 10
186.12433784825251
 20
147.53688549149189
 30
0.0
 11
186.12433784825251
 21
147.530872727011
 31
0.0
  0
LINE
  5
1498
  8
3
 10
186.13035061273351
 20
147.53688549149189
 30
0.0
 11
186.12433784825251
 21
147.53688549149189
 31
0.0
  0
LINE
  5
1499
  8
3
 10
186.13035061273351
 20
147.5428982559728
 30
0.0
 11
186.13035061273351
 21
147.53688549149189
 31
0.0
  0
LINE
  5
149A
  8
3
 10
186.13035061273351
 20
147.54891102045369
 30
0.0
 11
186.13035061273351
 21
147.5428982559728
 31
0.0
  0
LINE
  5
149B
  8
3
 10
186.16041443513791
 20
147.5549237849346
 30
0.0
 11
186.13035061273351
 21
147.54891102045369
 31
0.0
  0
LINE
  5
149C
  8
3
 10
186.17243996409979
 20
147.56093654941549
 30
0.0
 11
186.16041443513791
 21
147.5549237849346
 31
0.0
  0
LINE
  5
149D
  8
3
 10
186.18446549306159
 20
147.5669493138964
 30
0.0
 11
186.17243996409979
 21
147.56093654941549
 31
0.0
  0
LINE
  5
149E
  8
3
 10
186.19649102202331
 20
147.5669493138964
 30
0.0
 11
186.18446549306159
 21
147.5669493138964
 31
0.0
  0
LINE
  5
149F
  8
3
 10
186.20851655098519
 20
147.57296207837729
 30
0.0
 11
186.19649102202331
 21
147.5669493138964
 31
0.0
  0
LINE
  5
14A0
  8
3
 10
186.214529315466
 20
147.5789748428582
 30
0.0
 11
186.20851655098519
 21
147.57296207837729
 31
0.0
  0
LINE
  5
14A1
  8
3
 10
186.2265548444278
 20
147.58498760733909
 30
0.0
 11
186.214529315466
 21
147.5789748428582
 31
0.0
  0
LINE
  5
14A2
  8
3
 10
185.67338051218459
 20
148.61317033357389
 30
0.0
 11
185.83572515316899
 21
148.6312086270166
 31
0.0
  0
LINE
  5
14A3
  8
3
 10
185.83572515316899
 20
148.6312086270166
 30
0.0
 11
185.99205702967259
 21
148.66728521390201
 31
0.0
  0
LINE
  5
14A4
  8
3
 10
185.50502310671919
 20
148.60114480461209
 30
0.0
 11
185.67338051218459
 21
148.61317033357389
 31
0.0
  0
POLYLINE
  5
14A5
  8
3
 66
     1
 10
0.0
 20
0.0
 30
0.0
 70
     1
  0
VERTEX
  5
14A6
  8
3
 10
184.98191259688039
 20
146.52072829421891
 30
0.0
  0
VERTEX
  5
14A7
  8
3
 10
184.98191259688039
 20
147.36251532154569
 30
0.0
  0
VERTEX
  5
14A8
  8
3
 10
184.99393812584231
 20
147.3685280860266
 30
0.0
  0
VERTEX
  5
14A9
  8
3
 10
185.00596365480411
 20
147.37454085050749
 30
0.0
  0
VERTEX
  5
14AA
  8
3
 10
185.01197641928499
 20
147.37454085050749
 30
0.0
  0
VERTEX
  5
14AB
  8
3
 10
185.02400194824691
 20
147.37454085050749
 30
0.0
  0
VERTEX
  5
14AC
  8
3
 10
185.03001471272771
 20
147.3685280860266
 30
0.0
  0
VERTEX
  5
14AD
  8
3
 10
185.04204024168951
 20
147.36251532154569
 30
0.0
  0
VERTEX
  5
14AE
  8
3
 10
185.05406577065139
 20
147.35650255706469
 30
0.0
  0
VERTEX
  5
14AF
  8
3
 10
185.06609129961311
 20
147.344477028103
 30
0.0
  0
VERTEX
  5
14B0
  8
3
 10
185.07210406409411
 20
147.3324514991412
 30
0.0
  0
VERTEX
  5
14B1
  8
3
 10
185.08412959305591
 20
147.32042597017929
 30
0.0
  0
VERTEX
  5
14B2
  8
3
 10
185.09615512201771
 20
147.30840044121749
 30
0.0
  0
VERTEX
  5
14B3
  8
3
 10
185.10818065097951
 20
147.29637491225569
 30
0.0
  0
VERTEX
  5
14B4
  8
3
 10
185.11419341546031
 20
147.28434938329389
 30
0.0
  0
VERTEX
  5
14B5
  8
3
 10
185.12621894442219
 20
147.27232385433209
 30
0.0
  0
VERTEX
  5
14B6
  8
3
 10
185.14425723786479
 20
147.2542855608894
 30
0.0
  0
VERTEX
  5
14B7
  8
3
 10
185.16830829578851
 20
147.21820897400389
 30
0.0
  0
VERTEX
  5
14B8
  8
3
 10
185.19235935371211
 20
147.1761196226376
 30
0.0
  0
VERTEX
  5
14B9
  8
3
 10
185.21039764715479
 20
147.14004303575209
 30
0.0
  0
VERTEX
  5
14BA
  8
3
 10
185.22242317611671
 20
147.10396644886669
 30
0.0
  0
VERTEX
  5
14BB
  8
3
 10
185.23444870507851
 20
147.06187709750029
 30
0.0
  0
VERTEX
  5
14BC
  8
3
 10
185.24647423404031
 20
147.025800510615
 30
0.0
  0
VERTEX
  5
14BD
  8
3
 10
185.25849976300231
 20
146.9837111592486
 30
0.0
  0
VERTEX
  5
14BE
  8
3
 10
185.26451252748299
 20
146.94162180788231
 30
0.0
  0
VERTEX
  5
14BF
  8
3
 10
185.27052529196391
 20
146.899532456516
 30
0.0
  0
VERTEX
  5
14C0
  8
3
 10
185.27052529196391
 20
146.8574431051496
 30
0.0
  0
VERTEX
  5
14C1
  8
3
 10
185.27052529196391
 20
146.81535375378331
 30
0.0
  0
VERTEX
  5
14C2
  8
3
 10
185.27052529196391
 20
146.77326440241691
 30
0.0
  0
VERTEX
  5
14C3
  8
3
 10
185.26451252748299
 20
146.73718781553151
 30
0.0
  0
VERTEX
  5
14C4
  8
3
 10
185.25849976300231
 20
146.6950984641652
 30
0.0
  0
VERTEX
  5
14C5
  8
3
 10
185.24046146955931
 20
146.6169325259134
 30
0.0
  0
VERTEX
  5
14C6
  8
3
 10
185.23444870507851
 20
146.59889423247071
 30
0.0
  0
VERTEX
  5
14C7
  8
3
 10
185.22843594059771
 20
146.58686870350891
 30
0.0
  0
VERTEX
  5
14C8
  8
3
 10
185.22242317611671
 20
146.5688304100662
 30
0.0
  0
VERTEX
  5
14C9
  8
3
 10
185.21039764715479
 20
146.55680488110431
 30
0.0
  0
VERTEX
  5
14CA
  8
3
 10
185.20438488267399
 20
146.54477935214251
 30
0.0
  0
VERTEX
  5
14CB
  8
3
 10
185.19235935371211
 20
146.53275382318071
 30
0.0
  0
VERTEX
  5
14CC
  8
3
 10
185.18033382475039
 20
146.52072829421891
 30
0.0
  0
VERTEX
  5
14CD
  8
3
 10
185.16830829578851
 20
146.514715529738
 30
0.0
  0
VERTEX
  5
14CE
  8
3
 10
185.15628276682671
 20
146.5026900007762
 30
0.0
  0
VERTEX
  5
14CF
  8
3
 10
185.14425723786479
 20
146.49667723629531
 30
0.0
  0
VERTEX
  5
14D0
  8
3
 10
185.13223170890299
 20
146.4906644718144
 30
0.0
  0
VERTEX
  5
14D1
  8
3
 10
185.12020617994131
 20
146.48465170733351
 30
0.0
  0
VERTEX
  5
14D2
  8
3
 10
185.10818065097951
 20
146.4786389428526
 30
0.0
  0
VERTEX
  5
14D3
  8
3
 10
185.09014235753691
 20
146.47262617837171
 30
0.0
  0
VERTEX
  5
14D4
  8
3
 10
185.06007853513219
 20
146.4666134138908
 30
0.0
  0
VERTEX
  5
14D5
  8
3
 10
184.9879253613615
 20
146.5087027652572
 30
0.0
  0
VERTEX
  5
14D6
  8
3
 10
184.9879253613615
 20
146.514715529738
 30
0.0
  0
VERTEX
  5
14D7
  8
3
 10
184.98191259688039
 20
146.52072829421891
 30
0.0
  0
SEQEND
  5
14D8
  8
3
  0
LINE
  5
14D9
  8
3
 10
184.82558072037691
 20
148.5951320401312
 30
0.0
 11
184.99995089032319
 21
148.5951320401312
 31
0.0
  0
LINE
  5
14DA
  8
3
 10
185.16830829578851
 20
148.5951320401312
 30
0.0
 11
185.33666570125391
 21
148.5951320401312
 31
0.0
  0
LINE
  5
14DB
  8
3
 10
184.99995089032319
 20
148.5951320401312
 30
0.0
 11
185.16830829578851
 21
148.5951320401312
 31
0.0
  0
LINE
  5
14DC
  8
3
 10
184.6572233149115
 20
148.5951320401312
 30
0.0
 11
184.82558072037691
 21
148.5951320401312
 31
0.0
  0
LINE
  5
14DD
  8
3
 10
184.4948786739271
 20
148.58310651116929
 30
0.0
 11
184.6572233149115
 21
148.5951320401312
 31
0.0
  0
LINE
  5
14DE
  8
3
 10
183.4847342411351
 20
148.102085352697
 30
0.0
 11
183.56290017938699
 21
148.17423852646789
 31
0.0
  0
LINE
  5
14DF
  8
3
 10
184.1521510985155
 20
147.2242217384848
 30
0.0
 11
184.1040489826683
 21
147.13403027127131
 31
0.0
  0
LINE
  5
14E0
  8
3
 10
184.06797239578299
 20
147.03181327509591
 30
0.0
 11
184.04392133785919
 21
146.92959627892051
 31
0.0
  0
LINE
  5
14E1
  8
3
 10
184.1040489826683
 20
147.13403027127131
 30
0.0
 11
184.06797239578299
 21
147.03181327509591
 31
0.0
  0
LINE
  5
14E2
  8
3
 10
184.0318958088975
 20
146.8213665182642
 30
0.0
 11
184.0258830444165
 21
146.71313675760791
 31
0.0
  0
LINE
  5
14E3
  8
3
 10
184.0258830444165
 20
146.59889423247071
 30
0.0
 11
184.0258830444165
 21
146.48465170733351
 31
0.0
  0
LINE
  5
14E4
  8
3
 10
184.0258830444165
 20
146.71313675760791
 30
0.0
 11
184.0258830444165
 21
146.59889423247071
 31
0.0
  0
LINE
  5
14E5
  8
3
 10
184.04392133785919
 20
146.92959627892051
 30
0.0
 11
184.0318958088975
 21
146.8213665182642
 31
0.0
  0
LINE
  5
14E6
  8
3
 10
184.2062659788437
 20
147.32042597017929
 30
0.0
 11
184.1521510985155
 21
147.2242217384848
 31
0.0
  0
LINE
  5
14E7
  8
3
 10
184.21829150780559
 20
147.31441320569849
 30
0.0
 11
184.2062659788437
 21
147.32042597017929
 31
0.0
  0
LINE
  5
14E8
  8
3
 10
184.22430427228639
 20
147.31441320569849
 30
0.0
 11
184.21829150780559
 21
147.31441320569849
 31
0.0
  0
LINE
  5
14E9
  8
3
 10
184.2303170367675
 20
147.31441320569849
 30
0.0
 11
184.22430427228639
 21
147.31441320569849
 31
0.0
  0
LINE
  5
14EA
  8
3
 10
184.23632980124819
 20
147.31441320569849
 30
0.0
 11
184.2303170367675
 21
147.31441320569849
 31
0.0
  0
LINE
  5
14EB
  8
3
 10
184.2423425657291
 20
147.31441320569849
 30
0.0
 11
184.23632980124819
 21
147.31441320569849
 31
0.0
  0
LINE
  5
14EC
  8
3
 10
184.24835533021019
 20
147.31441320569849
 30
0.0
 11
184.2423425657291
 21
147.31441320569849
 31
0.0
  0
LINE
  5
14ED
  8
3
 10
183.86955116791299
 20
148.39671081226129
 30
0.0
 11
184.0138575154547
 21
148.4688639860322
 31
0.0
  0
LINE
  5
14EE
  8
3
 10
184.17018939195819
 20
148.5229788663604
 30
0.0
 11
184.32652126846179
 21
148.55905545324569
 31
0.0
  0
LINE
  5
14EF
  8
3
 10
184.0138575154547
 20
148.4688639860322
 30
0.0
 11
184.17018939195819
 21
148.5229788663604
 31
0.0
  0
LINE
  5
14F0
  8
3
 10
183.56290017938699
 20
148.17423852646789
 30
0.0
 11
183.7252448203713
 21
148.3005065805668
 31
0.0
  0
LINE
  5
14F1
  8
3
 10
183.7252448203713
 20
148.3005065805668
 30
0.0
 11
183.86955116791299
 21
148.39671081226129
 31
0.0
  0
LINE
  5
14F2
  8
3
 10
183.28631301326519
 20
147.85556200897989
 30
0.0
 11
183.3464406580743
 21
147.94575347619349
 31
0.0
  0
LINE
  5
14F3
  8
3
 10
183.05181519850979
 20
147.35650255706469
 30
0.0
 11
183.08789178539541
 21
147.464732317721
 31
0.0
  0
LINE
  5
14F4
  8
3
 10
183.17207048812801
 20
147.6691663100718
 30
0.0
 11
183.22618536845621
 21
147.76537054176629
 31
0.0
  0
LINE
  5
14F5
  8
3
 10
183.22618536845621
 20
147.76537054176629
 30
0.0
 11
183.28631301326519
 21
147.85556200897989
 31
0.0
  0
LINE
  5
14F6
  8
3
 10
183.08789178539541
 20
147.464732317721
 30
0.0
 11
183.12998113676159
 21
147.5669493138964
 31
0.0
  0
LINE
  5
14F7
  8
3
 10
183.12998113676159
 20
147.5669493138964
 30
0.0
 11
183.17207048812801
 21
147.6691663100718
 31
0.0
  0
LINE
  5
14F8
  8
3
 10
182.99770031818181
 20
147.13403027127131
 30
0.0
 11
183.02175137610541
 21
147.2482727964084
 31
0.0
  0
LINE
  5
14F9
  8
3
 10
182.96763649577721
 20
146.899532456516
 30
0.0
 11
182.9796620247391
 21
147.01978774613411
 31
0.0
  0
LINE
  5
14FA
  8
3
 10
182.9796620247391
 20
147.01978774613411
 30
0.0
 11
182.99770031818181
 21
147.13403027127131
 31
0.0
  0
LINE
  5
14FB
  8
3
 10
182.97364926025821
 20
146.68307293520331
 30
0.0
 11
182.96162373129641
 21
146.7852899313788
 31
0.0
  0
LINE
  5
14FC
  8
3
 10
182.9796620247391
 20
146.63497081935611
 30
0.0
 11
182.97364926025821
 21
146.68307293520331
 31
0.0
  0
LINE
  5
14FD
  8
3
 10
182.9796620247391
 20
146.4786389428526
 30
0.0
 11
182.9796620247391
 21
146.53275382318071
 31
0.0
  0
LINE
  5
14FE
  8
3
 10
182.9796620247391
 20
146.53275382318071
 30
0.0
 11
182.9796620247391
 21
146.58085593902791
 31
0.0
  0
LINE
  5
14FF
  8
3
 10
182.9796620247391
 20
146.58085593902791
 30
0.0
 11
182.9796620247391
 21
146.63497081935611
 31
0.0
  0
LINE
  5
1500
  8
3
 10
182.96162373129641
 20
146.7852899313788
 30
0.0
 11
182.96763649577721
 21
146.899532456516
 31
0.0
  0
LINE
  5
1501
  8
3
 10
182.9796620247391
 20
146.43053682700531
 30
0.0
 11
182.9796620247391
 21
146.4786389428526
 31
0.0
  0
LINE
  5
1502
  8
3
 10
183.02175137610541
 20
147.2482727964084
 30
0.0
 11
183.05181519850979
 21
147.35650255706469
 31
0.0
  0
TEXT
  5
1503
  8
3
 10
183.35858967065701
 20
148.4880660908982
 30
0.0
 40
0.3131267876644771
  1
R
 50
90.0
  7
ITALICC
  0
CIRCLE
  5
1504
  8
3
 10
183.1972211515176
 20
148.57993644631989
 30
0.0
 40
0.241100623305389
  0
LINE
  5
1505
  8
3
 10
183.41258106736419
 20
148.02391941444509
 30
0.0
 11
183.4847342411351
 21
148.102085352697
 31
0.0
  0
LINE
  5
1506
  8
3
 10
183.3464406580743
 20
147.94575347619349
 30
0.0
 11
183.41258106736419
 21
148.02391941444509
 31
0.0
  0
LINE
  5
1507
  8
1
 10
122.28714221573659
 20
143.0107452866892
 30
0.0
 11
196.2888629170605
 21
143.01074528668909
 31
0.0
  0
LINE
  5
1508
  8
0
 10
154.28886291706061
 20
111.174024585365
 30
0.0
 11
154.28886291706061
 21
110.5107595707541
 31
0.0
  0
LINE
  5
1509
  8
0
 10
164.2888629170605
 20
111.174024585365
 30
0.0
 11
164.2888629170605
 21
110.5107595707541
 31
0.0
  0
LINE
  5
150A
  8
0
 10
173.88069323850081
 20
120.9772125133796
 30
0.0
 11
173.88069323850081
 21
119.1332047606961
 31
0.0
  0
LINE
  5
150B
  8
0
 10
144.69703259562041
 20
161.03229748667849
 30
0.0
 11
144.69703259562041
 21
158.92910563735131
 31
0.0
  0
LINE
  5
150C
  8
1
 10
159.2888629170605
 20
105.5107595707541
 30
0.0
 11
159.2888629170605
 21
209.5107310026244
 31
0.0
  0
LINE
  5
1518
  8
0
 10
167.2888629170605
 20
37.505869190870548
 30
0.0
 11
167.2888629170605
 21
38.504344474770733
 31
0.0
  0
ARC
  5
1519
  8
0
 10
131.2888629170605
 20
47.005869190870271
 30
0.0
 40
4.0
 50
90.0
 51
180.0
  0
LINE
  5
151A
  8
0
 10
144.69703259562019
 20
51.005869190870278
 30
0.0
 11
131.2888629170605
 21
51.005869190870278
 31
0.0
  0
LINE
  5
151B
  8
0
 10
151.2871422157364
 20
37.505869190870271
 30
0.0
 11
127.2888629170606
 21
37.505869190870271
 31
0.0
1001
GENIUS_GENOREF_13
1005
0
  0
LINE
  5
151C
  8
0
 10
127.2888629170606
 20
37.505869190870271
 30
0.0
 11
127.2888629170605
 21
47.005869190870271
 31
0.0
  0
LINE
  5
151D
  8
0
 10
151.28886291706061
 20
37.505869190870548
 30
0.0
 11
151.28886291706061
 21
38.504344474770733
 31
0.0
  0
LINE
  5
151E
  8
0
 10
151.28886291706061
 20
38.504344474770733
 30
0.0
 11
159.28886291706061
 21
43.219641453238978
 31
0.0
  0
LINE
  5
1551
  8
0
 10
191.2888629170605
 20
277.51562138250819
 30
0.0
 11
191.28886291706061
 21
268.01562138250819
 31
0.0
  0
LINE
  5
1552
  8
0
 10
167.29058361838469
 20
277.51562138250819
 30
0.0
 11
191.2888629170605
 21
277.51562138250819
 31
0.0
1001
GENIUS_GENOREF_13
1005
0
  0
LINE
  5
1553
  8
0
 10
167.2888629170605
 20
276.51714609860772
 30
0.0
 11
155.22667783033461
 21
269.40754798696219
 31
0.0
  0
LINE
  5
1554
  8
0
 10
167.2888629170605
 20
277.5156213825079
 30
0.0
 11
167.2888629170605
 21
276.51714609860772
 31
0.0
  0
LINE
  5
1555
  8
3
 10
154.2888629170605
 20
269.55346756992429
 30
0.0
 11
154.28886291706041
 21
274.74890973168209
 31
0.0
  0
LINE
  5
1556
  8
0
 10
151.2871422157364
 20
277.51562138250819
 30
0.0
 11
127.2888629170606
 21
277.51562138250819
 31
0.0
1001
GENIUS_GENOREF_13
1005
0
  0
LINE
  5
1557
  8
0
 10
151.28886291706061
 20
277.5156213825079
 30
0.0
 11
151.28886291706061
 21
276.51714609860772
 31
0.0
  0
LINE
  5
1558
  8
0
 10
151.28886291706061
 20
276.51714609860772
 30
0.0
 11
159.2888629170605
 21
271.80184912013942
 31
0.0
  0
ARC
  5
1559
  8
0
 10
131.2888629170605
 20
268.01562138250819
 30
0.0
 40
4.0
 50
180.0
 51
270.0
  0
LINE
  5
155A
  8
0
 10
140.22110841164761
 20
264.01562138250819
 30
0.0
 11
131.2888629170605
 21
264.01562138250819
 31
0.0
  0
LINE
  5
155B
  8
0
 10
127.2888629170606
 20
277.51562138250819
 30
0.0
 11
127.2888629170605
 21
268.01562138250819
 31
0.0
  0
ARC
  5
155D
  8
0
 10
187.28886291706061
 20
268.02051176239212
 30
0.0
 40
4.0
 50
359.8599007966103
 51
0.0
  0
TEXT
  5
167A
  8
0
 62
     3
 10
0.0
 20
0.0
 30
0.0
 40
10.0
  1
EFHL6565HH
  7
STANDARD1
  0
ENDSEC
  0
EOF
