  0
SECTION
  2
HEADER
  9
$ACADVER
  1
AC1009
  9
$INSBASE
 10
421.02836487281269
 20
102.67212445389281
 30
0.0
  9
$EXTMIN
 10
0.0
 20
-2.960436562073669
 30
-0.0000000000000014
  9
$EXTMAX
 10
162.0395252895724
 20
143.55026489564591
 30
11.5
  9
$LIMMIN
 10
0.0
 20
0.0
  9
$LIMMAX
 10
420.0
 20
330.0
  9
$ORTHOMODE
 70
     1
  9
$REGENMODE
 70
     1
  9
$FILLMODE
 70
     1
  9
$QTEXTMODE
 70
     0
  9
$MIRRTEXT
 70
     0
  9
$DRAGMODE
 70
     2
  9
$LTSCALE
 40
2.5
  9
$OSMODE
 70
  3071
  9
$ATTMODE
 70
     1
  9
$TEXTSIZE
 40
0.2
  9
$TRACEWID
 40
0.05
  9
$TEXTSTYLE
  7
STANDARD
  9
$CLAYER
  8
0
  9
$CELTYPE
  6
BYLAYER
  9
$CECOLOR
 62
   256
  9
$DIMSCALE
 40
1.0
  9
$DIMASZ
 40
3.0
  9
$DIMEXO
 40
1.0
  9
$DIMDLI
 40
0.3799999999999999
  9
$DIMRND
 40
0.0
  9
$DIMDLE
 40
0.0
  9
$DIMEXE
 40
1.0
  9
$DIMTP
 40
0.0
  9
$DIMTM
 40
0.0
  9
$DIMTXT
 40
3.0
  9
$DIMCEN
 40
0.09
  9
$DIMTSZ
 40
0.0
  9
$DIMTOL
 70
     0
  9
$DIMLIM
 70
     0
  9
$DIMTIH
 70
     0
  9
$DIMTOH
 70
     0
  9
$DIMSE1
 70
     0
  9
$DIMSE2
 70
     0
  9
$DIMTAD
 70
     1
  9
$DIMZIN
 70
     0
  9
$DIMBLK
  1

  9
$DIMASO
 70
     0
  9
$DIMSHO
 70
     1
  9
$DIMPOST
  1

  9
$DIMAPOST
  1

  9
$DIMALT
 70
     0
  9
$DIMALTD
 70
     2
  9
$DIMALTF
 40
25.399999999999999
  9
$DIMLFAC
 40
1.0
  9
$DIMTOFL
 70
     0
  9
$DIMTVP
 40
0.0
  9
$DIMTIX
 70
     0
  9
$DIMSOXD
 70
     0
  9
$DIMSAH
 70
     0
  9
$DIMBLK1
  1
ARROW1
  9
$DIMBLK2
  1
ARROW1
  9
$DIMSTYLE
  2
STANDARD
  9
$DIMCLRD
 70
     0
  9
$DIMCLRE
 70
     0
  9
$DIMCLRT
 70
     0
  9
$DIMTFAC
 40
1.0
  9
$DIMGAP
 40
0.5
  9
$LUNITS
 70
     2
  9
$LUPREC
 70
     4
  9
$SKETCHINC
 40
0.1
  9
$FILLETRAD
 40
0.5
  9
$AUNITS
 70
     0
  9
$AUPREC
 70
     0
  9
$MENU
  1
ACAD
  9
$ELEVATION
 40
0.0
  9
$PELEVATION
 40
0.0
  9
$THICKNESS
 40
0.0
  9
$LIMCHECK
 70
     0
  9
$BLIPMODE
 70
     0
  9
$CHAMFERA
 40
0.1
  9
$CHAMFERB
 40
0.1
  9
$SKPOLY
 70
     0
  9
$TDCREATE
 40
2449640.5627083331
  9
$TDUPDATE
 40
2456598.657810255
  9
$TDINDWG
 40
1.0208634028000001
  9
$TDUSRTIMER
 40
1.0208634028000001
  9
$USRTIMER
 70
     1
  9
$ANGBASE
 50
0.0
  9
$ANGDIR
 70
     0
  9
$PDMODE
 70
     0
  9
$PDSIZE
 40
0.0
  9
$PLINEWID
 40
0.0
  9
$COORDS
 70
     1
  9
$SPLFRAME
 70
     0
  9
$SPLINETYPE
 70
     6
  9
$SPLINESEGS
 70
     8
  9
$ATTDIA
 70
     0
  9
$ATTREQ
 70
     1
  9
$HANDLING
 70
     1
  9
$HANDSEED
  5
10E6
  9
$SURFTAB1
 70
     6
  9
$SURFTAB2
 70
     6
  9
$SURFTYPE
 70
     6
  9
$SURFU
 70
     6
  9
$SURFV
 70
     6
  9
$UCSNAME
  2

  9
$UCSORG
 10
0.0
 20
0.0
 30
0.0
  9
$UCSXDIR
 10
1.0
 20
0.0
 30
0.0
  9
$UCSYDIR
 10
0.0
 20
1.0
 30
0.0
  9
$PUCSNAME
  2

  9
$PUCSORG
 10
0.0
 20
0.0
 30
0.0
  9
$PUCSXDIR
 10
1.0
 20
0.0
 30
0.0
  9
$PUCSYDIR
 10
0.0
 20
1.0
 30
0.0
  9
$USERI1
 70
     0
  9
$USERI2
 70
     1
  9
$USERI3
 70
     1
  9
$USERI4
 70
     0
  9
$USERI5
 70
     0
  9
$USERR1
 40
0.0
  9
$USERR2
 40
0.0
  9
$USERR3
 40
0.0
  9
$USERR4
 40
0.0
  9
$USERR5
 40
10.0
  9
$WORLDVIEW
 70
     1
  9
$SHADEDGE
 70
     3
  9
$SHADEDIF
 70
    70
  9
$TILEMODE
 70
     1
  9
$MAXACTVP
 70
    16
  9
$PLIMCHECK
 70
     0
  9
$PEXTMIN
 10
1.0000000000000000E+020
 20
1.0000000000000000E+020
 30
1.0000000000000000E+020
  9
$PEXTMAX
 10
-1.0000000000000000E+020
 20
-1.0000000000000000E+020
 30
-1.0000000000000000E+020
  9
$PLIMMIN
 10
0.0
 20
0.0
  9
$PLIMMAX
 10
12.0
 20
9.0
  9
$UNITMODE
 70
     0
  9
$VISRETAIN
 70
     0
  9
$PLINEGEN
 70
     0
  9
$PSLTSCALE
 70
     0
  0
ENDSEC
  0
SECTION
  2
TABLES
  0
TABLE
  2
VPORT
 70
     1
  0
VPORT
  2
*ACTIVE
 70
     0
 10
0.0
 20
0.0
 11
1.0
 21
1.0
 12
209.99359179753071
 22
207.90330784623239
 13
0.0
 23
0.0
 14
1.8999999999999999
 24
1.8999999999999999
 15
10.0
 25
10.0
 16
0.0
 26
0.0
 36
1.0
 17
0.0
 27
0.0
 37
0.0
 40
425.5958955386298
 41
1.8318713450292401
 42
50.0
 43
0.0
 44
0.0
 50
0.0
 51
0.0
 71
     0
 72
   100
 73
     1
 74
     0
 75
     0
 76
     0
 77
     0
 78
     1
  0
ENDTAB
  0
TABLE
  2
LTYPE
 70
     4
  0
LTYPE
  2
CONTINUOUS
 70
     0
  3
Solid Line
 72
    65
 73
     0
 40
0.0
  0
LTYPE
  2
CENTER
 70
     0
  3
____ _ ____ _ ____ _ ____ _ ____ _ ____ _ ____
 72
    65
 73
     4
 40
2.0
 49
1.25
 49
-0.25
 49
0.25
 49
-0.25
  0
LTYPE
  2
HIDDEN
 70
     0
  3
_ _ _ _ _ _ _ _ _ _ _ _ _ _ _ _ _ _ _ _ _ _ _
 72
    65
 73
     2
 40
0.375
 49
0.25
 49
-0.125
  0
LTYPE
  2
PHANTOM2
 70
     0
  3
___ _ _ ___ _ _ ___ _ _ ___ _ _
 72
    65
 73
     6
 40
1.25
 49
0.625
 49
-0.125
 49
0.125
 49
-0.125
 49
0.125
 49
-0.125
  0
ENDTAB
  0
TABLE
  2
LAYER
 70
     4
  0
LAYER
  2
0
 70
     0
 62
     7
  6
CONTINUOUS
  0
LAYER
  2
WAKU
 70
     0
 62
     7
  6
CONTINUOUS
  0
LAYER
  2
1
 70
     0
 62
     1
  6
CENTER
  0
LAYER
  2
2
 70
     0
 62
     2
  6
HIDDEN
  0
ENDTAB
  0
TABLE
  2
STYLE
 70
     2
  0
STYLE
  2
STANDARD
 70
     0
 40
0.0
 41
1.0
 50
0.0
 71
     0
 42
0.2
  3
ROMANS
  4
EXTFONT
  0
STYLE
  2
STANDARD1
 70
     0
 40
0.0
 41
1.0
 50
0.0
 71
     0
 42
3.0
  3
txt
  4

  0
ENDTAB
  0
TABLE
  2
VIEW
 70
     0
  0
ENDTAB
  0
TABLE
  2
UCS
 70
     0
  0
ENDTAB
  0
TABLE
  2
APPID
 70
     4
  0
APPID
  2
ACAD
 70
     0
  0
APPID
  2
GENIUS_GENOREF_13
 70
     0
  0
APPID
  2
ACAD_MLEADERVER
 70
     0
  0
APPID
  2
ACAD_NAV_VCDISPLAY
 70
     0
  0
ENDTAB
  0
TABLE
  2
DIMSTYLE
 70
     1
  0
DIMSTYLE
  2
STANDARD
 70
     0
  3

  4

  5

  6

  7

 40
1.0
 41
0.18
 42
0.0625
 43
0.38
 44
0.18
 45
0.0
 46
0.0
 47
0.0
 48
0.0
140
0.18
141
0.09
142
0.0
143
25.399999999999999
144
1.0
145
0.0
146
1.0
147
0.09
 71
     0
 72
     0
 73
     1
 74
     1
 75
     0
 76
     0
 77
     0
 78
     0
170
     0
171
     2
172
     0
173
     0
174
     0
175
     0
176
     0
177
     0
178
     0
  0
ENDTAB
  0
ENDSEC
  0
SECTION
  2
BLOCKS
  0
BLOCK
  8
0
  2
$MODEL_SPACE
 70
     0
 10
0.0
 20
0.0
 30
0.0
  3
$MODEL_SPACE
  1

  0
ENDBLK
  5
9
  8
0
  0
BLOCK
 67
     1
  8
0
  2
$PAPER_SPACE
 70
     0
 10
0.0
 20
0.0
 30
0.0
  3
$PAPER_SPACE
  1

  0
ENDBLK
  5
E
 67
     1
  8
0
  0
BLOCK
  8
0
  2
ARROW1
 70
     0
 10
0.0
 20
0.0
 30
0.0
  3
ARROW1
  1

  0
SOLID
  5
24
  8
WAKU
  6
CONTINUOUS
 62
     4
 10
-1.0
 20
0.1666666666666714
 30
0.0
 11
-1.0
 21
-0.1666666666666714
 31
0.0
 12
0.0
 22
0.0
 32
0.0
 13
0.0
 23
0.0
 33
0.0
  0
ENDBLK
  5
27
  8
0
  0
ENDSEC
  0
SECTION
  2
ENTITIES
  0
LINE
  5
9F7
  8
1
 10
153.5395252895724
 20
38.798900737903658
 30
0.0
 11
153.5395252895724
 21
23.62273266743966
 31
0.0
  0
LINE
  5
9FE
  8
2
 10
147.946852645832
 20
36.897092056598062
 30
0.0
 11
147.946852645832
 21
38.122732667439692
 31
0.0
  0
ARC
  5
9FF
  8
2
 10
155.2895252895724
 20
29.712732667439671
 30
0.0
 40
5.539999999999992
 50
2.7853559850690242
 51
78.259670400873702
  0
LINE
  5
A05
  8
2
 10
156.4167851251525
 20
35.136834921553969
 30
0.0
 11
147.946852645832
 21
36.897092056598062
 31
0.0
  0
LINE
  5
A06
  8
0
 10
140.56291016432419
 20
42.439273965038211
 30
0.0
 11
147.94685264583191
 21
38.122732667439671
 31
0.0
  0
ARC
  5
A07
  8
0
 10
138.0395252895724
 20
38.122732667439671
 30
0.0
 40
5.0000000000000098
 50
59.690088410473827
 51
120.3099115895261
  0
LINE
  5
A08
  8
0
 10
140.5395252895724
 20
29.981946125760381
 30
0.0
 11
138.0395252895724
 21
31.864117046179359
 31
0.0
  0
ARC
  5
A09
  8
0
 10
162.4095252895726
 20
17.522732667439531
 30
0.0
 40
25.17000000000024
 50
125.071598739515
 51
150.33008341243951
  0
LINE
  5
A0D
  8
2
 10
162.02414659398579
 20
29.981946125760391
 30
0.0
 11
160.82298027844331
 21
29.981946125760459
 31
0.0
  0
LINE
  5
A0E
  8
0
 10
140.5395252895724
 20
26.62273266743966
 30
0.0
 11
140.5395252895724
 21
29.981946125760381
 31
0.0
  0
LINE
  5
A0F
  8
0
 10
147.94685264583191
 20
38.122732667439671
 30
0.0
 11
156.66095693069329
 21
36.31173071666899
 31
0.0
  0
ARC
  5
A10
  8
0
 10
155.2895252895724
 20
29.712732667439649
 30
0.0
 40
6.7400000000000082
 50
2.2891542120935631
 51
78.259670400873702
  0
LINE
  5
A11
  8
0
 10
162.02414659398579
 20
29.981946125760391
 30
0.0
 11
162.0395252895724
 21
29.981946125760391
 31
0.0
  0
LINE
  5
A12
  8
0
 10
162.0395252895724
 20
29.981946125760391
 30
0.0
 11
162.0395252895724
 21
26.62273266743966
 31
0.0
  0
LINE
  5
A13
  8
0
 10
162.0395252895724
 20
26.62273266743966
 30
0.0
 11
140.5395252895724
 21
26.62273266743966
 31
0.0
  0
CIRCLE
  5
A18
  8
0
 10
138.0395252895724
 20
38.122732667439671
 30
0.0
 40
2.0
  0
LINE
  5
A19
  8
1
 10
122.5395252895724
 20
38.798900737903651
 30
0.0
 11
122.5395252895724
 21
23.62273266743966
 31
0.0
  0
LINE
  5
A1A
  8
1
 10
138.0395252895724
 20
33.122732667439671
 30
0.0
 11
138.0395252895724
 21
43.122732667439656
 31
0.0
  0
LINE
  5
A1B
  8
1
 10
133.0395252895724
 20
38.122732667439671
 30
0.0
 11
143.0395252895724
 21
38.122732667439671
 31
0.0
  0
LINE
  5
A20
  8
2
 10
128.13219793331291
 20
36.897092056598069
 30
0.0
 11
119.6622654539924
 21
35.136834921553969
 31
0.0
  0
LINE
  5
A21
  8
2
 10
128.13219793331291
 20
36.897092056598062
 30
0.0
 11
128.13219793331291
 21
38.122732667439692
 31
0.0
  0
LINE
  5
A22
  8
2
 10
127.7895252895724
 20
31.622732667439681
 30
0.0
 11
117.2895252895724
 21
31.622732667439681
 31
0.0
  0
ARC
  5
A23
  8
2
 10
120.7895252895724
 20
29.712732667439671
 30
0.0
 40
5.5399999999999929
 50
101.7403295991263
 51
177.214644014931
  0
LINE
  5
A25
  8
2
 10
127.7895252895724
 20
31.622732667439681
 30
0.0
 11
127.7895252895725
 21
36.773920325012647
 31
0.0
  0
LINE
  5
A27
  8
2
 10
117.2895252895724
 20
31.622732667439681
 30
0.0
 11
117.2895252895725
 21
34.007101072688592
 31
0.0
  0
LINE
  5
A28
  8
0
 10
141.04685316256931
 20
34.128239074467459
 30
0.0
 11
135.5395252895724
 21
29.981946125760381
 31
0.0
  0
ARC
  5
A29
  8
0
 10
138.0395252895724
 20
38.122732667439671
 30
0.0
 40
4.9999999999999982
 50
306.97493396191908
 51
120.3099115895261
  0
LINE
  5
A2A
  8
0
 10
128.13219793331291
 20
38.122732667439671
 30
0.0
 11
135.5161404148206
 21
42.439273965038211
 31
0.0
  0
ARC
  5
A2B
  8
0
 10
113.66952528957231
 20
17.522732667439541
 30
0.0
 40
25.170000000000229
 50
29.66991658756044
 51
54.928401260484982
  0
LINE
  5
A2D
  8
2
 10
114.054903985159
 20
29.981946125760391
 30
0.0
 11
115.25607030070159
 21
29.981946125760459
 31
0.0
  0
LINE
  5
A2E
  8
0
 10
128.13219793331291
 20
38.122732667439671
 30
0.0
 11
119.4180936484515
 21
36.31173071666899
 31
0.0
  0
ARC
  5
A2F
  8
0
 10
120.7895252895724
 20
29.712732667439649
 30
0.0
 40
6.7400000000000073
 50
101.7403295991263
 51
177.71084578790641
  0
LINE
  5
A30
  8
0
 10
135.5395252895724
 20
26.62273266743966
 30
0.0
 11
135.5395252895724
 21
29.981946125760381
 31
0.0
  0
LINE
  5
A31
  8
0
 10
114.054903985159
 20
29.981946125760391
 30
0.0
 11
114.0395252895724
 21
29.981946125760391
 31
0.0
  0
LINE
  5
A32
  8
0
 10
114.0395252895724
 20
29.981946125760391
 30
0.0
 11
114.0395252895724
 21
26.62273266743966
 31
0.0
  0
LINE
  5
A33
  8
0
 10
114.0395252895724
 20
26.62273266743966
 30
0.0
 11
135.5395252895724
 21
26.62273266743966
 31
0.0
  0
LINE
  5
A34
  8
2
 10
125.2895252895724
 20
26.62273266743966
 30
0.0
 11
125.2895252895724
 21
29.122732667439731
 31
0.0
  0
LINE
  5
A35
  8
2
 10
119.7895252895724
 20
29.122732667439681
 30
0.0
 11
119.7895252895724
 21
26.62273266743966
 31
0.0
  0
POINT
  5
B6F
  8
0
 10
49.385201007588989
 20
38.122732667439671
 30
-0.0000000000000014
210
-1.0
220
0.0
230
0.0000000000000001
  0
POINT
  5
B70
  8
0
 10
49.385201007588989
 20
38.122732667439671
 30
0.0
210
-1.0
220
0.0
230
0.0000000000000001
  0
POINT
  5
B72
  8
0
 10
49.385201007588989
 20
38.122732667439671
 30
0.0
210
1.0
220
0.0
230
-0.0000000000000001
  0
LINE
  5
B75
  8
0
 10
42.055273259722753
 20
38.122732667439671
 30
0.0
 11
31.665128755455211
 21
38.122732667439671
 31
0.0
  0
LINE
  5
B77
  8
0
 10
48.365128755455203
 20
38.122732667439671
 30
0.0
 11
58.755273259722742
 21
38.122732667439671
 31
0.0
  0
LINE
  5
B9F
  8
0
 10
32.785201007588967
 20
43.122732667439656
 30
0.0
 11
32.785201007588967
 21
38.122732667439671
 31
0.0
  0
LINE
  5
BA2
  8
0
 10
40.935201007589001
 20
43.122732667439656
 30
0.0
 11
40.935201007589001
 21
38.122732667439671
 31
0.0
  0
LINE
  5
BA5
  8
0
 10
74.135201007588989
 20
38.122732667439678
 30
0.0
 11
24.635201007588989
 21
38.122732667439678
 31
0.0
  0
LINE
  5
BA7
  8
0
 10
73.485201007589012
 20
38.122732667439671
 30
0.0
 11
73.485201007589012
 21
43.122732667439656
 31
0.0
  0
LINE
  5
BAA
  8
0
 10
66.185201007589001
 20
43.122732667439656
 30
0.0
 11
66.185201007589001
 21
38.122732667439671
 31
0.0
  0
LINE
  5
BAE
  8
0
 10
57.635201007588989
 20
38.122732667439671
 30
0.0
 11
57.635201007588989
 21
43.122732667439656
 31
0.0
  0
LINE
  5
BB1
  8
0
 10
49.485201007589012
 20
43.122732667439656
 30
0.0
 11
49.485201007589012
 21
38.122732667439671
 31
0.0
  0
LINE
  5
BB3
  8
0
 10
72.897701007588964
 20
38.122732667439678
 30
0.0
 11
72.897701007588964
 21
29.981946125760391
 31
0.0
  0
LINE
  5
BB4
  8
0
 10
25.872701007589001
 20
29.981946125760391
 30
0.0
 11
25.872701007589001
 21
38.122732667439678
 31
0.0
  0
LINE
  5
BB6
  8
0
 10
74.135201007588989
 20
38.122732667439671
 30
0.0
 11
74.135201007588989
 21
26.62273266743966
 31
0.0
  0
LINE
  5
BB7
  8
0
 10
24.635201007588989
 20
38.122732667439671
 30
0.0
 11
24.635201007588989
 21
26.62273266743966
 31
0.0
  0
LINE
  5
BB9
  8
0
 10
74.135201007588989
 20
29.981946125760391
 30
0.0
 11
24.635201007588989
 21
29.981946125760391
 31
0.0
  0
LINE
  5
BBA
  8
0
 10
74.135201007588989
 20
26.62273266743966
 30
0.0
 11
24.635201007588989
 21
26.62273266743966
 31
0.0
  0
LINE
  5
BC1
  8
0
 10
40.935201007589001
 20
43.122732667439656
 30
0.0
 11
32.785201007588967
 21
43.122732667439656
 31
0.0
  0
LINE
  5
BC4
  8
0
 10
73.485201007589012
 20
43.122732667439656
 30
0.0
 11
66.185201007589001
 21
43.122732667439656
 31
0.0
  0
LINE
  5
BC7
  8
0
 10
57.635201007588989
 20
43.122732667439656
 30
0.0
 11
49.485201007589012
 21
43.122732667439656
 31
0.0
  0
LINE
  5
BC9
  8
0
 10
73.735201007589012
 20
38.122732667439671
 30
0.0
 11
73.735201007589012
 21
40.122732667439656
 31
0.0
  0
LINE
  5
BCB
  8
0
 10
25.03520100758897
 20
38.122732667439692
 30
0.0
 11
25.03520100758897
 21
40.122732667439656
 31
0.0
  0
LINE
  5
BCD
  8
0
 10
25.28520100758897
 20
40.122732667439656
 30
0.0
 11
25.03520100758897
 21
40.122732667439656
 31
0.0
  0
LINE
  5
BCF
  8
0
 10
32.785201007588967
 20
40.122732667439656
 30
0.0
 11
32.585201007588978
 21
40.122732667439656
 31
0.0
  0
LINE
  5
BD1
  8
0
 10
41.135201007588989
 20
40.122732667439656
 30
0.0
 11
40.935201007589001
 21
40.122732667439656
 31
0.0
  0
LINE
  5
BD3
  8
0
 10
49.485201007589012
 20
40.122732667439656
 30
0.0
 11
49.285201007588967
 21
40.122732667439656
 31
0.0
  0
LINE
  5
BD5
  8
0
 10
57.835201007588978
 20
40.122732667439656
 30
0.0
 11
57.635201007588989
 21
40.122732667439656
 31
0.0
  0
LINE
  5
BD7
  8
0
 10
66.185201007589001
 20
40.122732667439656
 30
0.0
 11
65.985201007589012
 21
40.122732667439656
 31
0.0
  0
LINE
  5
BD9
  8
0
 10
73.735201007589012
 20
40.122732667439656
 30
0.0
 11
73.485201007589012
 21
40.122732667439656
 31
0.0
  0
LINE
  5
BDB
  8
1
 10
64.635201007588975
 20
38.798900737903651
 30
0.0
 11
64.635201007588975
 21
23.62273266743966
 31
0.0
  0
LINE
  5
BDC
  8
1
 10
34.135201007588989
 20
38.798900737903651
 30
0.0
 11
34.135201007588989
 21
23.62273266743966
 31
0.0
  0
LINE
  5
BDD
  8
0
 10
56.715128755455233
 20
38.122732667439671
 30
0.0
 11
67.105273259722765
 21
38.122732667439671
 31
0.0
  0
LINE
  5
BDF
  8
0
 10
50.405273259722769
 20
38.122732667439671
 30
0.0
 11
40.015128755455237
 21
38.122732667439671
 31
0.0
  0
LINE
  5
C07
  8
0
 10
65.985201007589012
 20
38.122808138234063
 30
0.0
 11
65.985201007589012
 21
43.122732667439656
 31
0.0
  0
LINE
  5
C0B
  8
0
 10
57.835201007588978
 20
38.122808138234063
 30
0.0
 11
57.835201007588978
 21
43.122732667439656
 31
0.0
  0
LINE
  5
C0C
  8
0
 10
24.635201007588989
 20
29.981946125760381
 30
0.0
 11
74.135201007588989
 21
29.981946125760381
 31
0.0
  0
LINE
  5
C0E
  8
0
 10
25.28520100758897
 20
43.122732667439656
 30
0.0
 11
25.28520100758897
 21
38.122808138234092
 31
0.0
  0
LINE
  5
C13
  8
0
 10
32.585201007588978
 20
38.122808138234063
 30
0.0
 11
32.585201007588978
 21
43.122732667439656
 31
0.0
  0
LINE
  5
C14
  8
0
 10
24.635201007588989
 20
38.122732667439678
 30
0.0
 11
25.28520100758897
 21
38.122732667439678
 31
0.0
  0
LINE
  5
C16
  8
0
 10
41.135201007588989
 20
43.122732667439656
 30
0.0
 11
41.135201007588989
 21
38.122808138234063
 31
0.0
  0
LINE
  5
C1A
  8
0
 10
49.285201007588967
 20
38.122808138234063
 30
0.0
 11
49.285201007588967
 21
43.122732667439656
 31
0.0
  0
LINE
  5
C1F
  8
0
 10
74.135201007588989
 20
26.62273266743966
 30
0.0
 11
74.135201007588989
 21
38.122732667439678
 31
0.0
  0
LINE
  5
C20
  8
0
 10
24.635201007588989
 20
26.62273266743966
 30
0.0
 11
24.635201007588989
 21
38.122732667439678
 31
0.0
  0
LINE
  5
C21
  8
0
 10
24.635201007588989
 20
26.62273266743966
 30
0.0
 11
74.135201007588989
 21
26.62273266743966
 31
0.0
  0
LINE
  5
C2A
  8
0
 10
65.985201007589012
 20
43.122732667439656
 30
0.0
 11
57.835201007588978
 21
43.122732667439656
 31
0.0
  0
LINE
  5
C2D
  8
0
 10
32.585201007588978
 20
43.122732667439656
 30
0.0
 11
25.28520100758897
 21
43.122732667439656
 31
0.0
  0
LINE
  5
C30
  8
0
 10
49.285201007588967
 20
43.122732667439656
 30
0.0
 11
41.135201007588989
 21
43.122732667439656
 31
0.0
  0
POINT
  5
D5E
  8
0
 10
138.0395252895724
 20
115.8002648956459
 30
0.0
210
1.0
220
0.0
230
0.0
  0
POINT
  5
D5F
  8
0
 10
138.0395252895724
 20
115.8002648956459
 30
11.5
210
0.0
220
-1.0
230
0.0000000000000001
  0
POINT
  5
D60
  8
0
 10
138.0395252895724
 20
115.8002648956459
 30
11.5
210
0.0
220
-1.0
230
0.0000000000000001
  0
POINT
  5
D61
  8
0
 10
138.0395252895724
 20
115.8002648956459
 30
0.0
210
-1.0
220
0.0
230
0.0
  0
POINT
  5
D62
  8
0
 10
138.0395252895724
 20
115.8002648956459
 30
11.5
210
0.0
220
1.0
230
-0.0000000000000001
  0
LINE
  5
D87
  8
0
 10
133.0395252895724
 20
99.200264895645986
 30
0.0
 11
147.94685264583191
 21
99.200264895645986
 31
0.0
  0
LINE
  5
D8A
  8
0
 10
133.0395252895724
 20
107.35026489564601
 30
0.0
 11
147.94685264583191
 21
107.35026489564601
 31
0.0
  0
LINE
  5
D8B
  8
0
 10
140.5395252895724
 20
91.700264895645958
 30
0.0
 11
140.5395252895724
 21
91.050264895645967
 31
0.0
  0
LINE
  5
D8C
  8
0
 10
140.5395252895724
 20
99.200264895645986
 30
0.0
 11
140.5395252895724
 21
99.000264895645969
 31
0.0
  0
LINE
  5
D8D
  8
0
 10
140.5395252895724
 20
91.050264895645967
 30
0.0
 11
162.0395252895724
 21
91.050264895645967
 31
0.0
  0
LINE
  5
D8E
  8
0
 10
147.94685264583191
 20
139.9002648956459
 30
0.0
 11
147.94685264583191
 21
92.287764895645964
 31
0.0
  0
LINE
  5
D8F
  8
0
 10
140.5395252895724
 20
107.5502648956459
 30
0.0
 11
140.5395252895724
 21
107.35026489564601
 31
0.0
  0
LINE
  5
D90
  8
0
 10
140.5395252895724
 20
115.9002648956459
 30
0.0
 11
140.5395252895724
 21
115.7002648956459
 31
0.0
  0
LINE
  5
D91
  8
0
 10
147.94685264583191
 20
139.9002648956459
 30
0.0
 11
133.0395252895724
 21
139.9002648956459
 31
0.0
  0
LINE
  5
D94
  8
0
 10
133.0395252895724
 20
132.60026489564601
 30
0.0
 11
147.94685264583191
 21
132.60026489564601
 31
0.0
  0
LINE
  5
D95
  8
0
 10
140.5395252895724
 20
140.55026489564591
 30
0.0
 11
162.0395252895724
 21
140.55026489564591
 31
0.0
  0
LINE
  5
D96
  8
0
 10
140.5395252895724
 20
140.55026489564591
 30
0.0
 11
140.5395252895724
 21
139.9002648956459
 31
0.0
  0
LINE
  5
D97
  8
0
 10
140.5395252895724
 20
124.2502648956459
 30
0.0
 11
140.5395252895724
 21
124.0502648956459
 31
0.0
  0
LINE
  5
D98
  8
0
 10
140.5395252895724
 20
132.60026489564601
 30
0.0
 11
140.5395252895724
 21
132.4002648956459
 31
0.0
  0
LINE
  5
D99
  8
0
 10
147.94685264583191
 20
124.0502648956459
 30
0.0
 11
133.0395252895724
 21
124.0502648956459
 31
0.0
  0
LINE
  5
D9C
  8
0
 10
133.0395252895724
 20
115.9002648956459
 30
0.0
 11
147.94685264583191
 21
115.9002648956459
 31
0.0
  0
LINE
  5
D9D
  8
0
 10
147.94685264583191
 20
139.3127648956459
 30
0.0
 11
162.0395252895724
 21
139.3127648956459
 31
0.0
  0
LINE
  5
D9E
  8
0
 10
162.0395252895724
 20
92.287764895645964
 30
0.0
 11
147.94685264583191
 21
92.287764895645964
 31
0.0
  0
LINE
  5
DA4
  8
0
 10
162.0395252895724
 20
140.55026489564591
 30
0.0
 11
162.0395252895724
 21
91.050264895645967
 31
0.0
  0
LINE
  5
DA7
  8
0
 10
133.0395252895724
 20
107.35026489564601
 30
0.0
 11
133.0395252895724
 21
99.200264895645986
 31
0.0
  0
LINE
  5
DAA
  8
0
 10
133.0395252895724
 20
139.9002648956459
 30
0.0
 11
133.0395252895724
 21
132.60026489564601
 31
0.0
  0
LINE
  5
DAD
  8
0
 10
133.0395252895724
 20
124.0502648956459
 30
0.0
 11
133.0395252895724
 21
115.9002648956459
 31
0.0
  0
LINE
  5
DAE
  8
1
 10
138.0395252895724
 20
143.55026489564591
 30
0.0
 11
138.0395252895724
 21
88.050264895645967
 31
0.0
  0
LINE
  5
DAF
  8
0
 10
140.0395252895724
 20
140.1502648956459
 30
0.0
 11
136.0395252895724
 21
140.1502648956459
 31
0.0
  0
LINE
  5
DB0
  8
0
 10
140.0395252895724
 20
91.450264895645986
 30
0.0
 11
136.0395252895724
 21
91.450264895645986
 31
0.0
  0
LINE
  5
DB1
  8
0
 10
136.0395252895724
 20
91.700264895645958
 30
0.0
 11
136.0395252895724
 21
91.450264895645986
 31
0.0
  0
LINE
  5
DB3
  8
0
 10
136.0395252895724
 20
99.200264895645986
 30
0.0
 11
136.0395252895724
 21
99.000264895645955
 31
0.0
  0
LINE
  5
DB5
  8
0
 10
136.0395252895724
 20
107.5502648956459
 30
0.0
 11
136.0395252895724
 21
107.35026489564601
 31
0.0
  0
LINE
  5
DB7
  8
0
 10
136.0395252895724
 20
115.9002648956459
 30
0.0
 11
136.0395252895724
 21
115.7002648956459
 31
0.0
  0
LINE
  5
DB9
  8
0
 10
136.0395252895724
 20
124.2502648956459
 30
0.0
 11
136.0395252895724
 21
124.0502648956459
 31
0.0
  0
LINE
  5
DBB
  8
0
 10
136.0395252895724
 20
132.60026489564601
 30
0.0
 11
136.0395252895724
 21
132.4002648956459
 31
0.0
  0
LINE
  5
DBD
  8
0
 10
136.0395252895724
 20
140.1502648956459
 30
0.0
 11
136.0395252895724
 21
139.9002648956459
 31
0.0
  0
LINE
  5
DBE
  8
0
 10
140.0395252895724
 20
139.9002648956459
 30
0.0
 11
140.0395252895724
 21
140.1502648956459
 31
0.0
  0
LINE
  5
DC0
  8
0
 10
140.0395252895724
 20
132.4002648956459
 30
0.0
 11
140.0395252895724
 21
132.60026489564601
 31
0.0
  0
LINE
  5
DC2
  8
0
 10
140.0395252895724
 20
124.0502648956459
 30
0.0
 11
140.0395252895724
 21
124.2502648956459
 31
0.0
  0
LINE
  5
DC4
  8
0
 10
140.0395252895724
 20
115.7002648956459
 30
0.0
 11
140.0395252895724
 21
115.900264895646
 31
0.0
  0
LINE
  5
DC6
  8
0
 10
140.0395252895724
 20
107.35026489564601
 30
0.0
 11
140.0395252895724
 21
107.5502648956459
 31
0.0
  0
LINE
  5
DC8
  8
0
 10
140.0395252895724
 20
99.000264895645969
 30
0.0
 11
140.0395252895724
 21
99.200264895645986
 31
0.0
  0
LINE
  5
DCA
  8
0
 10
140.0395252895724
 20
91.450264895645986
 30
0.0
 11
140.0395252895724
 21
91.700264895645958
 31
0.0
  0
LINE
  5
DCE
  8
1
 10
122.5395252895724
 20
123.1427876075341
 30
0.0
 11
122.5395252895724
 21
138.9577421837578
 31
0.0
  0
LINE
  5
DCF
  8
1
 10
114.6320480014606
 20
131.05026489564591
 30
0.0
 11
130.4470025776842
 21
131.05026489564591
 31
0.0
  0
LINE
  5
DEF
  8
0
 10
143.0395252895724
 20
132.4002648956459
 30
0.0
 11
128.13219793331291
 21
132.4002648956459
 31
0.0
  0
LINE
  5
DF2
  8
0
 10
143.0395252895724
 20
124.2502648956459
 30
0.0
 11
128.13219793331291
 21
124.2502648956459
 31
0.0
  0
LINE
  5
DF3
  8
0
 10
135.5395252895724
 20
139.9002648956459
 30
0.0
 11
135.5395252895724
 21
140.55026489564591
 31
0.0
  0
LINE
  5
DF4
  8
0
 10
135.5395252895724
 20
132.4002648956459
 30
0.0
 11
135.5395252895724
 21
132.60026489564601
 31
0.0
  0
LINE
  5
DF5
  8
0
 10
135.5395252895724
 20
140.55026489564591
 30
0.0
 11
114.0395252895724
 21
140.55026489564591
 31
0.0
  0
LINE
  5
DF6
  8
0
 10
128.13219793331291
 20
91.700264895645958
 30
0.0
 11
128.13219793331291
 21
139.3127648956459
 31
0.0
  0
LINE
  5
DF7
  8
0
 10
135.5395252895724
 20
124.0502648956459
 30
0.0
 11
135.5395252895724
 21
124.2502648956459
 31
0.0
  0
LINE
  5
DF8
  8
0
 10
135.5395252895724
 20
115.7002648956459
 30
0.0
 11
135.5395252895724
 21
115.9002648956459
 31
0.0
  0
LINE
  5
DF9
  8
0
 10
128.13219793331291
 20
91.700264895645958
 30
0.0
 11
143.0395252895724
 21
91.700264895645958
 31
0.0
  0
LINE
  5
DFC
  8
0
 10
143.0395252895724
 20
99.000264895645969
 30
0.0
 11
128.13219793331291
 21
99.000264895645969
 31
0.0
  0
LINE
  5
DFD
  8
0
 10
135.5395252895724
 20
91.050264895645967
 30
0.0
 11
114.0395252895724
 21
91.050264895645967
 31
0.0
  0
LINE
  5
DFE
  8
0
 10
135.5395252895724
 20
91.050264895645967
 30
0.0
 11
135.5395252895724
 21
91.700264895645958
 31
0.0
  0
LINE
  5
DFF
  8
0
 10
135.5395252895724
 20
107.35026489564601
 30
0.0
 11
135.5395252895724
 21
107.5502648956459
 31
0.0
  0
LINE
  5
E00
  8
0
 10
135.5395252895724
 20
99.000264895645969
 30
0.0
 11
135.5395252895724
 21
99.200264895645986
 31
0.0
  0
LINE
  5
E01
  8
0
 10
128.13219793331291
 20
107.5502648956459
 30
0.0
 11
143.0395252895724
 21
107.5502648956459
 31
0.0
  0
LINE
  5
E04
  8
0
 10
143.0395252895724
 20
115.7002648956459
 30
0.0
 11
128.13219793331291
 21
115.7002648956459
 31
0.0
  0
LINE
  5
E05
  8
0
 10
128.13219793331291
 20
92.287764895645964
 30
0.0
 11
114.0395252895724
 21
92.287764895645964
 31
0.0
  0
LINE
  5
E06
  8
0
 10
114.0395252895724
 20
139.3127648956459
 30
0.0
 11
128.13219793331291
 21
139.3127648956459
 31
0.0
  0
LINE
  5
E0C
  8
0
 10
114.0395252895724
 20
91.050264895645967
 30
0.0
 11
114.0395252895724
 21
140.55026489564591
 31
0.0
  0
LINE
  5
E0F
  8
0
 10
143.0395252895724
 20
124.2502648956459
 30
0.0
 11
143.0395252895724
 21
132.4002648956459
 31
0.0
  0
LINE
  5
E12
  8
0
 10
143.0395252895724
 20
91.700264895645958
 30
0.0
 11
143.0395252895724
 21
99.000264895645969
 31
0.0
  0
LINE
  5
E15
  8
0
 10
143.0395252895724
 20
107.5502648956459
 30
0.0
 11
143.0395252895724
 21
115.7002648956459
 31
0.0
  0
LINE
  5
E93
  8
1
 10
145.63204800146059
 20
131.05026489564591
 30
0.0
 11
161.4470025776842
 21
131.05026489564591
 31
0.0
  0
LINE
  5
E94
  8
1
 10
153.5395252895724
 20
123.1427876075341
 30
0.0
 11
153.5395252895724
 21
138.9577421837578
 31
0.0
  0
LINE
  5
E95
  8
1
 10
145.63204800146059
 20
100.5502648956459
 30
0.0
 11
161.4470025776842
 21
100.5502648956459
 31
0.0
  0
LINE
  5
E96
  8
1
 10
153.5395252895724
 20
92.64278760753416
 30
0.0
 11
153.5395252895724
 21
108.4577421837577
 31
0.0
  0
LINE
  5
E97
  8
1
 10
114.6320480014606
 20
100.5502648956459
 30
0.0
 11
130.4470025776842
 21
100.5502648956459
 31
0.0
  0
LINE
  5
E98
  8
1
 10
122.5395252895724
 20
92.64278760753416
 30
0.0
 11
122.5395252895724
 21
108.4577421837577
 31
0.0
  0
CIRCLE
  5
F27
  8
2
 10
122.5395252895724
 20
131.05026489564591
 30
0.0
 40
5.25
  0
CIRCLE
  5
F28
  8
2
 10
122.5395252895724
 20
131.05026489564591
 30
0.0
 40
2.75
  0
CIRCLE
  5
F29
  8
2
 10
122.5395252895724
 20
100.5502648956459
 30
0.0
 40
2.75
  0
CIRCLE
  5
F2A
  8
2
 10
122.5395252895724
 20
100.5502648956459
 30
0.0
 40
5.25
  0
CIRCLE
  5
F2B
  8
2
 10
153.5395252895724
 20
100.5502648956459
 30
0.0
 40
2.75
  0
CIRCLE
  5
F2C
  8
2
 10
153.5395252895724
 20
100.5502648956459
 30
0.0
 40
5.25
  0
CIRCLE
  5
F2D
  8
2
 10
153.5395252895724
 20
131.05026489564591
 30
0.0
 40
2.75
  0
CIRCLE
  5
F2E
  8
2
 10
153.5395252895724
 20
131.05026489564591
 30
0.0
 40
5.25
  0
LINE
  5
F35
  8
2
 10
119.7895252895724
 20
29.122732667439681
 30
0.0
 11
117.2895252895723
 21
31.62273266743972
 31
0.0
  0
LINE
  5
F36
  8
2
 10
127.7895252895724
 20
31.622732667439681
 30
0.0
 11
125.2895252895724
 21
29.122732667439639
 31
0.0
  0
LINE
  5
F37
  8
2
 10
119.7895252895724
 20
29.122732667439681
 30
0.0
 11
125.2895252895724
 21
29.122732667439742
 31
0.0
  0
LINE
  5
F38
  8
2
 10
156.28952528957251
 20
29.122732667439681
 30
0.0
 11
150.78952528957251
 21
29.122732667439742
 31
0.0
  0
LINE
  5
F39
  8
2
 10
148.2895252895724
 20
31.622732667439681
 30
0.0
 11
150.78952528957251
 21
29.122732667439639
 31
0.0
  0
LINE
  5
F3A
  8
2
 10
150.7895252895724
 20
26.62273266743966
 30
0.0
 11
150.78952528957251
 21
29.122732667439731
 31
0.0
  0
LINE
  5
F3B
  8
2
 10
148.2895252895724
 20
31.622732667439681
 30
0.0
 11
148.2895252895724
 21
36.773920325012647
 31
0.0
  0
LINE
  5
F3C
  8
2
 10
148.2895252895724
 20
31.622732667439681
 30
0.0
 11
158.7895252895724
 21
31.622732667439681
 31
0.0
  0
LINE
  5
F3D
  8
2
 10
156.28952528957251
 20
29.122732667439681
 30
0.0
 11
158.78952528957251
 21
31.62273266743972
 31
0.0
  0
LINE
  5
F3E
  8
2
 10
156.28952528957251
 20
29.122732667439681
 30
0.0
 11
156.2895252895724
 21
26.62273266743966
 31
0.0
  0
LINE
  5
F3F
  8
2
 10
158.7895252895724
 20
31.622732667439681
 30
0.0
 11
158.7895252895724
 21
34.007101072688592
 31
0.0
  0
TEXT
  5
104F
  8
0
 62
     3
 10
0.0
 20
0.0
 30
0.0
 40
10.0
  1
EFHC4850SH5
  7
STANDARD1
  0
ENDSEC
  0
EOF
