  0
SECTION
  2
HEADER
  9
$ACADVER
  1
AC1009
  9
$INSBASE
 10
0.0
 20
0.0
 30
0.0
  9
$EXTMIN
 10
0.0
 20
-2.960436562073669
 30
-0.0000000000000071
  9
$EXTMAX
 10
205.34233596854801
 20
173.79477464797071
 30
6.9992664099999997
  9
$LIMMIN
 10
0.0
 20
0.0
  9
$LIMMAX
 10
375.0
 20
270.0
  9
$ORTHOMODE
 70
     0
  9
$REGENMODE
 70
     1
  9
$FILLMODE
 70
     1
  9
$QTEXTMODE
 70
     0
  9
$MIRRTEXT
 70
     0
  9
$DRAGMODE
 70
     2
  9
$LTSCALE
 40
10.0
  9
$OSMODE
 70
  3071
  9
$ATTMODE
 70
     1
  9
$TEXTSIZE
 40
2.0
  9
$TRACEWID
 40
0.05
  9
$TEXTSTYLE
  7
STANDARD
  9
$CLAYER
  8
0
  9
$CELTYPE
  6
BYLAYER
  9
$CECOLOR
 62
   256
  9
$DIMSCALE
 40
1.0
  9
$DIMASZ
 40
2.5
  9
$DIMEXO
 40
2.0
  9
$DIMDLI
 40
0.38
  9
$DIMRND
 40
0.0
  9
$DIMDLE
 40
0.0
  9
$DIMEXE
 40
2.0
  9
$DIMTP
 40
0.0
  9
$DIMTM
 40
0.0
  9
$DIMTXT
 40
3.0
  9
$DIMCEN
 40
0.09
  9
$DIMTSZ
 40
0.0
  9
$DIMTOL
 70
     0
  9
$DIMLIM
 70
     0
  9
$DIMTIH
 70
     0
  9
$DIMTOH
 70
     0
  9
$DIMSE1
 70
     0
  9
$DIMSE2
 70
     0
  9
$DIMTAD
 70
     1
  9
$DIMZIN
 70
     0
  9
$DIMBLK
  1

  9
$DIMASO
 70
     1
  9
$DIMSHO
 70
     0
  9
$DIMPOST
  1

  9
$DIMAPOST
  1

  9
$DIMALT
 70
     0
  9
$DIMALTD
 70
     2
  9
$DIMALTF
 40
25.399999999999999
  9
$DIMLFAC
 40
1.0
  9
$DIMTOFL
 70
     0
  9
$DIMTVP
 40
1.6000000000000001
  9
$DIMTIX
 70
     1
  9
$DIMSOXD
 70
     0
  9
$DIMSAH
 70
     0
  9
$DIMBLK1
  1

  9
$DIMBLK2
  1

  9
$DIMSTYLE
  2
STANDARD
  9
$DIMCLRD
 70
     0
  9
$DIMCLRE
 70
     0
  9
$DIMCLRT
 70
     0
  9
$DIMTFAC
 40
1.0
  9
$DIMGAP
 40
0.09
  9
$LUNITS
 70
     2
  9
$LUPREC
 70
     4
  9
$SKETCHINC
 40
0.1
  9
$FILLETRAD
 40
2.5
  9
$AUNITS
 70
     0
  9
$AUPREC
 70
     0
  9
$MENU
  1
E:\r13\win\SUPPORT\ACAD
  9
$ELEVATION
 40
0.0
  9
$PELEVATION
 40
0.0
  9
$THICKNESS
 40
0.0
  9
$LIMCHECK
 70
     0
  9
$BLIPMODE
 70
     0
  9
$CHAMFERA
 40
0.0
  9
$CHAMFERB
 40
0.0
  9
$SKPOLY
 70
     0
  9
$TDCREATE
 40
2448650.5678784722
  9
$TDUPDATE
 40
2456598.657714121
  9
$TDINDWG
 40
0.0240860532
  9
$TDUSRTIMER
 40
0.0240860532
  9
$USRTIMER
 70
     1
  9
$ANGBASE
 50
0.0
  9
$ANGDIR
 70
     0
  9
$PDMODE
 70
     0
  9
$PDSIZE
 40
0.0
  9
$PLINEWID
 40
0.0
  9
$COORDS
 70
     1
  9
$SPLFRAME
 70
     0
  9
$SPLINETYPE
 70
     6
  9
$SPLINESEGS
 70
     8
  9
$ATTDIA
 70
     0
  9
$ATTREQ
 70
     1
  9
$HANDLING
 70
     1
  9
$HANDSEED
  5
11D3
  9
$SURFTAB1
 70
     6
  9
$SURFTAB2
 70
     6
  9
$SURFTYPE
 70
     6
  9
$SURFU
 70
     6
  9
$SURFV
 70
     6
  9
$UCSNAME
  2

  9
$UCSORG
 10
0.0
 20
0.0
 30
0.0
  9
$UCSXDIR
 10
1.0
 20
0.0
 30
0.0
  9
$UCSYDIR
 10
0.0
 20
1.0
 30
0.0
  9
$PUCSNAME
  2

  9
$PUCSORG
 10
0.0
 20
0.0
 30
0.0
  9
$PUCSXDIR
 10
1.0
 20
0.0
 30
0.0
  9
$PUCSYDIR
 10
0.0
 20
1.0
 30
0.0
  9
$USERI1
 70
     0
  9
$USERI2
 70
     1
  9
$USERI3
 70
     1
  9
$USERI4
 70
     0
  9
$USERI5
 70
     0
  9
$USERR1
 40
0.0
  9
$USERR2
 40
0.0
  9
$USERR3
 40
0.0
  9
$USERR4
 40
0.0
  9
$USERR5
 40
0.0
  9
$WORLDVIEW
 70
     1
  9
$SHADEDGE
 70
     3
  9
$SHADEDIF
 70
    70
  9
$TILEMODE
 70
     1
  9
$MAXACTVP
 70
    16
  9
$PLIMCHECK
 70
     0
  9
$PEXTMIN
 10
1.0000000000000000E+020
 20
1.0000000000000000E+020
 30
1.0000000000000000E+020
  9
$PEXTMAX
 10
-1.0000000000000000E+020
 20
-1.0000000000000000E+020
 30
-1.0000000000000000E+020
  9
$PLIMMIN
 10
0.0
 20
0.0
  9
$PLIMMAX
 10
12.0
 20
9.0
  9
$UNITMODE
 70
     0
  9
$VISRETAIN
 70
     0
  9
$PLINEGEN
 70
     1
  9
$PSLTSCALE
 70
     0
  0
ENDSEC
  0
SECTION
  2
TABLES
  0
TABLE
  2
VPORT
 70
     1
  0
VPORT
  2
*ACTIVE
 70
     0
 10
0.0
 20
0.0
 11
1.0
 21
1.0
 12
187.49427839065231
 22
169.9063198933564
 13
0.0
 23
0.0
 14
10.0
 24
10.0
 15
10.0
 25
10.0
 16
0.0
 26
0.0
 36
1.0
 17
0.0
 27
0.0
 37
0.0
 40
348.89937369551939
 41
1.831871345029239
 42
50.0
 43
0.0
 44
0.0
 50
0.0
 51
0.0
 71
     0
 72
   500
 73
     1
 74
     0
 75
     0
 76
     0
 77
     0
 78
     2
  0
ENDTAB
  0
TABLE
  2
LTYPE
 70
     4
  0
LTYPE
  2
CONTINUOUS
 70
     0
  3
Solid Line
 72
    65
 73
     0
 40
0.0
  0
LTYPE
  2
CENTER
 70
     0
  3
____ _ ____ _ ____ _ ____ _ ____ _ ____ _ ____
 72
    65
 73
     4
 40
2.0
 49
1.25
 49
-0.25
 49
0.25
 49
-0.25
  0
LTYPE
  2
HIDDEN
 70
     0
  3
_ _ _ _ _ _ _ _ _ _ _ _ _ _ _ _ _ _ _ _ _ _ _
 72
    65
 73
     2
 40
0.375
 49
0.25
 49
-0.125
  0
LTYPE
  2
PHANTOM2
 70
     0
  3
___ _ _ ___ _ _ ___ _ _ ___ _ _
 72
    65
 73
     6
 40
1.25
 49
0.625
 49
-0.125
 49
0.125
 49
-0.125
 49
0.125
 49
-0.125
  0
ENDTAB
  0
TABLE
  2
LAYER
 70
     4
  0
LAYER
  2
0
 70
     0
 62
     7
  6
CONTINUOUS
  0
LAYER
  2
1
 70
     0
 62
     1
  6
CENTER
  0
LAYER
  2
3
 70
     0
 62
     3
  6
CONTINUOUS
  0
LAYER
  2
2
 70
     0
 62
     2
  6
HIDDEN
  0
ENDTAB
  0
TABLE
  2
STYLE
 70
     2
  0
STYLE
  2
STANDARD
 70
     0
 40
0.0
 41
1.0
 50
0.0
 71
     0
 42
2.0
  3
TXT
  4
BIGFONT
  0
STYLE
  2
STANDARD1
 70
     0
 40
0.0
 41
1.0
 50
0.0
 71
     0
 42
3.0
  3
txt
  4

  0
ENDTAB
  0
TABLE
  2
VIEW
 70
     1
  0
VIEW
  2
ALL
 70
     0
 40
270.0
 10
220.99159663865549
 20
135.0
 41
0.0
 11
0.0
 21
0.0
 31
1.0
 12
0.0
 22
0.0
 32
0.0
 42
0.0
 43
0.0
 44
0.0
 50
0.0
 71
     0
  0
ENDTAB
  0
TABLE
  2
UCS
 70
     0
  0
ENDTAB
  0
TABLE
  2
APPID
 70
     4
  0
APPID
  2
ACAD
 70
     0
  0
APPID
  2
GENIUS_GENOREF_13
 70
     0
  0
APPID
  2
ACAD_MLEADERVER
 70
     0
  0
APPID
  2
ACAD_NAV_VCDISPLAY
 70
     0
  0
ENDTAB
  0
TABLE
  2
DIMSTYLE
 70
     1
  0
DIMSTYLE
  2
STANDARD
 70
     0
  3

  4

  5

  6

  7

 40
1.0
 41
0.18
 42
0.0625
 43
0.38
 44
0.18
 45
0.0
 46
0.0
 47
0.0
 48
0.0
140
0.18
141
0.09
142
0.0
143
25.399999999999999
144
1.0
145
0.0
146
1.0
147
0.09
 71
     0
 72
     0
 73
     1
 74
     1
 75
     0
 76
     0
 77
     0
 78
     0
170
     0
171
     2
172
     0
173
     0
174
     0
175
     0
176
     0
177
     0
178
     0
  0
ENDTAB
  0
ENDSEC
  0
SECTION
  2
BLOCKS
  0
BLOCK
  8
0
  2
$MODEL_SPACE
 70
     0
 10
0.0
 20
0.0
 30
0.0
  3
$MODEL_SPACE
  1

  0
ENDBLK
  5
217
  8
0
  0
BLOCK
 67
     1
  8
0
  2
$PAPER_SPACE
 70
     0
 10
0.0
 20
0.0
 30
0.0
  3
$PAPER_SPACE
  1

  0
ENDBLK
  5
215
 67
     1
  8
0
  0
ENDSEC
  0
SECTION
  2
ENTITIES
  0
LINE
  5
D0B
  8
3
 10
203.09233587354811
 20
78.575789688803994
 30
-0.0000000000000071
 11
203.09233587354811
 21
76.281328437803978
 31
-0.0000000000000071
  0
LINE
  5
D0C
  8
3
 10
194.09233587354811
 20
78.575789688803994
 30
-0.0000000000000071
 11
194.09233587354811
 21
76.281328437803978
 31
-0.0000000000000071
  0
LINE
  5
D0D
  8
3
 10
203.09233587354811
 20
77.254302601803843
 30
2.512207794999993
 11
194.09233606454791
 21
77.254302601803843
 31
2.512207794999993
  0
LINE
  5
D0E
  8
3
 10
203.09233587354811
 20
76.680726165804145
 30
3.3313598399999922
 11
194.09233606454791
 21
76.680726165804145
 31
3.3313598399999922
  0
LINE
  5
D0F
  8
3
 10
203.09233587354811
 20
78.17012654080375
 30
2.0851520789999931
 11
194.09233587354811
 21
78.17012654080375
 31
2.0851520789999931
  0
LINE
  5
D10
  8
3
 10
194.09233587354811
 20
76.592655295804008
 30
4.3380144939999923
 11
203.09233587354811
 21
76.592655295804008
 31
4.3380144939999923
  0
LINE
  5
D11
  8
3
 10
203.09233587354811
 20
78.575789729804029
 30
1.606195701999992
 11
194.09233587354811
 21
78.575789729804029
 31
1.606195701999992
  0
LINE
  5
D12
  8
3
 10
194.09233587354811
 20
76.28132850380419
 30
4.8830259279999932
 11
203.09233587354811
 21
76.28132850380419
 31
4.8830259279999932
  0
LINE
  5
D13
  8
3
 10
190.99233558754739
 20
74.511792646166327
 30
0.0
 11
190.9923355875475
 21
77.677637342309595
 31
0.0
  0
LINE
  5
D14
  8
3
 10
181.8423358735478
 20
77.677637342309595
 30
0.0
 11
181.8423358735478
 21
74.511792646166327
 31
0.0
  0
LINE
  5
D15
  8
3
 10
190.99233558754739
 20
77.736949882309574
 30
0.0
 11
190.99233558754739
 21
78.794665600803938
 31
0.0
  0
LINE
  5
D16
  8
3
 10
181.84233587354791
 20
78.794665642803949
 30
0.0
 11
181.842335873548
 21
77.736949882309574
 31
0.0
  0
LINE
  5
D17
  8
3
 10
181.8423358735478
 20
77.127890558882342
 30
0.0
 11
190.9923355875475
 21
77.127890558882342
 31
0.0
  0
LINE
  5
D18
  8
3
 10
181.84233587354791
 20
77.677637342309595
 30
0.0
 11
190.9923355875475
 21
77.677637342309595
 31
0.0
  0
LINE
  5
D19
  8
3
 10
181.842335873548
 20
77.736949882309574
 30
0.0
 11
190.99233558754739
 21
77.736949882309574
 31
0.0
  0
LINE
  5
D1A
  8
3
 10
181.842335873548
 20
77.847299790269204
 30
0.0
 11
190.99233558754739
 21
77.847299790269204
 31
0.0
  0
LINE
  5
D1B
  8
3
 10
181.84233587354791
 20
78.559117169198174
 30
0.0
 11
190.9923355875475
 21
78.559117169198174
 31
0.0
  0
LINE
  5
D1C
  8
3
 10
181.84233587354791
 20
75.001984137142685
 30
0.0
 11
190.99233558754739
 21
75.001984137142685
 31
0.0
  0
LINE
  5
D1D
  8
3
 10
181.8423358735478
 20
74.511792646166327
 30
0.0
 11
190.99233558754739
 21
74.511792646166327
 31
0.0
  0
LINE
  5
D1E
  8
3
 10
181.842335873548
 20
75.273532487690289
 30
0.0
 11
190.99233558754739
 21
75.273532487690289
 31
0.0
  0
LINE
  5
D1F
  8
3
 10
181.84233587354791
 20
76.213290271845779
 30
0.0
 11
190.9923355875475
 21
76.213290271845779
 31
0.0
  0
LINE
  5
D20
  8
3
 10
157.5923359685479
 20
76.213290271845779
 30
0.0
 11
166.59233596854801
 21
76.213290271845779
 31
0.0
  0
LINE
  5
D21
  8
3
 10
157.59233596854801
 20
75.273532487690289
 30
0.0
 11
166.5923359685479
 21
75.273532487690289
 31
0.0
  0
LINE
  5
D22
  8
3
 10
157.5923359685479
 20
74.511792646166327
 30
0.0
 11
166.5923359685479
 21
74.511792646166327
 31
0.0
  0
LINE
  5
D23
  8
3
 10
157.5923359685479
 20
75.001984137142685
 30
0.0
 11
166.5923359685479
 21
75.001984137142685
 31
0.0
  0
LINE
  5
D24
  8
3
 10
157.5923359685479
 20
78.559117169198174
 30
0.0
 11
166.59233596854801
 21
78.559117169198174
 31
0.0
  0
LINE
  5
D25
  8
3
 10
157.59233596854801
 20
77.847299790269204
 30
0.0
 11
166.5923359685479
 21
77.847299790269204
 31
0.0
  0
LINE
  5
D26
  8
3
 10
157.59233596854801
 20
77.736949882309574
 30
0.0
 11
166.5923359685479
 21
77.736949882309574
 31
0.0
  0
LINE
  5
D27
  8
3
 10
157.5923359685479
 20
77.677637342309595
 30
0.0
 11
166.59233596854801
 21
77.677637342309595
 31
0.0
  0
LINE
  5
D28
  8
3
 10
157.5923359685479
 20
77.127890558882342
 30
0.0
 11
166.59233596854801
 21
77.127890558882342
 31
0.0
  0
LINE
  5
D29
  8
3
 10
169.6923363495479
 20
76.28132850380419
 30
6.9992664099999997
 11
178.8423359685479
 21
76.28132850380419
 31
6.9992664099999997
  0
LINE
  5
D2A
  8
3
 10
178.8423359685479
 20
78.575789729804029
 30
3.7224361840000002
 11
169.6923363495479
 21
78.575789729804029
 31
3.7224361840000002
  0
LINE
  5
D2B
  8
3
 10
169.6923363495479
 20
76.592655295804008
 30
6.4542549759999988
 11
178.8423359685479
 21
76.592655295804008
 31
6.4542549759999988
  0
LINE
  5
D2C
  8
3
 10
178.8423359685479
 20
78.17012654080375
 30
4.2013925609999996
 11
169.6923363495479
 21
78.17012654080375
 31
4.2013925609999996
  0
LINE
  5
D2D
  8
3
 10
178.84233596554799
 20
76.680726165804145
 30
5.4476003219999987
 11
169.6923365405477
 21
76.680726165804145
 31
5.4476003219999987
  0
LINE
  5
D2E
  8
3
 10
178.84233596554799
 20
77.254302601803843
 30
4.6284482770000004
 11
169.6923365405477
 21
77.254302601803843
 31
4.6284482770000004
  0
LINE
  5
D2F
  8
3
 10
169.6923363495479
 20
78.575789688803994
 30
2.1162404819999998
 11
169.6923363495479
 21
76.281328437803978
 31
2.1162404819999998
  0
LINE
  5
D30
  8
3
 10
178.8423359685479
 20
78.575789688803994
 30
2.1162404819999998
 11
178.8423359685479
 21
76.281328437803978
 31
2.1162404819999998
  0
LINE
  5
D31
  8
3
 10
157.5923359685479
 20
78.794665642803949
 30
0.0
 11
157.59233596854801
 21
77.736949882309574
 31
0.0
  0
LINE
  5
D32
  8
3
 10
166.5923359685479
 20
77.736949882309574
 30
0.0
 11
166.5923359685479
 21
78.794665600803938
 31
0.0
  0
LINE
  5
D33
  8
3
 10
157.5923359685479
 20
77.677637342309595
 30
0.0
 11
157.5923359685479
 21
74.511792646166327
 31
0.0
  0
LINE
  5
D34
  8
3
 10
166.5923359685479
 20
74.511792646166327
 30
0.0
 11
166.59233596854801
 21
77.677637342309595
 31
0.0
  0
LINE
  5
D35
  8
3
 10
102.725051185789
 20
166.54477464797071
 30
0.0
 11
99.448429990968009
 21
166.54477464797071
 31
0.0
  0
LINE
  5
D36
  8
3
 10
99.448430706921329
 20
157.54477464797071
 30
0.0
 11
102.725051185789
 21
157.54477464797071
 31
0.0
  0
LINE
  5
D37
  8
3
 10
98.310201487254645
 20
157.54477464797071
 30
0.0
 11
98.310201487254645
 21
166.54477464797071
 31
0.0
  0
LINE
  5
D38
  8
3
 10
92.093632397140823
 20
166.54477464797071
 30
0.0
 11
92.093632397140823
 21
157.54477464797071
 31
0.0
  0
LINE
  5
D39
  8
3
 10
101.1734847073993
 20
157.54477464797071
 30
0.0
 11
101.1734847073993
 21
166.54477464797071
 31
0.0
  0
LINE
  5
D3A
  8
3
 10
95.064905004998408
 20
166.54477464797071
 30
0.0
 11
95.064905004998536
 21
157.54477464797071
 31
0.0
  0
LINE
  5
D3B
  8
3
 10
96.040959457302961
 20
166.54477464797071
 30
0.0
 11
96.040959457302904
 21
157.54477464797071
 31
0.0
  0
LINE
  5
D3C
  8
3
 10
97.006885326941017
 20
166.54477464797071
 30
0.0
 11
97.006885326941074
 21
157.54477464797071
 31
0.0
  0
LINE
  5
D3D
  8
3
 10
94.038949674302657
 20
166.54477464797071
 30
0.0
 11
94.038949674302614
 21
157.54477464797071
 31
0.0
  0
LINE
  5
D3E
  8
3
 10
92.555519745302774
 20
166.54477464797071
 30
0.0
 11
92.555519745302945
 21
157.54477464797071
 31
0.0
  0
LINE
  5
D3F
  8
3
 10
93.302035024302825
 20
166.54477464797071
 30
0.0
 11
93.302035024302882
 21
157.54477464797071
 31
0.0
  0
LINE
  5
D40
  8
3
 10
98.310201066281294
 20
157.54477464797071
 30
0.0
 11
92.093631976167373
 21
157.54477464797071
 31
0.0
  0
LINE
  5
D41
  8
3
 10
92.093632397140766
 20
166.54477464797071
 30
0.0
 11
98.31020148725446
 21
166.54477464797071
 31
0.0
  0
LINE
  5
D42
  8
3
 10
99.448535646768747
 20
166.54477464797071
 30
0.0
 11
99.448535646768747
 21
157.54477464797071
 31
0.0
  0
LINE
  5
D43
  8
3
 10
102.18035451430281
 20
166.54477464797071
 30
0.0
 11
102.18035451430281
 21
157.54477464797071
 31
0.0
  0
LINE
  5
D44
  8
3
 10
102.725051185789
 20
157.54477464797071
 30
0.0
 11
102.725051185789
 21
166.54477464797071
 31
0.0
  0
LINE
  5
D45
  8
3
 10
100.3545478393242
 20
166.54477464797071
 30
0.0
 11
100.3545478393242
 21
157.54477464797071
 31
0.0
  0
LINE
  5
D46
  8
3
 10
97.374474531612123
 20
121.0447746479707
 30
0.0
 11
103.59104404269939
 21
121.0447746479707
 31
0.0
  0
LINE
  5
D47
  8
3
 10
92.959624833077839
 20
121.0447746479707
 30
0.0
 11
96.236140372097964
 21
121.0447746479707
 31
0.0
  0
LINE
  5
D48
  8
3
 10
95.330128179542555
 20
121.0447746479707
 30
0.0
 11
95.330128179542612
 21
130.0447746479708
 31
0.0
  0
LINE
  5
D49
  8
3
 10
92.959624833077783
 20
130.0447746479708
 30
0.0
 11
92.959624833077783
 21
121.0447746479707
 31
0.0
  0
LINE
  5
D4A
  8
3
 10
93.504321504563976
 20
121.0447746479707
 30
0.0
 11
93.504321504564018
 21
130.0447746479708
 31
0.0
  0
LINE
  5
D4B
  8
3
 10
96.236140372097964
 20
121.0447746479707
 30
0.0
 11
96.236140372098077
 21
130.0447746479708
 31
0.0
  0
LINE
  5
D4C
  8
3
 10
97.374474952585501
 20
130.04477464797071
 30
0.0
 11
103.59104404269939
 21
130.04477464797071
 31
0.0
  0
LINE
  5
D4D
  8
3
 10
102.382640994564
 20
121.0447746479707
 30
0.0
 11
102.3826409945639
 21
130.0447746479708
 31
0.0
  0
LINE
  5
D4E
  8
3
 10
103.12915627356401
 20
121.0447746479707
 30
0.0
 11
103.12915627356379
 21
130.0447746479708
 31
0.0
  0
LINE
  5
D4F
  8
3
 10
101.6457263445642
 20
121.0447746479707
 30
0.0
 11
101.6457263445642
 21
130.0447746479708
 31
0.0
  0
LINE
  5
D50
  8
3
 10
98.677790691925736
 20
121.0447746479707
 30
0.0
 11
98.677790691925736
 21
130.0447746479708
 31
0.0
  0
LINE
  5
D51
  8
3
 10
99.643716561563807
 20
121.0447746479707
 30
0.0
 11
99.643716561563906
 21
130.0447746479708
 31
0.0
  0
LINE
  5
D52
  8
3
 10
100.6197710138684
 20
121.0447746479707
 30
0.0
 11
100.6197710138682
 21
130.0447746479708
 31
0.0
  0
LINE
  5
D53
  8
3
 10
94.511191311467485
 20
130.0447746479708
 30
0.0
 11
94.511191311467485
 21
121.0447746479707
 31
0.0
  0
LINE
  5
D54
  8
3
 10
103.591043621726
 20
121.0447746479707
 30
0.0
 11
103.591043621726
 21
130.0447746479708
 31
0.0
  0
LINE
  5
D55
  8
3
 10
97.374474531612179
 20
130.0447746479708
 30
0.0
 11
97.374474531612123
 21
121.0447746479707
 31
0.0
  0
LINE
  5
D56
  8
3
 10
96.236245311945495
 20
130.04477464797071
 30
0.0
 11
92.959624833077783
 21
130.04477464797071
 31
0.0
  0
LINE
  5
D57
  8
3
 10
100.3545478393242
 20
142.2947746479708
 30
0.0
 11
100.3545478393242
 21
133.14477464797059
 31
0.0
  0
LINE
  5
D58
  8
3
 10
102.725051185789
 20
133.14477464797059
 30
0.0
 11
102.7250511857891
 21
142.2947746479708
 31
0.0
  0
LINE
  5
D59
  8
3
 10
102.18035451430281
 20
142.2947746479708
 30
0.0
 11
102.18035451430281
 21
133.14477464797059
 31
0.0
  0
LINE
  5
D5A
  8
3
 10
99.448535646768789
 20
142.2947746479708
 30
0.0
 11
99.448535646768747
 21
133.14477464797059
 31
0.0
  0
LINE
  5
D5B
  8
3
 10
92.093632397140823
 20
142.2947746479708
 30
0.0
 11
98.310201487254517
 21
142.2947746479708
 31
0.0
  0
LINE
  5
D5C
  8
3
 10
98.310201066281294
 20
133.14477464797071
 30
0.0
 11
92.093631976167373
 21
133.14477464797071
 31
0.0
  0
LINE
  5
D5D
  8
3
 10
93.302035024302825
 20
142.2947746479708
 30
0.0
 11
93.302035024302882
 21
133.14477464797059
 31
0.0
  0
LINE
  5
D5E
  8
3
 10
92.555519745302817
 20
142.2947746479708
 30
0.0
 11
92.555519745302945
 21
133.14477464797059
 31
0.0
  0
LINE
  5
D5F
  8
3
 10
94.038949674302657
 20
142.2947746479708
 30
0.0
 11
94.038949674302614
 21
133.14477464797059
 31
0.0
  0
LINE
  5
D60
  8
3
 10
97.006885326941017
 20
142.2947746479708
 30
0.0
 11
97.006885326941074
 21
133.14477464797059
 31
0.0
  0
LINE
  5
D61
  8
3
 10
96.040959457302961
 20
142.2947746479708
 30
0.0
 11
96.040959457302904
 21
133.14477464797059
 31
0.0
  0
LINE
  5
D62
  8
3
 10
95.064905004998408
 20
142.2947746479708
 30
0.0
 11
95.064905004998536
 21
133.14477464797059
 31
0.0
  0
LINE
  5
D63
  8
3
 10
101.1734847073993
 20
133.14477464797059
 30
0.0
 11
101.1734847073993
 21
142.29477445698299
 31
0.0
  0
LINE
  5
D64
  8
3
 10
92.093632397140823
 20
142.2947746479708
 30
0.0
 11
92.093632397140823
 21
133.14477464797059
 31
0.0
  0
LINE
  5
D65
  8
3
 10
98.310201487254645
 20
133.14477464797059
 30
0.0
 11
98.310201487254645
 21
142.2947746479708
 31
0.0
  0
LINE
  5
D66
  8
3
 10
99.448430706921329
 20
133.14477464797071
 30
0.0
 11
102.725051185789
 21
133.14477464797071
 31
0.0
  0
LINE
  5
D67
  8
3
 10
102.7250511857891
 20
142.2947746479708
 30
0.0
 11
99.448429990968066
 21
142.2947746479708
 31
0.0
  0
LINE
  5
D68
  8
0
 10
103.8423359685479
 20
144.89477464797071
 30
0.0
 11
103.842335968548
 21
154.9447746479708
 31
0.0
  0
LINE
  5
D69
  8
3
 10
92.959624833077783
 20
145.2947746479708
 30
0.0
 11
96.236246027898815
 21
145.2947746479708
 31
0.0
  0
LINE
  5
D6A
  8
3
 10
96.236245311945538
 20
154.4447746479708
 30
0.0
 11
92.959624833077839
 21
154.4447746479708
 31
0.0
  0
LINE
  5
D6B
  8
3
 10
97.374474531612236
 20
154.4447746479708
 30
0.0
 11
97.374474531612236
 21
145.2947746479708
 31
0.0
  0
LINE
  5
D6C
  8
3
 10
103.591043621726
 20
145.2947746479708
 30
0.0
 11
103.591043621726
 21
154.4447746479708
 31
0.0
  0
LINE
  5
D6D
  8
3
 10
94.511191311467542
 20
154.4447746479708
 30
0.0
 11
94.511191311467542
 21
145.29477483895849
 31
0.0
  0
LINE
  5
D6E
  8
3
 10
100.6197710138684
 20
145.2947746479708
 30
0.0
 11
100.6197710138683
 21
154.4447746479708
 31
0.0
  0
LINE
  5
D6F
  8
3
 10
99.643716561563906
 20
145.2947746479708
 30
0.0
 11
99.643716561563963
 21
154.4447746479708
 31
0.0
  0
LINE
  5
D70
  8
3
 10
98.677790691925864
 20
145.2947746479708
 30
0.0
 11
98.677790691925793
 21
154.4447746479708
 31
0.0
  0
LINE
  5
D71
  8
3
 10
101.6457263445642
 20
145.2947746479708
 30
0.0
 11
101.6457263445642
 21
154.4447746479708
 31
0.0
  0
LINE
  5
D72
  8
3
 10
103.12915627356401
 20
145.2947746479708
 30
0.0
 11
103.12915627356389
 21
154.4447746479708
 31
0.0
  0
LINE
  5
D73
  8
3
 10
102.382640994564
 20
145.2947746479708
 30
0.0
 11
102.382640994564
 21
154.4447746479708
 31
0.0
  0
LINE
  5
D74
  8
3
 10
97.374474952585572
 20
154.4447746479708
 30
0.0
 11
103.59104404269939
 21
154.4447746479708
 31
0.0
  0
LINE
  5
D75
  8
3
 10
103.591043621726
 20
145.2947746479708
 30
0.0
 11
97.374474531612364
 21
145.2947746479708
 31
0.0
  0
LINE
  5
D76
  8
3
 10
96.236140372098077
 20
145.2947746479708
 30
0.0
 11
96.236140372098134
 21
154.4447746479708
 31
0.0
  0
LINE
  5
D77
  8
3
 10
93.504321504564018
 20
145.2947746479708
 30
0.0
 11
93.504321504564075
 21
154.4447746479708
 31
0.0
  0
LINE
  5
D78
  8
3
 10
92.959624833077839
 20
154.4447746479708
 30
0.0
 11
92.959624833077783
 21
145.2947746479708
 31
0.0
  0
LINE
  5
D79
  8
3
 10
95.330128179542612
 20
145.2947746479708
 30
0.0
 11
95.330128179542669
 21
154.4447746479708
 31
0.0
  0
LINE
  5
D7A
  8
1
 10
97.842335969564147
 20
173.79477464797071
 30
0.0
 11
97.84233596956426
 21
113.7947746479708
 31
0.0
  0
LINE
  5
D7B
  8
1
 10
70.342335968548014
 20
143.7947746479708
 30
0.0
 11
125.342335968548
 21
143.79477464797071
 31
0.0
  0
CIRCLE
  5
D7C
  8
2
 10
85.342335968548014
 20
159.7947746479708
 30
0.0
 40
2.25
  0
LINE
  5
D7D
  8
0
 10
91.842335968547957
 20
167.79317464784509
 30
0.0
 11
91.842335968547957
 21
157.14477464797079
 31
0.0
  0
ARC
  5
D7E
  8
0
 10
92.842335968547957
 20
167.79317464784509
 30
0.0
 40
1.0
 50
90.0
 51
180.0
  0
LINE
  5
D7F
  8
0
 10
91.842335968548014
 20
154.9447746479708
 30
0.0
 11
91.842335968548014
 21
144.89477464797071
 31
0.0
  0
LINE
  5
D80
  8
0
 10
91.842335968547957
 20
142.6947746479708
 30
0.0
 11
91.842335968547957
 21
132.64477464797079
 31
0.0
  0
LINE
  5
D81
  8
0
 10
91.8423359685479
 20
130.44477464797069
 30
0.0
 11
91.842335968548014
 21
119.7963746480965
 31
0.0
  0
ARC
  5
D82
  8
0
 10
92.842335968548014
 20
119.7963746480965
 30
0.0
 40
1.0
 50
180.0
 51
270.0
  0
ARC
  5
D83
  8
0
 10
102.8423359685479
 20
119.7963746480965
 30
0.0
 40
1.0
 50
270.0
 51
359.9999999999996
  0
LINE
  5
D84
  8
0
 10
103.842335968548
 20
130.4447746479708
 30
0.0
 11
103.8423359685479
 21
119.7963746480965
 31
0.0
  0
LINE
  5
D85
  8
0
 10
103.8423359685481
 20
142.6947746479708
 30
0.0
 11
103.8423359685479
 21
132.64477464797071
 31
0.0
  0
LINE
  5
D86
  8
0
 10
103.842335968548
 20
167.79317464784509
 30
0.0
 11
103.842335968548
 21
157.14477464797071
 31
0.0
  0
ARC
  5
D87
  8
0
 10
102.842335968548
 20
167.79317464784509
 30
0.0
 40
1.0
 50
0.0
 51
90.0
  0
LINE
  5
D88
  8
0
 10
120.342335968548
 20
160.7947746479708
 30
0.0
 11
120.342335968548
 21
126.7947746479707
 31
0.0
  0
LINE
  5
D89
  8
0
 10
75.342335968548014
 20
160.7947746479708
 30
0.0
 11
75.34233596854807
 21
126.7947746479708
 31
0.0
  0
LINE
  5
D8A
  8
0
 10
83.342335968548014
 20
168.79477464797071
 30
0.0
 11
112.342335968548
 21
168.79477464797071
 31
0.0
  0
LINE
  5
D8B
  8
0
 10
83.342335968548056
 20
118.7947746479708
 30
0.0
 11
112.3423359685481
 21
118.7947746479707
 31
0.0
  0
ARC
  5
D8C
  8
0
 10
112.342335968548
 20
160.7947746479708
 30
0.0
 40
8.0
 50
0.0
 51
90.0
  0
ARC
  5
D8D
  8
0
 10
83.342335968548014
 20
160.7947746479708
 30
0.0
 40
8.0
 50
90.0
 51
180.0
  0
ARC
  5
D8E
  8
0
 10
83.342335968548056
 20
126.7947746479708
 30
0.0
 40
8.0
 50
180.0
 51
270.0
  0
ARC
  5
D8F
  8
0
 10
112.3423359685481
 20
126.7947746479707
 30
0.0
 40
8.0
 50
270.0
 51
0.0
  0
CIRCLE
  5
D90
  8
2
 10
110.342335968548
 20
159.7947746479708
 30
0.0
 40
2.25
  0
CIRCLE
  5
D91
  8
2
 10
85.342335968548014
 20
127.7947746479708
 30
0.0
 40
2.25
  0
CIRCLE
  5
D92
  8
2
 10
110.342335968548
 20
127.7947746479708
 30
0.0
 40
2.25
  0
LINE
  5
D93
  8
0
 10
92.361630364344194
 20
143.6947746479708
 30
0.0
 11
103.1405500020802
 21
143.6947746479708
 31
0.0
  0
LINE
  5
D94
  8
0
 10
92.842335968547957
 20
131.64477464797091
 30
0.0
 11
103.1405500020802
 21
131.64477464797079
 31
0.0
  0
LINE
  5
D95
  8
0
 10
92.544121937047976
 20
131.44477464797069
 30
0.0
 11
102.842335968548
 21
131.4447746479708
 31
0.0
  0
ARC
  5
D96
  8
0
 10
102.8423359685479
 20
132.64477464797071
 30
0.0
 40
1.0
 50
270.0
 51
0.0
  0
ARC
  5
D97
  8
0
 10
102.842335968548
 20
130.4447746479708
 30
0.0
 40
1.0
 50
359.9999999999996
 51
90.0
  0
ARC
  5
D98
  8
0
 10
92.842335968547957
 20
132.64477464797079
 30
0.0
 40
1.0
 50
180.0
 51
270.0
  0
ARC
  5
D99
  8
0
 10
92.842335968547886
 20
130.44477464797069
 30
0.0
 40
1.0
 50
90.0
 51
180.0000000000004
  0
ARC
  5
D9A
  8
0
 10
102.8423359685481
 20
142.6947746479708
 30
0.0
 40
1.0
 50
359.9999999999996
 51
90.0
  0
ARC
  5
D9B
  8
0
 10
92.842335968547957
 20
142.6947746479708
 30
0.0
 40
1.0
 50
90.0
 51
180.0
  0
LINE
  5
D9C
  8
0
 10
92.842335968548014
 20
143.89477464797071
 30
0.0
 11
102.8423359685479
 21
143.89477464797079
 31
0.0
  0
ARC
  5
D9D
  8
0
 10
92.842335968548014
 20
144.89477464797071
 30
0.0
 40
1.0
 50
180.0000000000004
 51
270.0
  0
ARC
  5
D9E
  8
0
 10
102.8423359685479
 20
144.89477464797071
 30
0.0
 40
1.0
 50
270.0
 51
359.9999999999996
  0
LINE
  5
D9F
  8
0
 10
92.544121937048033
 20
155.9447746479708
 30
0.0
 11
102.842335968548
 21
155.9447746479708
 31
0.0
  0
LINE
  5
DA0
  8
0
 10
92.842335968547957
 20
156.14477464797071
 30
0.0
 11
103.1405500020802
 21
156.14477464797071
 31
0.0
  0
ARC
  5
DA1
  8
0
 10
92.842335968547957
 20
157.14477464797079
 30
0.0
 40
1.0
 50
180.0
 51
270.0
  0
ARC
  5
DA2
  8
0
 10
92.842335968548014
 20
154.9447746479708
 30
0.0
 40
1.0
 50
90.0
 51
180.0000000000004
  0
ARC
  5
DA3
  8
0
 10
102.842335968548
 20
157.14477464797071
 30
0.0
 40
1.0
 50
270.0
 51
0.0
  0
ARC
  5
DA4
  8
0
 10
102.842335968548
 20
154.9447746479708
 30
0.0
 40
1.0
 50
359.9999999999996
 51
90.0
  0
LINE
  5
DA5
  8
1
 10
78.592335968548014
 20
159.7947746479708
 30
0.0
 11
92.092335968548014
 21
159.7947746479708
 31
0.0
1001
GENIUS_GENOREF_13
1005
0
  0
LINE
  5
DA6
  8
1
 10
85.34233596854807
 20
166.54477464797071
 30
0.0
 11
85.342335968547843
 21
153.0447746479708
 31
0.0
1001
GENIUS_GENOREF_13
1005
0
  0
CIRCLE
  5
DA7
  8
2
 10
85.342335968548014
 20
159.7947746479708
 30
0.0
 40
4.25
  0
CIRCLE
  5
DA8
  8
2
 10
110.342335968548
 20
159.7947746479708
 30
0.0
 40
4.25
  0
LINE
  5
DA9
  8
1
 10
103.592335968548
 20
159.7947746479708
 30
0.0
 11
117.092335968548
 21
159.7947746479708
 31
0.0
1001
GENIUS_GENOREF_13
1005
0
  0
LINE
  5
DAA
  8
1
 10
110.3423359685481
 20
166.54477464797071
 30
0.0
 11
110.3423359685479
 21
153.0447746479708
 31
0.0
1001
GENIUS_GENOREF_13
1005
0
  0
LINE
  5
DAB
  8
1
 10
85.342335968548127
 20
134.5447746479708
 30
0.0
 11
85.342335968547886
 21
121.0447746479708
 31
0.0
1001
GENIUS_GENOREF_13
1005
0
  0
LINE
  5
DAC
  8
1
 10
78.59233596854807
 20
127.7947746479708
 30
0.0
 11
92.092335968548056
 21
127.7947746479708
 31
0.0
1001
GENIUS_GENOREF_13
1005
0
  0
CIRCLE
  5
DAD
  8
2
 10
85.34233596854807
 20
127.7947746479708
 30
0.0
 40
4.25
  0
CIRCLE
  5
DAE
  8
2
 10
110.342335968548
 20
127.7947746479708
 30
0.0
 40
4.25
  0
LINE
  5
DAF
  8
1
 10
110.3423359685481
 20
134.5447746479708
 30
0.0
 11
110.3423359685479
 21
121.0447746479708
 31
0.0
1001
GENIUS_GENOREF_13
1005
0
  0
LINE
  5
DB0
  8
1
 10
103.592335968548
 20
127.7947746479708
 30
0.0
 11
117.092335968548
 21
127.7947746479708
 31
0.0
1001
GENIUS_GENOREF_13
1005
0
  0
LINE
  5
DB1
  8
0
 10
90.542113017180725
 20
118.7947746479708
 30
0.0
 11
90.542113017180668
 21
168.79477464797071
 31
0.0
  0
LINE
  5
DB2
  8
0
 10
105.1425589219475
 20
118.7947746479708
 30
0.0
 11
105.1425589219476
 21
168.79477464797071
 31
0.0
  0
LINE
  5
DB3
  8
0
 10
104.3230415747841
 20
132.4447746479708
 30
0.0
 11
104.323041574784
 21
142.89477464797071
 31
0.0
  0
LINE
  5
DB4
  8
0
 10
104.1405500020802
 20
118.7947746479707
 30
0.0
 11
104.1405500020802
 21
130.64477464797079
 31
0.0
  0
LINE
  5
DB5
  8
0
 10
91.544121937047976
 20
132.44477464797069
 30
0.0
 11
91.544121937048033
 21
142.89477464797079
 31
0.0
  0
LINE
  5
DB6
  8
0
 10
91.361630364344137
 20
119.7947746479708
 30
0.0
 11
91.361630364344137
 21
130.64477464797079
 31
0.0
  0
ARC
  5
DB7
  8
0
 10
103.1405500020802
 20
130.64477464797079
 30
0.0
 40
1.0
 50
0.0
 51
90.0
  0
ARC
  5
DB8
  8
0
 10
103.3230415747841
 20
132.4447746479708
 30
0.0
 40
1.0
 50
289.43959993611207
 51
0.0
  0
ARC
  5
DB9
  8
0
 10
103.323041574784
 20
142.89477464797071
 30
0.0
 40
1.0
 50
0.0000000000004071
 51
70.560400063884472
  0
LINE
  5
DBA
  8
0
 10
104.3230415747841
 20
156.9447746479708
 30
0.0
 11
104.3230415747841
 21
167.79477464797071
 31
0.0
  0
LINE
  5
DBB
  8
0
 10
104.1405500020802
 20
144.6947746479708
 30
0.0
 11
104.1405500020802
 21
155.14477464797071
 31
0.0
  0
ARC
  5
DBC
  8
0
 10
103.1405500020802
 20
144.6947746479708
 30
0.0
 40
1.0
 50
270.0
 51
0.0
  0
ARC
  5
DBD
  8
0
 10
103.1405500020802
 20
155.14477464797071
 30
0.0
 40
1.0
 50
0.0
 51
90.0
  0
ARC
  5
DBE
  8
0
 10
103.3230415747841
 20
156.9447746479708
 30
0.0
 40
1.0
 50
289.43959993610872
 51
0.0
  0
ARC
  5
DBF
  8
0
 10
103.3230415747841
 20
167.79477464797071
 30
0.0
 40
1.0
 50
0.0
 51
90.0
  0
ARC
  5
DC0
  8
0
 10
92.361630364344137
 20
119.7947746479708
 30
0.0
 40
1.0
 50
180.0
 51
270.0
  0
ARC
  5
DC1
  8
0
 10
92.544121937047976
 20
132.44477464797069
 30
0.0
 40
1.0
 50
180.0
 51
270.0
  0
ARC
  5
DC2
  8
0
 10
92.361630364344137
 20
130.64477464797079
 30
0.0
 40
1.0
 50
109.439599936119
 51
180.0
  0
ARC
  5
DC3
  8
0
 10
92.544121937048033
 20
142.89477464797079
 30
0.0
 40
1.0
 50
121.0178125574199
 51
180.0
  0
LINE
  5
DC4
  8
0
 10
91.361630364344194
 20
144.6947746479708
 30
0.0
 11
91.361630364344137
 21
155.14477464797071
 31
0.0
  0
LINE
  5
DC5
  8
0
 10
91.544121937048033
 20
156.9447746479708
 30
0.0
 11
91.544121937048033
 21
168.79477464797071
 31
0.0
  0
ARC
  5
DC6
  8
0
 10
92.361630364344194
 20
144.6947746479708
 30
0.0
 40
1.0
 50
180.0
 51
270.0
  0
ARC
  5
DC7
  8
0
 10
92.361630364344137
 20
155.14477464797071
 30
0.0
 40
1.0
 50
109.43959993610861
 51
180.0
  0
ARC
  5
DC8
  8
0
 10
92.544121937048033
 20
156.9447746479708
 30
0.0
 40
1.0
 50
180.0
 51
270.0
  0
LINE
  5
DC9
  8
1
 10
85.342335968548227
 20
62.29477452890174
 30
0.0
 11
85.342335968548227
 21
74.29477448053251
 31
0.0
  0
LINE
  5
DCA
  8
2
 10
76.592255979547403
 20
64.794774650077841
 30
0.0
 11
76.885355628618242
 21
71.507860296738215
 31
0.0
  0
LINE
  5
DCB
  8
0
 10
75.649867033215457
 20
71.838393817338925
 30
0.0
 11
75.342335968548241
 21
64.794774415092832
 31
0.0
  0
LINE
  5
DCC
  8
2
 10
77.185070095092954
 20
71.794774480532539
 30
0.0
 11
90.498452066238556
 21
71.79477448053251
 31
0.0
  0
LINE
  5
DCD
  8
0
 10
120.3423359685482
 20
64.794774648803951
 30
0.0
 11
120.0348049039661
 21
71.838394036092126
 31
0.0
  0
LINE
  5
DCE
  8
2
 10
119.0924159678391
 20
64.794774648594085
 30
0.0
 11
118.7993163117459
 21
71.507860464756973
 31
0.0
  0
LINE
  5
DCF
  8
0
 10
99.758667146090957
 20
64.794774646150927
 30
0.0
 11
120.3423359685482
 21
64.794774648803951
 31
0.0
  0
LINE
  5
DD0
  8
0
 10
96.922199491554409
 20
65.707618906790429
 30
0.0
 11
97.022239843179037
 21
66.851085360710925
 31
0.0
  0
LINE
  5
DD1
  8
2
 10
118.49960184527809
 20
71.794774648568165
 30
0.0
 11
105.18621986350659
 21
71.794774648907463
 31
0.0
  0
LINE
  5
DD2
  8
0
 10
90.192825468090845
 20
64.794774647143925
 30
0.0
 11
90.542113014565743
 21
72.79477458807861
 31
0.0
  0
LINE
  5
DD3
  8
0
 10
192.6923358735479
 20
73.030070104827871
 30
0.0
 11
192.6923358735479
 21
77.794774648803951
 31
0.0
  0
LINE
  5
DD4
  8
0
 10
180.24233606354801
 20
73.030070104828013
 30
0.0
 11
180.2423360635479
 21
77.794774648803951
 31
0.0
  0
LINE
  5
DD5
  8
0
 10
180.4423358735479
 20
77.794774648803951
 30
0.0
 11
180.4423358735479
 21
72.802832113307176
 31
0.0
  0
LINE
  5
DD6
  8
0
 10
192.49233558754739
 20
77.794774648803923
 30
0.0
 11
192.4923355875475
 21
72.802831981114707
 31
0.0
  0
LINE
  5
DD7
  8
0
 10
192.6923363495479
 20
76.794775016804152
 30
0.0
 11
192.4923355875475
 21
76.794775016804152
 31
0.0
  0
LINE
  5
DD8
  8
0
 10
180.4423358735479
 20
76.794775016804152
 30
0.0
 11
180.2423360635479
 21
76.794775016804152
 31
0.0
  0
LINE
  5
DD9
  8
0
 10
168.1923363495479
 20
73.030070104828042
 30
0.0
 11
168.19233634954779
 21
77.79477464880398
 31
0.0
  0
LINE
  5
DDA
  8
0
 10
167.9923360635479
 20
77.794774648803951
 30
0.0
 11
167.9923360635479
 21
72.802831981114792
 31
0.0
  0
LINE
  5
DDB
  8
0
 10
168.1923363495479
 20
76.794775016804152
 30
0.0
 11
167.9923355875475
 21
76.794775016804152
 31
0.0
  0
LINE
  5
DDC
  8
1
 10
180.34233596854739
 20
83.794774648803951
 30
0.0
 11
180.34233596854739
 21
59.794774648803951
 31
0.0
  0
ARC
  5
DDD
  8
0
 10
97.84233596956426
 20
72.794774647970826
 30
0.0
 40
6.0
 50
262.1440671616682
 51
175.58827466127931
  0
CIRCLE
  5
DDE
  8
0
 10
97.84233596956426
 20
72.794774647970826
 30
0.0
 40
4.0
  0
LINE
  5
DDF
  8
0
 10
95.926004804827144
 20
64.794774649351695
 30
0.0
 11
75.342335968548241
 21
64.794774415092832
 31
0.0
  0
LINE
  5
DE0
  8
2
 10
87.592335968548184
 20
64.794774554510383
 30
0.0
 11
87.592335968548255
 21
69.794774649700059
 31
0.0
  0
LINE
  5
DE1
  8
2
 10
83.092335968548241
 20
64.794774503293127
 30
0.0
 11
83.092335968548184
 21
69.794774649700145
 31
0.0
  0
LINE
  5
DE2
  8
2
 10
87.592335965698126
 20
69.794774480532539
 30
0.0
 11
89.592335965698112
 21
71.794774480532539
 31
0.0
  0
LINE
  5
DE3
  8
1
 10
110.3423359685482
 20
62.29477452890174
 30
0.0
 11
110.3423359685482
 21
74.294774480532453
 31
0.0
  0
LINE
  5
DE4
  8
1
 10
86.84233596956426
 20
72.794774647970826
 30
0.0
 11
108.8423359695642
 21
72.794774647970826
 31
0.0
  0
LINE
  5
DE5
  8
1
 10
97.84233596956426
 20
61.794774647970819
 30
0.0
 11
97.84233596956426
 21
83.794774647970826
 31
0.0
  0
LINE
  5
DE6
  8
2
 10
83.092335965698155
 20
69.794774480532624
 30
0.0
 11
81.092335965698226
 21
71.794774480532539
 31
0.0
  0
LINE
  5
DE7
  8
2
 10
87.592335965698126
 20
69.794774480532539
 30
0.0
 11
83.092335965698155
 21
69.794774480532624
 31
0.0
  0
LINE
  5
DE8
  8
2
 10
112.5923359685159
 20
69.794774649699605
 30
0.0
 11
108.0923359685159
 21
69.79477464969969
 31
0.0
  0
LINE
  5
DE9
  8
2
 10
112.5923359685159
 20
69.794774649699605
 30
0.0
 11
114.5923359685159
 21
71.794774649699605
 31
0.0
  0
LINE
  5
DEA
  8
2
 10
112.5923359685482
 20
64.794774554510383
 30
0.0
 11
112.5923359685482
 21
69.794774649699576
 31
0.0
  0
LINE
  5
DEB
  8
2
 10
108.0923359685482
 20
64.794774503293127
 30
0.0
 11
108.0923359685481
 21
69.794774649699661
 31
0.0
  0
LINE
  5
DEC
  8
2
 10
108.0923359685159
 20
69.79477464969969
 30
0.0
 11
106.092335968516
 21
71.794774649699605
 31
0.0
  0
ARC
  5
DED
  8
2
 10
77.185070095092954
 20
71.494774480532527
 30
0.0
 40
0.3
 50
90.0
 51
177.50000000074959
  0
ARC
  5
DEE
  8
2
 10
118.4996018452705
 20
71.494774648568153
 30
0.0
 40
0.3
 50
2.499999996027896
 51
89.999999998540915
  0
LINE
  5
DEF
  8
0
 10
91.361595272945522
 20
72.794774597404967
 30
0.0
 11
76.64891524341607
 21
72.794774429962757
 31
0.0
  0
LINE
  5
DF0
  8
0
 10
104.1405500020802
 20
72.794774646715695
 30
0.0
 11
119.0357566822594
 21
72.794774648635553
 31
0.0
  0
ARC
  5
DF1
  8
0
 10
76.648915254796862
 20
71.794774429962757
 30
0.0
 40
1.0
 50
90.000000652071321
 51
177.49999999937879
  0
ARC
  5
DF2
  8
0
 10
91.361595267255154
 20
73.294774597404967
 30
0.0
 40
0.5
 50
270.00000065206808
 51
355.58827466127798
  0
ARC
  5
DF3
  8
0
 10
119.0357566823882
 20
71.794774648635553
 30
0.0
 40
1.0
 50
2.5000000052316631
 51
90.000000007383363
  0
ARC
  5
DF4
  8
0
 10
104.3230766680671
 20
73.294774646739285
 30
0.0
 40
0.5
 50
184.41172577488391
 51
270.00000000738657
  0
ARC
  5
DF5
  8
0
 10
97.84233596956426
 20
72.794774647970826
 30
0.0
 40
6.1500000000000004
 50
277.78622029160658
 51
358.63568583791618
  0
ARC
  5
DF6
  8
0
 10
104.1405500020996
 20
72.644774646715746
 30
0.0
 40
0.15
 50
90.000000007402889
 51
178.6356858379207
  0
LINE
  5
DF7
  8
0
 10
105.4918464710376
 20
64.794774647143925
 30
0.0
 11
105.14255892456271
 21
72.79477458807861
 31
0.0
  0
LINE
  5
DF8
  8
0
 10
205.34233596854801
 20
64.794774648803951
 30
0.0
 11
155.3423359685479
 21
64.794774648803951
 31
0.0
  0
LINE
  5
DF9
  8
0
 10
155.34233596854779
 20
77.794774648803951
 30
0.0
 11
155.3423359685479
 21
64.794774648803951
 31
0.0
  0
LINE
  5
DFA
  8
0
 10
205.34233596854691
 20
77.794774648804065
 30
0.0
 11
205.34233596854801
 21
64.794774648803951
 31
0.0
  0
LINE
  5
DFB
  8
0
 10
156.34233596855421
 20
72.794775016804238
 30
0.0
 11
204.34233596855361
 21
72.794775016503706
 31
0.0
  0
ARC
  5
DFC
  8
0
 10
156.3423359685479
 20
71.794775016804223
 30
0.0
 40
1.0
 50
89.999999999641744
 51
180.0000000000004
  0
ARC
  5
DFD
  8
0
 10
204.34233596854739
 20
71.794775016503706
 30
0.0
 40
1.0
 50
0.000000000003664
 51
89.999999999641744
  0
LINE
  5
DFE
  8
0
 10
204.34233596854691
 20
78.79477464880398
 30
0.0
 11
193.6923358735479
 21
78.794774648803951
 31
0.0
  0
ARC
  5
DFF
  8
0
 10
156.34233596854779
 20
77.794774648803951
 30
0.0
 40
1.0
 50
90.0
 51
180.0000000000004
  0
ARC
  5
E00
  8
0
 10
204.34233596854691
 20
77.79477464880398
 30
0.0
 40
1.0
 50
0.0000000000048853
 51
90.0
  0
ARC
  5
E01
  8
0
 10
193.6923358735479
 20
77.794774648803951
 30
0.0
 40
1.0
 50
90.0
 51
180.0
  0
LINE
  5
E02
  8
0
 10
156.34233596854779
 20
78.794774648803951
 30
0.0
 11
166.9923360635479
 21
78.794774648803951
 31
0.0
  0
LINE
  5
E03
  8
0
 10
191.49233558754739
 20
78.794774648803923
 30
0.0
 11
181.4423358735479
 21
78.794774648803951
 31
0.0
  0
ARC
  5
E04
  8
0
 10
166.9923360635479
 20
77.794774648803951
 30
0.0
 40
1.0
 50
0.0
 51
90.0
  0
ARC
  5
E05
  8
0
 10
191.49233558754739
 20
77.794774648803923
 30
0.0
 40
1.0
 50
0.0
 51
90.0
  0
ARC
  5
E06
  8
0
 10
181.4423358735479
 20
77.794774648803951
 30
0.0
 40
1.0
 50
90.0
 51
180.0
  0
LINE
  5
E07
  8
0
 10
169.19233634954779
 20
78.79477464880398
 30
0.0
 11
179.2423360635479
 21
78.794774648803951
 31
0.0
  0
ARC
  5
E08
  8
0
 10
169.19233634954779
 20
77.79477464880398
 30
0.0
 40
1.0
 50
90.0
 51
180.0
  0
ARC
  5
E09
  8
0
 10
179.2423360635479
 20
77.794774648803951
 30
0.0
 40
1.0
 50
0.0
 51
90.0
  0
ARC
  5
E0A
  8
0
 10
167.9182251640562
 20
73.069692311316231
 30
0.0
 40
0.2769600354901208
 50
276.96310611106952
 51
351.7749823152069
  0
ARC
  5
E0B
  8
0
 10
192.4182246880562
 20
73.06969231131626
 30
0.0
 40
0.2769600354901208
 50
276.96310611106952
 51
351.7749823152069
  0
ARC
  5
E0C
  8
0
 10
180.51644724903969
 20
73.069692311316174
 30
0.0
 40
0.2769600354901208
 50
188.22501768479299
 51
263.03689388893048
  0
LINE
  5
E0D
  8
2
 10
155.3423359685479
 20
71.794774648568165
 30
0.0
 11
205.34233596854739
 21
71.794774648568136
 31
0.0
  0
LINE
  5
E0E
  8
2
 10
198.59233596854739
 20
64.794774554510354
 30
0.0
 11
198.59233596854739
 21
69.794774649699548
 31
0.0
  0
LINE
  5
E0F
  8
2
 10
198.5923359685151
 20
69.794774649699576
 30
0.0
 11
200.59233596851519
 21
71.794774649699576
 31
0.0
  0
LINE
  5
E10
  8
2
 10
198.5923359685151
 20
69.794774649699576
 30
0.0
 11
194.09233596851519
 21
69.794774649699661
 31
0.0
  0
LINE
  5
E11
  8
1
 10
196.3423359685475
 20
62.294774528901712
 30
0.0
 11
196.3423359685475
 21
74.294774480532425
 31
0.0
  0
LINE
  5
E12
  8
2
 10
194.0923359685475
 20
64.794774503293084
 30
0.0
 11
194.09233596854739
 21
69.794774649699633
 31
0.0
  0
LINE
  5
E13
  8
2
 10
194.09233596851519
 20
69.794774649699661
 30
0.0
 11
192.09233596851519
 21
71.794774649699576
 31
0.0
  0
LINE
  5
E14
  8
2
 10
162.09233596851519
 20
69.794774649699661
 30
0.0
 11
160.09233596851519
 21
71.794774649699576
 31
0.0
  0
LINE
  5
E15
  8
2
 10
162.0923359685475
 20
64.794774503293084
 30
0.0
 11
162.09233596854739
 21
69.794774649699633
 31
0.0
  0
LINE
  5
E16
  8
2
 10
166.59233596854739
 20
64.794774554510354
 30
0.0
 11
166.59233596854739
 21
69.794774649699548
 31
0.0
  0
LINE
  5
E17
  8
2
 10
166.5923359685151
 20
69.794774649699576
 30
0.0
 11
168.5923359685151
 21
71.794774649699576
 31
0.0
  0
LINE
  5
E18
  8
2
 10
166.5923359685151
 20
69.794774649699576
 30
0.0
 11
162.09233596851519
 21
69.794774649699661
 31
0.0
  0
LINE
  5
E19
  8
1
 10
164.3423359685475
 20
62.294774528901712
 30
0.0
 11
164.3423359685475
 21
74.294774480532425
 31
0.0
  0
ARC
  5
E1A
  8
0
 10
95.926004793446339
 20
65.794774649351695
 30
0.0
 40
1.0
 50
270.00000065207132
 51
355.00000001072038
  0
LINE
  5
E1B
  8
0
 10
98.762472447854009
 20
65.707618903589747
 30
0.0
 11
98.662432095949498
 21
66.851085360710925
 31
0.0
  0
ARC
  5
E1C
  8
0
 10
99.758667145962065
 20
65.794774646150927
 30
0.0
 40
1.0
 50
184.9999999892743
 51
270.00000000738339
  0
TEXT
  5
113C
  8
0
 62
     3
 10
0.0
 20
0.0
 30
0.0
 40
10.0
  1
EFHC4550SHP
  7
STANDARD1
  0
ENDSEC
  0
EOF
