  0
SECTION
  2
HEADER
  9
$ACADVER
  1
AC1009
  9
$INSBASE
 10
0.0
 20
0.0
 30
0.0
  9
$EXTMIN
 10
0.0
 20
-2.960436562073669
 30
0.0
  9
$EXTMAX
 10
181.0
 20
188.0000001043081
 30
0.0
  9
$LIMMIN
 10
0.0
 20
0.0
  9
$LIMMAX
 10
375.0
 20
278.0
  9
$ORTHOMODE
 70
     1
  9
$REGENMODE
 70
     1
  9
$FILLMODE
 70
     1
  9
$QTEXTMODE
 70
     0
  9
$MIRRTEXT
 70
     0
  9
$DRAGMODE
 70
     2
  9
$LTSCALE
 40
5.0
  9
$OSMODE
 70
    37
  9
$ATTMODE
 70
     1
  9
$TEXTSIZE
 40
0.2
  9
$TRACEWID
 40
0.05
  9
$TEXTSTYLE
  7
STANDARD
  9
$CLAYER
  8
0
  9
$CELTYPE
  6
BYLAYER
  9
$CECOLOR
 62
   256
  9
$DIMSCALE
 40
1.0
  9
$DIMASZ
 40
3.0
  9
$DIMEXO
 40
1.0
  9
$DIMDLI
 40
6.0
  9
$DIMRND
 40
0.0
  9
$DIMDLE
 40
0.0
  9
$DIMEXE
 40
1.0
  9
$DIMTP
 40
495.0
  9
$DIMTM
 40
0.0
  9
$DIMTXT
 40
3.0
  9
$DIMCEN
 40
0.0
  9
$DIMTSZ
 40
0.0
  9
$DIMTOL
 70
     0
  9
$DIMLIM
 70
     0
  9
$DIMTIH
 70
     0
  9
$DIMTOH
 70
     0
  9
$DIMSE1
 70
     0
  9
$DIMSE2
 70
     0
  9
$DIMTAD
 70
     1
  9
$DIMZIN
 70
     0
  9
$DIMBLK
  1

  9
$DIMASO
 70
     1
  9
$DIMSHO
 70
     0
  9
$DIMPOST
  1

  9
$DIMAPOST
  1

  9
$DIMALT
 70
     0
  9
$DIMALTD
 70
     2
  9
$DIMALTF
 40
25.399999999999999
  9
$DIMLFAC
 40
1.0
  9
$DIMTOFL
 70
     1
  9
$DIMTVP
 40
0.0
  9
$DIMTIX
 70
     1
  9
$DIMSOXD
 70
     0
  9
$DIMSAH
 70
     0
  9
$DIMBLK1
  1

  9
$DIMBLK2
  1

  9
$DIMSTYLE
  2
STANDARD
  9
$DIMCLRD
 70
     0
  9
$DIMCLRE
 70
     0
  9
$DIMCLRT
 70
     4
  9
$DIMTFAC
 40
1.0
  9
$DIMGAP
 40
1.0
  9
$LUNITS
 70
     2
  9
$LUPREC
 70
     4
  9
$SKETCHINC
 40
0.1
  9
$FILLETRAD
 40
0.0
  9
$AUNITS
 70
     0
  9
$AUPREC
 70
     0
  9
$MENU
  1
C:\R13\WIN\SUPPORT\ACAD-I
  9
$ELEVATION
 40
0.0
  9
$PELEVATION
 40
0.0
  9
$THICKNESS
 40
0.0
  9
$LIMCHECK
 70
     0
  9
$BLIPMODE
 70
     0
  9
$CHAMFERA
 40
0.0
  9
$CHAMFERB
 40
0.0
  9
$SKPOLY
 70
     0
  9
$TDCREATE
 40
2450834.4199027321
  9
$TDUPDATE
 40
2456806.4329900811
  9
$TDINDWG
 40
0.4019548727
  9
$TDUSRTIMER
 40
2456693.4883171879
  9
$USRTIMER
 70
     1
  9
$ANGBASE
 50
0.0
  9
$ANGDIR
 70
     0
  9
$PDMODE
 70
     0
  9
$PDSIZE
 40
0.0
  9
$PLINEWID
 40
0.0
  9
$COORDS
 70
     1
  9
$SPLFRAME
 70
     0
  9
$SPLINETYPE
 70
     6
  9
$SPLINESEGS
 70
     8
  9
$ATTDIA
 70
     0
  9
$ATTREQ
 70
     1
  9
$HANDLING
 70
     1
  9
$HANDSEED
  5
11A71
  9
$SURFTAB1
 70
     6
  9
$SURFTAB2
 70
     6
  9
$SURFTYPE
 70
     6
  9
$SURFU
 70
     6
  9
$SURFV
 70
     6
  9
$UCSNAME
  2

  9
$UCSORG
 10
0.0
 20
0.0
 30
0.0
  9
$UCSXDIR
 10
1.0
 20
0.0
 30
0.0
  9
$UCSYDIR
 10
0.0
 20
1.0
 30
0.0
  9
$PUCSNAME
  2

  9
$PUCSORG
 10
0.0
 20
0.0
 30
0.0
  9
$PUCSXDIR
 10
1.0
 20
0.0
 30
0.0
  9
$PUCSYDIR
 10
0.0
 20
1.0
 30
0.0
  9
$USERI1
 70
     4
  9
$USERI2
 70
     1
  9
$USERI3
 70
     1
  9
$USERI4
 70
     0
  9
$USERI5
 70
     0
  9
$USERR1
 40
1.0
  9
$USERR2
 40
3.0
  9
$USERR3
 40
3.0
  9
$USERR4
 40
3.0
  9
$USERR5
 40
10.0
  9
$WORLDVIEW
 70
     1
  9
$SHADEDGE
 70
     3
  9
$SHADEDIF
 70
    70
  9
$TILEMODE
 70
     1
  9
$MAXACTVP
 70
    16
  9
$PLIMCHECK
 70
     0
  9
$PEXTMIN
 10
1.0000000000000000E+020
 20
1.0000000000000000E+020
 30
1.0000000000000000E+020
  9
$PEXTMAX
 10
-1.0000000000000000E+020
 20
-1.0000000000000000E+020
 30
-1.0000000000000000E+020
  9
$PLIMMIN
 10
0.0
 20
0.0
  9
$PLIMMAX
 10
0.0
 20
0.0
  9
$UNITMODE
 70
     0
  9
$VISRETAIN
 70
     0
  9
$PLINEGEN
 70
     0
  9
$PSLTSCALE
 70
     0
  0
ENDSEC
  0
SECTION
  2
TABLES
  0
TABLE
  2
VPORT
 70
     1
  0
VPORT
  2
*ACTIVE
 70
     0
 10
0.0
 20
0.0
 11
1.0
 21
1.0
 12
287.573387356941
 22
137.51591254602749
 13
0.0
 23
0.0
 14
10.0
 24
10.0
 15
10.0
 25
10.0
 16
0.0
 26
0.0
 36
1.0
 17
0.0
 27
0.0
 37
0.0
 40
283.44003568426109
 41
2.6019575856443709
 42
50.0
 43
0.0
 44
0.0
 50
0.0
 51
0.0
 71
    16
 72
   100
 73
     1
 74
     0
 75
     0
 76
     0
 77
     0
 78
     0
  0
ENDTAB
  0
TABLE
  2
LTYPE
 70
     4
  0
LTYPE
  2
CONTINUOUS
 70
     0
  3
Solid Line
 72
    65
 73
     0
 40
0.0
  0
LTYPE
  2
CENTER
 70
     0
  3
____ _ ____ _ ____ _ ____ _ ____ _ ____ _ ____
 72
    65
 73
     4
 40
2.0
 49
1.25
 49
-0.25
 49
0.25
 49
-0.25
  0
LTYPE
  2
HIDDEN
 70
     0
  3
__ __ __ __ __ __ __ __ __ __ __ __ __ __ __ __
 72
    65
 73
     2
 40
0.375
 49
0.25
 49
-0.125
  0
LTYPE
  2
PHANTOM2
 70
     0
  3
___ _ _ ___ _ _ ___ _ _ ___ _ _
 72
    65
 73
     6
 40
1.25
 49
0.625
 49
-0.125
 49
0.125
 49
-0.125
 49
0.125
 49
-0.125
  0
ENDTAB
  0
TABLE
  2
LAYER
 70
     4
  0
LAYER
  2
0
 70
     0
 62
     7
  6
CONTINUOUS
  0
LAYER
  2
1
 70
     0
 62
     1
  6
CENTER
  0
LAYER
  2
2
 70
     0
 62
     2
  6
HIDDEN
  0
LAYER
  2
DEFPOINTS
 70
     0
 62
     7
  6
CONTINUOUS
  0
ENDTAB
  0
TABLE
  2
STYLE
 70
     2
  0
STYLE
  2
STANDARD
 70
     0
 40
0.0
 41
1.0
 50
0.0
 71
     0
 42
0.2
  3
SIMPLEX
  4
BIGFONT
  0
STYLE
  2
STANDARD1
 70
     0
 40
0.0
 41
1.0
 50
0.0
 71
     0
 42
3.0
  3
txt
  4

  0
ENDTAB
  0
TABLE
  2
VIEW
 70
     0
  0
ENDTAB
  0
TABLE
  2
UCS
 70
     0
  0
ENDTAB
  0
TABLE
  2
APPID
 70
    40
  0
APPID
  2
ACAD
 70
     0
  0
APPID
  2
GENIUS_GENOBJ_13
 70
     0
  0
APPID
  2
GENIUS_GENODEF_13
 70
     0
  0
APPID
  2
GENIUS_GENOENT_13
 70
     0
  0
APPID
  2
GENIUS_GENOLIS_13
 70
     0
  0
APPID
  2
GENIUS_GENOREF_13
 70
     0
  0
APPID
  2
GENIUS_GENOBJ-N-TIT_13
 70
     0
  0
APPID
  2
GENIUS_GENTITLE_13
 70
     0
  0
APPID
  2
GENIUS_GENZVEED_13
 70
     0
  0
APPID
  2
GENIUS_GENOBJ-N-FIL_13
 70
     0
  0
APPID
  2
GENIUS_GENOBJ-N-CRS_13
 70
     0
  0
APPID
  2
GENIUS_GEFINERT_13
 70
     0
  0
APPID
  2
GENIUS_GENOBJ-F-INER_13
 70
     0
  0
APPID
  2
GENIUS_GENOBJ-N-ZOO_13
 70
     0
  0
APPID
  2
GENIUS_GENZOO_13
 70
     0
  0
APPID
  2
GENIUS_GENOBJ-F-TOL_13
 70
     0
  0
APPID
  2
GENIUS_GENOBJ-N-RSSYM_13
 70
     0
  0
APPID
  2
GENIUS_GENSYMENT_13
 70
     0
  0
APPID
  2
GENIUS_GENBH_13
 70
     0
  0
APPID
  2
GENIUS_GENOBJ-NBEHI-BHF_13
 70
     0
  0
APPID
  2
GENIUS_GENOBJ-NBEHI-BHB_13
 70
     0
  0
APPID
  2
GENIUS_GENOBJ-F-PART_13
 70
     0
  0
APPID
  2
GENIUS_GEFSTDP_13
 70
     0
  0
APPID
  2
GENIUS_GENOBJ-N-LEADER_13
 70
     0
  0
APPID
  2
GENIUS_GENOBJ-N-REV_13
 70
     0
  0
APPID
  2
GENIUS_GENCFG_13
 70
     0
  0
APPID
  2
GENIUS_GENCFG0_13
 70
     0
  0
APPID
  2
GENIUS_GENCFG1_13
 70
     0
  0
APPID
  2
GENIUS_GENCFG2_13
 70
     0
  0
APPID
  2
GENIUS_GENCFG3_13
 70
     0
  0
APPID
  2
GENIUS_GEVCFG0_13
 70
     0
  0
APPID
  2
GENIUS_GENCFG4_13
 70
     0
  0
APPID
  2
GENIUS_GENOBJ-N-REC_13
 70
     0
  0
APPID
  2
GENIUS_GENFIL_13
 70
     0
  0
APPID
  2
GENIUS_GENOBJ-N-CHA_13
 70
     0
  0
APPID
  2
GENIUS_GENREC_13
 70
     0
  0
APPID
  2
ACAD_EXEMPT_FROM_CAD_STAND
 70
     0
  0
APPID
  2
ACAD_MLEADERVER
 70
     0
  0
APPID
  2
ACAD_NAV_VCDISPLAY
 70
     0
  0
APPID
  2
ACAD_EXEMPT_FROM_CAD_STANDARDS
 70
     0
  0
ENDTAB
  0
TABLE
  2
DIMSTYLE
 70
     1
  0
DIMSTYLE
  2
STANDARD
 70
     0
  3

  4

  5

  6

  7

 40
1.0
 41
0.18
 42
0.0625
 43
0.38
 44
0.18
 45
0.0
 46
0.0
 47
0.0
 48
0.0
140
0.18
141
0.09
142
0.0
143
25.399999999999999
144
1.0
145
0.0
146
1.0
147
0.09
 71
     0
 72
     0
 73
     1
 74
     1
 75
     0
 76
     0
 77
     0
 78
     0
170
     0
171
     2
172
     0
173
     0
174
     0
175
     0
176
     0
177
     0
178
     0
  0
ENDTAB
  0
ENDSEC
  0
SECTION
  2
BLOCKS
  0
BLOCK
  8
0
  2
$MODEL_SPACE
 70
     0
 10
0.0
 20
0.0
 30
0.0
  3
$MODEL_SPACE
  1

  0
ENDBLK
  5
104BC
  8
0
  0
BLOCK
 67
     1
  8
0
  2
$PAPER_SPACE
 70
     0
 10
0.0
 20
0.0
 30
0.0
  3
$PAPER_SPACE
  1

  0
ENDBLK
  5
104BA
 67
     1
  8
0
  0
ENDSEC
  0
SECTION
  2
ENTITIES
  0
TEXT
  5
107A1
  8
0
 62
     3
 10
0.0
 20
0.0
 30
0.0
 40
10.0
  1
EFH7060HH
  7
STANDARD1
  0
LINE
  5
1135F
  8
2
 10
55.25
 20
185.0000001043081
 30
0.0
 11
55.25
 21
179.0000001043081
 31
0.0
  0
LINE
  5
11360
  8
2
 10
48.75
 20
179.0000001043081
 30
0.0
 11
48.75
 21
185.0000001043081
 31
0.0
  0
LINE
  5
11363
  8
2
 10
58.000000000000057
 20
176.2500001043081
 30
0.0
 11
58.0
 21
170.0000001043081
 31
0.0
  0
LINE
  5
11364
  8
2
 10
46.0
 20
170.0000001043081
 30
0.0
 11
46.0
 21
176.2500001043081
 31
0.0
  0
LINE
  5
11366
  8
2
 10
46.0
 20
176.2500001043081
 30
0.0
 11
58.0
 21
176.2500001043081
 31
0.0
  0
LINE
  5
11367
  8
2
 10
48.75
 20
179.0000001043081
 30
0.0
 11
55.25
 21
179.0000001043081
 31
0.0
  0
LINE
  5
11368
  8
2
 10
55.25
 20
179.0000001043081
 30
0.0
 11
58.0
 21
176.2500001043081
 31
0.0
  0
LINE
  5
11369
  8
2
 10
46.0
 20
176.2500001043081
 30
0.0
 11
48.75
 21
179.0000001043081
 31
0.0
  0
LINE
  5
1136F
  8
2
 10
97.250000000000014
 20
185.0000001043081
 30
0.0
 11
97.250000000000014
 21
179.0000001043081
 31
0.0
  0
LINE
  5
11370
  8
2
 10
90.750000000000014
 20
179.0000001043081
 30
0.0
 11
90.750000000000014
 21
185.0000001043081
 31
0.0
  0
LINE
  5
11373
  8
2
 10
88.0
 20
170.0000001043081
 30
0.0
 11
88.0
 21
176.2500001043081
 31
0.0
  0
LINE
  5
11374
  8
2
 10
100.0
 20
176.2500001043081
 30
0.0
 11
100.0
 21
170.0000001043081
 31
0.0
  0
LINE
  5
11376
  8
2
 10
88.0
 20
176.2500001043081
 30
0.0
 11
100.0
 21
176.2500001043081
 31
0.0
  0
LINE
  5
11377
  8
2
 10
90.750000000000014
 20
179.0000001043081
 30
0.0
 11
97.250000000000014
 21
179.0000001043081
 31
0.0
  0
LINE
  5
11378
  8
2
 10
97.250000000000014
 20
179.0000001043081
 30
0.0
 11
100.0
 21
176.2500001043081
 31
0.0
  0
LINE
  5
11379
  8
2
 10
88.0
 20
176.2500001043081
 30
0.0
 11
90.750000000000014
 21
179.0000001043081
 31
0.0
  0
LINE
  5
1137A
  8
1
 10
52.0
 20
167.0000001043081
 30
0.0
 11
52.0
 21
188.0000001043081
 31
0.0
  0
LINE
  5
1137B
  8
1
 10
64.75
 20
170.0000001043081
 30
0.0
 11
81.25
 21
170.0000001043081
 31
0.0
  0
LINE
  5
1137C
  8
1
 10
73.0
 20
178.2500001043081
 30
0.0
 11
73.0
 21
161.7500001043081
 31
0.0
  0
LINE
  5
1137D
  8
1
 10
94.0
 20
188.0000001043081
 30
0.0
 11
94.0
 21
167.0000001043081
 31
0.0
  0
ARC
  5
1137E
  8
0
 10
72.105728266506162
 20
183.70000010430809
 30
0.0
 40
1.3
 50
46.535790035379442
 51
90.0
  0
LINE
  5
1137F
  8
0
 10
82.943694934639325
 20
169.29215958245351
 30
0.0
 11
82.847494554689675
 21
166.53734113630071
 31
0.0
  0
ARC
  5
11380
  8
0
 10
80.848712900651435
 20
166.60714012970581
 30
0.0
 40
2.0000000000000342
 50
314.99999999999977
 51
357.99999999999642
  0
LINE
  5
11381
  8
0
 10
82.262926463024542
 20
165.19292656733271
 30
0.0
 11
82.234213562373043
 21
165.16421366668121
 31
0.0
  0
ARC
  5
11382
  8
0
 10
61.92999999999995
 20
168.7500001043081
 30
0.0
 40
1.249999999999992
 50
25.70435558107625
 51
90.0
  0
ARC
  5
11383
  8
0
 10
63.019999999999982
 20
187.08000010430811
 30
0.0
 40
8.9800000000000004
 50
298.5085354214163
 51
346.60718962539607
  0
ARC
  5
11384
  8
0
 10
73.0
 20
170.00000010430799
 30
0.0
 40
10.810000000000031
 50
121.784700818807
 51
176.2801006071947
  0
ARC
  5
11385
  8
0
 10
61.464355241253308
 20
170.7500001043081
 30
0.0
 40
0.7499999999999987
 50
270.0
 51
356.28009849869198
  0
LINE
  5
11386
  8
0
 10
44.0
 20
170.0000001043081
 30
0.0
 11
61.92999999999995
 21
170.0000001043081
 31
0.0
  0
POLYLINE
  5
11388
  8
0
 66
     1
 10
0.0
 20
0.0
 30
0.0
  0
VERTEX
  5
119E9
  8
0
 10
43.0
 20
171.0000001043081
 30
0.0
  0
VERTEX
  5
119EA
  8
0
 10
43.000017500038318
 20
170.9940840439358
 30
0.0
  0
VERTEX
  5
119EB
  8
0
 10
43.025260673406017
 20
170.77663494421341
 30
0.0
  0
VERTEX
  5
119EC
  8
0
 10
43.098686461269601
 20
170.56683280994989
 30
0.0
  0
VERTEX
  5
119ED
  8
0
 10
43.225449621356013
 20
170.36739346852349
 30
0.0
  0
VERTEX
  5
119EE
  8
0
 10
43.405442403617933
 20
170.19594708081749
 30
0.0
  0
VERTEX
  5
119EF
  8
0
 10
43.527231235300853
 20
170.1187921038586
 30
0.0
  0
VERTEX
  5
119F0
  8
0
 10
43.665623188282431
 20
170.05756063793081
 30
0.0
  0
VERTEX
  5
119F1
  8
0
 10
43.824419451269357
 20
170.01548540761189
 30
0.0
  0
VERTEX
  5
119F2
  8
0
 10
44.0
 20
170.0000001043081
 30
0.0
  0
SEQEND
  5
119F3
  8
0
  0
LINE
  5
11389
  8
0
 10
43.0
 20
171.0000001043081
 30
0.0
 11
43.0
 21
185.0000001043081
 31
0.0
  0
LINE
  5
1138A
  8
0
 10
72.105728266506162
 20
185.0000001043081
 30
0.0
 11
43.0
 21
185.0000001043081
 31
0.0
  0
CIRCLE
  5
1138B
  8
0
 10
73.0
 20
170.0000001043081
 30
0.0
 40
6.75
  0
LINE
  5
1138C
  8
0
 10
73.894271733493838
 20
185.0000001043081
 30
0.0
 11
103.0
 21
185.0000001043081
 31
0.0
  0
LINE
  5
1138D
  8
0
 10
102.0
 20
170.0000001043081
 30
0.0
 11
84.07000000000005
 21
170.0000001043081
 31
0.0
  0
ARC
  5
1138E
  8
0
 10
84.07000000000005
 20
168.7500001043081
 30
0.0
 40
1.249999999999996
 50
90.0
 51
180.0
  0
LINE
  5
1138F
  8
0
 10
82.82000000000005
 20
168.7500001043081
 30
0.0
 11
82.82000000000005
 21
166.57842722905431
 31
0.0
  0
ARC
  5
11390
  8
0
 10
80.820000000000064
 20
166.57842722905431
 30
0.0
 40
2.0
 50
314.99999999999977
 51
0.0
  0
LINE
  5
11391
  8
0
 10
82.234213562373156
 20
165.16421366668121
 30
0.0
 11
77.655786437626944
 21
160.58578654193499
 31
0.0
  0
ARC
  5
11392
  8
0
 10
76.241572875253837
 20
162.0000001043081
 30
0.0
 40
1.9999999999999989
 50
270.0
 51
314.99999999999977
  0
LINE
  5
11393
  8
0
 10
76.241572875253837
 20
160.0000001043081
 30
0.0
 11
69.758427124746163
 21
160.0000001043081
 31
0.0
  0
ARC
  5
11394
  8
0
 10
69.758427124746163
 20
162.0000001043081
 30
0.0
 40
1.9999999999999529
 50
225.00000000000031
 51
270.0
  0
LINE
  5
11395
  8
0
 10
68.344213562373056
 20
160.58578654193499
 30
0.0
 11
63.737073536975458
 21
165.19292656733259
 31
0.0
  0
ARC
  5
11396
  8
0
 10
65.151287099348565
 20
166.6071401297057
 30
0.0
 40
2.00000000000002
 50
182.0000000000004
 51
225.00000000000031
  0
LINE
  5
11397
  8
0
 10
63.152505445310339
 20
166.53734113630071
 30
0.0
 11
62.932729348632961
 21
172.83090510628739
 31
0.0
  0
ARC
  5
11398
  8
0
 10
64.931511002671073
 20
172.9007040996924
 30
0.0
 40
2.0000000000000031
 50
134.9999999999998
 51
182.0000000000004
  0
LINE
  5
11399
  8
0
 10
63.517297440297959
 20
174.31491766206551
 30
0.0
 11
69.030447245432811
 21
179.8280674672003
 31
0.0
  0
ARC
  5
1139A
  8
0
 10
48.06000000000153
 20
200.95000010430689
 30
0.0
 40
29.76399999999806
 50
314.79380029940683
 51
326.2682628541607
  0
ARC
  5
1139B
  8
0
 10
73.894271733493838
 20
183.70000010430809
 30
0.0
 40
1.299999999999998
 50
90.0
 51
146.2682628541607
  0
CIRCLE
  5
1139C
  8
0
 10
73.0
 20
170.0000001043081
 30
0.0
 40
6.75
  0
LINE
  5
1139D
  8
0
 10
103.0
 20
171.0000001043081
 30
0.0
 11
103.0
 21
185.0000001043081
 31
0.0
  0
POLYLINE
  5
1139E
  8
0
 66
     1
 10
0.0
 20
0.0
 30
0.0
  0
VERTEX
  5
119F4
  8
0
 10
102.0
 20
170.0000001043081
 30
0.0
  0
VERTEX
  5
119F5
  8
0
 10
102.1715492831521
 20
170.014779108216
 30
0.0
  0
VERTEX
  5
119F6
  8
0
 10
102.32712626665609
 20
170.05501946658919
 30
0.0
  0
VERTEX
  5
119F7
  8
0
 10
102.4695574837924
 20
170.1170743272923
 30
0.0
  0
VERTEX
  5
119F8
  8
0
 10
102.594557596382
 20
170.19594708081749
 30
0.0
  0
VERTEX
  5
119F9
  8
0
 10
102.7700479396112
 20
170.36192878754761
 30
0.0
  0
VERTEX
  5
119FA
  8
0
 10
102.8953355573033
 20
170.5546078728666
 30
0.0
  0
VERTEX
  5
119FB
  8
0
 10
102.97323398952361
 20
170.7701608924024
 30
0.0
  0
VERTEX
  5
119FC
  8
0
 10
102.9999824999616
 20
170.9940840439364
 30
0.0
  0
VERTEX
  5
119FD
  8
0
 10
103.0
 20
171.0000001043081
 30
0.0
  0
SEQEND
  5
119FE
  8
0
  0
LINE
  5
11446
  8
2
 10
178.0
 20
63.249999999999993
 30
0.0
 11
172.0
 21
63.249999999999993
 31
0.0
  0
LINE
  5
11447
  8
2
 10
172.0
 20
56.749999999999979
 30
0.0
 11
178.0
 21
56.749999999999979
 31
0.0
  0
LINE
  5
11448
  8
2
 10
178.0
 20
113.25
 30
0.0
 11
172.0
 21
113.25
 31
0.0
  0
LINE
  5
11449
  8
2
 10
172.0
 20
106.75
 30
0.0
 11
178.0
 21
106.75
 31
0.0
  0
LINE
  5
1144F
  8
2
 10
163.0
 20
104.0
 30
0.0
 11
169.25
 21
104.0
 31
0.0
  0
LINE
  5
11450
  8
2
 10
169.25
 20
116.0
 30
0.0
 11
163.0
 21
116.0
 31
0.0
  0
LINE
  5
11451
  8
2
 10
169.25
 20
104.0
 30
0.0
 11
169.25
 21
116.0
 31
0.0
  0
LINE
  5
11452
  8
2
 10
172.0
 20
106.75
 30
0.0
 11
172.0
 21
113.25
 31
0.0
  0
LINE
  5
11453
  8
2
 10
172.0
 20
113.25
 30
0.0
 11
169.25
 21
116.0
 31
0.0
  0
LINE
  5
11454
  8
2
 10
169.25
 20
104.0
 30
0.0
 11
172.0
 21
106.75
 31
0.0
  0
LINE
  5
11455
  8
2
 10
169.25
 20
53.999999999999979
 30
0.0
 11
169.25
 21
65.999999999999986
 31
0.0
  0
LINE
  5
11456
  8
2
 10
172.0
 20
56.749999999999979
 30
0.0
 11
172.0
 21
63.249999999999993
 31
0.0
  0
LINE
  5
11457
  8
2
 10
172.0
 20
63.249999999999993
 30
0.0
 11
169.25
 21
65.999999999999986
 31
0.0
  0
LINE
  5
11458
  8
2
 10
169.25
 20
53.999999999999979
 30
0.0
 11
172.0
 21
56.749999999999979
 31
0.0
  0
LINE
  5
1145A
  8
2
 10
163.0
 20
53.999999999999979
 30
0.0
 11
169.25
 21
53.999999999999979
 31
0.0
  0
LINE
  5
1145B
  8
2
 10
169.25
 20
66.000000000000014
 30
0.0
 11
163.0
 21
65.999999999999986
 31
0.0
  0
LINE
  5
1145C
  8
1
 10
160.0
 20
59.999999999999993
 30
0.0
 11
181.0
 21
59.999999999999993
 31
0.0
  0
LINE
  5
1145D
  8
1
 10
160.0
 20
110.0
 30
0.0
 11
181.0
 21
110.0
 31
0.0
  0
LINE
  5
1145F
  8
0
 10
153.0
 20
68.499999999999986
 30
0.0
 11
153.0
 21
101.5
 31
0.0
  0
LINE
  5
11460
  8
0
 10
156.25
 20
101.84999999999999
 30
0.0
 11
156.25
 21
101.5
 31
0.0
  0
LINE
  5
11461
  8
0
 10
156.25
 20
68.499999999999986
 30
0.0
 11
156.25
 21
68.149999999999963
 31
0.0
  0
LINE
  5
11464
  8
0
 10
162.83902403412901
 20
68.499999999999986
 30
0.0
 11
153.0
 21
68.499999999999986
 31
0.0
  0
LINE
  5
11465
  8
0
 10
162.8414501712524
 20
101.5
 30
0.0
 11
153.0
 21
101.5
 31
0.0
  0
LINE
  5
11466
  8
0
 10
159.53734103199261
 20
68.499999999999986
 30
0.0
 11
159.53734103199261
 21
101.5
 31
0.0
  0
LINE
  5
11467
  8
0
 10
167.31491755775741
 20
71.999999999999986
 30
0.0
 11
167.31491755775741
 21
97.999999999999986
 31
0.0
  0
LINE
  5
11469
  8
0
 10
153.0
 20
101.84999999999999
 30
0.0
 11
153.0
 21
120.0
 31
0.0
  0
LINE
  5
1146A
  8
0
 10
153.0
 20
49.999999999999993
 30
0.0
 11
153.0
 21
68.149999999999963
 31
0.0
  0
LINE
  5
1146E
  8
0
 10
158.4932543274461
 20
101.84999999999999
 30
0.0
 11
153.0
 21
101.84999999999999
 31
0.0
  0
LINE
  5
1146F
  8
0
 10
159.57842712474621
 20
101.8154692081377
 30
0.0
 11
159.57842712474621
 21
120.0
 31
0.0
  0
LINE
  5
11470
  8
0
 10
153.0
 20
68.149999999999963
 30
0.0
 11
158.4932543274461
 21
68.149999999999963
 31
0.0
  0
LINE
  5
11472
  8
0
 10
159.57842712474621
 20
49.999999999999993
 30
0.0
 11
159.57842712474621
 21
68.18453079186223
 31
0.0
  0
LINE
  5
11473
  8
0
 10
161.75
 20
101.8154692081377
 30
0.0
 11
159.57842712474621
 21
101.8154692081377
 31
0.0
  0
POLYLINE
  5
11474
  8
0
 66
     1
 10
0.0
 20
0.0
 30
0.0
  0
VERTEX
  5
119FF
  8
0
 10
159.57842712474621
 20
101.8154692081377
 30
0.0
  0
VERTEX
  5
11A00
  8
0
 10
159.20342712474621
 20
101.82276716799051
 30
0.0
  0
VERTEX
  5
11A01
  8
0
 10
158.82842712474621
 20
101.8398680240746
 30
0.0
  0
VERTEX
  5
11A02
  8
0
 10
158.4932543274461
 20
101.84999999999999
 30
0.0
  0
SEQEND
  5
11A03
  8
0
  0
POLYLINE
  5
11475
  8
0
 66
     1
 10
0.0
 20
0.0
 30
0.0
  0
VERTEX
  5
11A04
  8
0
 10
158.4932543274461
 20
68.149999999999963
 30
0.0
  0
VERTEX
  5
11A05
  8
0
 10
158.8275002979893
 20
68.1600881933566
 30
0.0
  0
VERTEX
  5
11A06
  8
0
 10
159.20244501754939
 20
68.177196577263302
 30
0.0
  0
VERTEX
  5
11A07
  8
0
 10
159.57842712474621
 20
68.18453079186223
 30
0.0
  0
SEQEND
  5
11A08
  8
0
  0
LINE
  5
11476
  8
0
 10
159.57842712474621
 20
68.18453079186223
 30
0.0
 11
161.75
 21
68.18453079186223
 31
0.0
  0
POLYLINE
  5
11477
  8
0
 66
     1
 10
0.0
 20
0.0
 30
0.0
  0
VERTEX
  5
11A09
  8
0
 10
161.75
 20
101.8154692081377
 30
0.0
  0
VERTEX
  5
11A0A
  8
0
 10
161.9509998802975
 20
101.8118825314635
 30
0.0
  0
VERTEX
  5
11A0B
  8
0
 10
162.14647504567699
 20
101.7998711785514
 30
0.0
  0
VERTEX
  5
11A0C
  8
0
 10
162.33105598975339
 20
101.7766462615609
 30
0.0
  0
VERTEX
  5
11A0D
  8
0
 10
162.4987893104261
 20
101.7378519419951
 30
0.0
  0
VERTEX
  5
11A0E
  8
0
 10
162.63865547558251
 20
101.6811716541592
 30
0.0
  0
VERTEX
  5
11A0F
  8
0
 10
162.75422452743089
 20
101.60230812935249
 30
0.0
  0
VERTEX
  5
11A10
  8
0
 10
162.83701140742471
 20
101.5082084223022
 30
0.0
  0
VERTEX
  5
11A11
  8
0
 10
162.89846611728751
 20
101.3945627699096
 30
0.0
  0
VERTEX
  5
11A12
  8
0
 10
162.9414402162397
 20
101.26053178403259
 30
0.0
  0
VERTEX
  5
11A13
  8
0
 10
162.96880855918661
 20
101.11121033223441
 30
0.0
  0
VERTEX
  5
11A14
  8
0
 10
162.98635580204291
 20
100.9247090959779
 30
0.0
  0
VERTEX
  5
11A15
  8
0
 10
162.99441475346299
 20
100.7265547212105
 30
0.0
  0
VERTEX
  5
11A16
  8
0
 10
162.9973561870394
 20
100.53980993100809
 30
0.0
  0
VERTEX
  5
11A17
  8
0
 10
162.99803846094579
 20
100.34999999999999
 30
0.0
  0
SEQEND
  5
11A18
  8
0
  0
LINE
  5
11478
  8
0
 10
162.99803846094579
 20
100.34999999999999
 30
0.0
 11
162.99803846094579
 21
97.999999999999986
 31
0.0
  0
LINE
  5
1147A
  8
0
 10
162.99803846094579
 20
71.999999999999986
 30
0.0
 11
162.99803846094579
 21
69.649999999999963
 31
0.0
  0
POLYLINE
  5
1147B
  8
0
 66
     1
 10
0.0
 20
0.0
 30
0.0
  0
VERTEX
  5
11A19
  8
0
 10
162.99803846094579
 20
69.649999999999963
 30
0.0
  0
VERTEX
  5
11A1A
  8
0
 10
162.99685088275351
 20
69.401429843228684
 30
0.0
  0
VERTEX
  5
11A1B
  8
0
 10
162.99067896552711
 20
69.159778933390029
 30
0.0
  0
VERTEX
  5
11A1C
  8
0
 10
162.97409577972459
 20
68.931546688274224
 30
0.0
  0
VERTEX
  5
11A1D
  8
0
 10
162.93783390691499
 20
68.724832047105778
 30
0.0
  0
VERTEX
  5
11A1E
  8
0
 10
162.89041190498861
 20
68.587215714914223
 30
0.0
  0
VERTEX
  5
11A1F
  8
0
 10
162.8212486175176
 20
68.469831486657753
 30
0.0
  0
VERTEX
  5
11A20
  8
0
 10
162.72654133369971
 20
68.375011876183848
 30
0.0
  0
VERTEX
  5
11A21
  8
0
 10
162.60688292240479
 20
68.302962516771885
 30
0.0
  0
VERTEX
  5
11A22
  8
0
 10
162.4750446986063
 20
68.255231541016414
 30
0.0
  0
VERTEX
  5
11A23
  8
0
 10
162.326676306547
 20
68.222587876907696
 30
0.0
  0
VERTEX
  5
11A24
  8
0
 10
162.15726127309989
 20
68.201083098844478
 30
0.0
  0
VERTEX
  5
11A25
  8
0
 10
161.97815211814171
 20
68.189273962433262
 30
0.0
  0
VERTEX
  5
11A26
  8
0
 10
161.75
 20
68.18453079186223
 30
0.0
  0
SEQEND
  5
11A27
  8
0
  0
LINE
  5
1147D
  8
0
 10
178.0
 20
120.0
 30
0.0
 11
153.0
 21
120.0
 31
0.0
  0
LINE
  5
1147E
  8
0
 10
163.0
 20
97.999999999999986
 30
0.0
 11
163.0
 21
120.0
 31
0.0
  0
LINE
  5
1147F
  8
0
 10
170.5
 20
97.999999999999986
 30
0.0
 11
162.99803846094579
 21
97.999999999999986
 31
0.0
  0
LINE
  5
11480
  8
0
 10
170.5
 20
71.999999999999986
 30
0.0
 11
170.5
 21
97.999999999999986
 31
0.0
  0
LINE
  5
11481
  8
0
 10
170.5
 20
71.999999999999986
 30
0.0
 11
162.99803846094579
 21
71.999999999999986
 31
0.0
  0
LINE
  5
11485
  8
0
 10
178.0
 20
120.0
 30
0.0
 11
178.0
 21
49.999999999999993
 31
0.0
  0
LINE
  5
11487
  8
0
 10
163.0
 20
49.999999999999993
 30
0.0
 11
163.0
 21
71.999999999999986
 31
0.0
  0
LINE
  5
11488
  8
0
 10
178.0
 20
49.999999999999993
 30
0.0
 11
153.0
 21
49.999999999999993
 31
0.0
  0
CIRCLE
  5
11618
  8
2
 10
52.0
 20
110.0
 30
0.0
 40
3.2499999999999991
  0
CIRCLE
  5
11619
  8
2
 10
52.0
 20
59.999999999999993
 30
0.0
 40
3.2499999999999991
  0
CIRCLE
  5
1162E
  8
2
 10
94.0
 20
110.0
 30
0.0
 40
3.2499999999999991
  0
CIRCLE
  5
1162F
  8
2
 10
94.0
 20
59.999999999999993
 30
0.0
 40
3.2499999999999991
  0
LINE
  5
11636
  8
1
 10
44.5
 20
110.0
 30
0.0
 11
59.5
 21
110.0
 31
0.0
  0
LINE
  5
11637
  8
1
 10
52.0
 20
102.5
 30
0.0
 11
52.0
 21
117.5
 31
0.0
  0
LINE
  5
11638
  8
1
 10
44.5
 20
59.999999999999993
 30
0.0
 11
59.5
 21
59.999999999999993
 31
0.0
  0
LINE
  5
11639
  8
1
 10
52.0
 20
52.499999999999993
 30
0.0
 11
52.0
 21
67.499999999999986
 31
0.0
  0
LINE
  5
1163A
  8
1
 10
86.5
 20
110.0
 30
0.0
 11
101.5
 21
110.0
 31
0.0
  0
LINE
  5
1163B
  8
1
 10
94.0
 20
102.5
 30
0.0
 11
94.0
 21
117.5
 31
0.0
  0
LINE
  5
1163C
  8
1
 10
86.5
 20
59.999999999999993
 30
0.0
 11
101.5
 21
59.999999999999993
 31
0.0
  0
LINE
  5
1163D
  8
1
 10
94.0
 20
52.499999999999993
 30
0.0
 11
94.0
 21
67.499999999999986
 31
0.0
  0
LINE
  5
1163E
  8
1
 10
73.0
 20
125.0
 30
0.0
 11
73.0
 21
44.999999999999993
 31
0.0
  0
LINE
  5
1163F
  8
0
 10
83.068488997328927
 20
68.499999999999986
 30
0.0
 11
83.068488997328927
 21
101.5
 31
0.0
  0
CIRCLE
  5
11642
  8
0
 10
52.0
 20
110.0
 30
0.0
 40
6.0
  0
LINE
  5
11643
  8
0
 10
61.464355241253308
 20
101.5
 30
0.0
 11
61.464355241253308
 21
120.0
 31
0.0
  0
ARC
  5
11645
  8
0
 10
50.0
 20
113.0
 30
0.0
 40
6.9999999999999636
 50
90.0
 51
148.9972808661272
  0
LINE
  5
11646
  8
0
 10
63.17999999999995
 20
97.999999999999986
 30
0.0
 11
43.0
 21
97.999999999999986
 31
0.0
  0
POLYLINE
  5
11648
  8
0
 66
     1
 10
0.0
 20
0.0
 30
0.0
  0
VERTEX
  5
11A28
  8
0
 10
44.0
 20
116.60555127546399
 30
0.0
  0
VERTEX
  5
11A29
  8
0
 10
43.829071733379351
 20
116.3044885123454
 30
0.0
  0
VERTEX
  5
11A2A
  8
0
 10
43.672873733343863
 20
115.9945739606479
 30
0.0
  0
VERTEX
  5
11A2B
  8
0
 10
43.530751091596009
 20
115.6737274657517
 30
0.0
  0
VERTEX
  5
11A2C
  8
0
 10
43.405442403617933
 20
115.3477244531673
 30
0.0
  0
VERTEX
  5
11A2D
  8
0
 10
43.230585810471091
 20
114.7818618158001
 30
0.0
  0
VERTEX
  5
11A2E
  8
0
 10
43.10466444269673
 20
114.2059633295375
 30
0.0
  0
VERTEX
  5
11A2F
  8
0
 10
43.026938930283109
 20
113.6135302095244
 30
0.0
  0
VERTEX
  5
11A30
  8
0
 10
43.000017500038318
 20
113.01565248317939
 30
0.0
  0
VERTEX
  5
11A31
  8
0
 10
43.0
 20
113.0
 30
0.0
  0
SEQEND
  5
11A32
  8
0
  0
LINE
  5
11649
  8
0
 10
43.0
 20
57.000000104308107
 30
0.0
 11
43.0
 21
113.0
 31
0.0
  0
CIRCLE
  5
1164C
  8
0
 10
52.0
 20
59.999999999999993
 30
0.0
 40
6.0
  0
ARC
  5
1164D
  8
0
 10
50.0
 20
56.999999999999929
 30
0.0
 40
6.9999999999999352
 50
211.00271913387201
 51
270.0
  0
LINE
  5
1164F
  8
0
 10
61.464355241253308
 20
68.499999999999986
 30
0.0
 11
61.464355241253308
 21
49.999999999999993
 31
0.0
  0
LINE
  5
11650
  8
0
 10
63.17999999999995
 20
71.999999999999986
 30
0.0
 11
43.0
 21
71.999999999999986
 31
0.0
  0
POLYLINE
  5
11652
  8
0
 66
     1
 10
0.0
 20
0.0
 30
0.0
  0
VERTEX
  5
11A33
  8
0
 10
43.0
 20
57.000000104308107
 30
0.0
  0
VERTEX
  5
11A34
  8
0
 10
43.000017500038318
 20
56.984347516820762
 30
0.0
  0
VERTEX
  5
11A35
  8
0
 10
43.025106284465657
 20
56.407667612737882
 30
0.0
  0
VERTEX
  5
11A36
  8
0
 10
43.098686461269601
 20
55.828730842147742
 30
0.0
  0
VERTEX
  5
11A37
  8
0
 10
43.224746459164741
 20
55.240471808296647
 30
0.0
  0
VERTEX
  5
11A38
  8
0
 10
43.405442403617933
 20
54.652275546832684
 30
0.0
  0
VERTEX
  5
11A39
  8
0
 10
43.526935817532369
 20
54.335522548480682
 30
0.0
  0
VERTEX
  5
11A3A
  8
0
 10
43.665623188282431
 20
54.020793661530931
 30
0.0
  0
VERTEX
  5
11A3B
  8
0
 10
43.823715969232353
 20
53.70553258154159
 30
0.0
  0
VERTEX
  5
11A3C
  8
0
 10
44.0
 20
53.394448724535991
 30
0.0
  0
SEQEND
  5
11A3D
  8
0
  0
LINE
  5
11657
  8
0
 10
63.17999999999995
 20
68.499999999999986
 30
0.0
 11
63.17999999999995
 21
101.5
 31
0.0
  0
LINE
  5
11658
  8
0
 10
79.75
 20
101.5
 30
0.0
 11
79.75
 21
101.84999999999999
 31
0.0
  0
LINE
  5
11659
  8
0
 10
66.25
 20
101.84999999999999
 30
0.0
 11
66.25
 21
101.5
 31
0.0
  0
LINE
  5
1165A
  8
0
 10
79.75
 20
68.15000000000002
 30
0.0
 11
79.75
 21
68.499999999999986
 31
0.0
  0
LINE
  5
1165B
  8
0
 10
66.25
 20
68.499999999999986
 30
0.0
 11
66.25
 21
68.15000000000002
 31
0.0
  0
LINE
  5
1165E
  8
0
 10
83.068488997328927
 20
68.499999999999986
 30
0.0
 11
61.464355241253308
 21
68.499999999999986
 31
0.0
  0
LINE
  5
1165F
  8
0
 10
83.068488997328927
 20
101.5
 30
0.0
 11
61.464355241253308
 21
101.5
 31
0.0
  0
LINE
  5
11660
  8
0
 10
69.758427124746163
 20
68.499999999999986
 30
0.0
 11
69.758427124746163
 21
101.5
 31
0.0
  0
LINE
  5
11663
  8
0
 10
76.241572875253837
 20
68.499999999999986
 30
0.0
 11
76.241572875253837
 21
101.5
 31
0.0
  0
LINE
  5
11664
  8
0
 10
83.068488997328927
 20
97.999999999999986
 30
0.0
 11
103.0
 21
97.999999999999986
 31
0.0
  0
LINE
  5
11665
  8
0
 10
83.068488997328927
 20
71.999999999999986
 30
0.0
 11
103.0
 21
71.999999999999986
 31
0.0
  0
LINE
  5
11666
  8
0
 10
62.931511002671073
 20
120.0
 30
0.0
 11
62.931511002671073
 21
101.84999999999999
 31
0.0
  0
LINE
  5
11667
  8
0
 10
62.931511002671073
 20
68.15000000000002
 30
0.0
 11
62.931511002671073
 21
49.999999999999993
 31
0.0
  0
ARC
  5
11669
  8
0
 10
96.0
 20
113.0
 30
0.0
 40
6.9999999999999813
 50
31.002719133872748
 51
90.0
  0
CIRCLE
  5
1166A
  8
0
 10
94.0
 20
110.0
 30
0.0
 40
6.0
  0
LINE
  5
1166B
  8
0
 10
103.0
 20
56.999999999999993
 30
0.0
 11
103.0
 21
113.0000001043081
 31
0.0
  0
POLYLINE
  5
1166C
  8
0
 66
     1
 10
0.0
 20
0.0
 30
0.0
  0
VERTEX
  5
11A3E
  8
0
 10
103.0
 20
113.0000001043081
 30
0.0
  0
VERTEX
  5
11A3F
  8
0
 10
102.9999824999616
 20
113.0156524831792
 30
0.0
  0
VERTEX
  5
11A40
  8
0
 10
102.97489371553429
 20
113.5923323872621
 30
0.0
  0
VERTEX
  5
11A41
  8
0
 10
102.90131353873041
 20
114.17126915785219
 30
0.0
  0
VERTEX
  5
11A42
  8
0
 10
102.77525354083519
 20
114.7595281917033
 30
0.0
  0
VERTEX
  5
11A43
  8
0
 10
102.594557596382
 20
115.3477244531673
 30
0.0
  0
VERTEX
  5
11A44
  8
0
 10
102.4730641824676
 20
115.6644774515193
 30
0.0
  0
VERTEX
  5
11A45
  8
0
 10
102.3343768117175
 20
115.979206338469
 30
0.0
  0
VERTEX
  5
11A46
  8
0
 10
102.1762840307676
 20
116.2944674184584
 30
0.0
  0
VERTEX
  5
11A47
  8
0
 10
102.0
 20
116.60555127546399
 30
0.0
  0
SEQEND
  5
11A48
  8
0
  0
POLYLINE
  5
1166F
  8
0
 66
     1
 10
0.0
 20
0.0
 30
0.0
  0
VERTEX
  5
11A49
  8
0
 10
102.0
 20
53.394448724535991
 30
0.0
  0
VERTEX
  5
11A4A
  8
0
 10
102.17092826662061
 20
53.695511487654571
 30
0.0
  0
VERTEX
  5
11A4B
  8
0
 10
102.32712626665609
 20
54.005426039352059
 30
0.0
  0
VERTEX
  5
11A4C
  8
0
 10
102.469248908404
 20
54.326272534248332
 30
0.0
  0
VERTEX
  5
11A4D
  8
0
 10
102.594557596382
 20
54.652275546832684
 30
0.0
  0
VERTEX
  5
11A4E
  8
0
 10
102.7694141895289
 20
55.218138184199901
 30
0.0
  0
VERTEX
  5
11A4F
  8
0
 10
102.8953355573033
 20
55.794036670462432
 30
0.0
  0
VERTEX
  5
11A50
  8
0
 10
102.97306106971691
 20
56.386469790475509
 30
0.0
  0
VERTEX
  5
11A51
  8
0
 10
102.9999824999616
 20
56.984347516820591
 30
0.0
  0
VERTEX
  5
11A52
  8
0
 10
103.0
 20
56.999999999999993
 30
0.0
  0
SEQEND
  5
11A53
  8
0
  0
ARC
  5
11671
  8
0
 10
96.0
 20
56.999999999999993
 30
0.0
 40
6.9999999999999636
 50
270.0
 51
328.99728086612731
  0
CIRCLE
  5
11672
  8
0
 10
94.0
 20
59.999999999999993
 30
0.0
 40
6.0
  0
POLYLINE
  5
11673
  8
0
 66
     1
 10
0.0
 20
0.0
 30
0.0
  0
VERTEX
  5
11A54
  8
0
 10
82.82000000000005
 20
101.8154692081378
 30
0.0
  0
VERTEX
  5
11A55
  8
0
 10
82.884543320844045
 20
101.7998711785514
 30
0.0
  0
VERTEX
  5
11A56
  8
0
 10
83.069093126913586
 20
101.7378519419951
 30
0.0
  0
VERTEX
  5
11A57
  8
0
 10
83.325666003392143
 20
101.60230812935249
 30
0.0
  0
VERTEX
  5
11A58
  8
0
 10
83.576516892444715
 20
101.3945627699096
 30
0.0
  0
VERTEX
  5
11A59
  8
0
 10
83.792500998103819
 20
101.11121033223451
 30
0.0
  0
VERTEX
  5
11A5A
  8
0
 10
83.951966439672105
 20
100.7265547212105
 30
0.0
  0
VERTEX
  5
11A5B
  8
0
 10
84.0
 20
100.34999999999999
 30
0.0
  0
SEQEND
  5
11A5C
  8
0
  0
LINE
  5
11674
  8
0
 10
84.0
 20
100.34999999999999
 30
0.0
 11
84.0
 21
97.999999999999986
 31
0.0
  0
POLYLINE
  5
11676
  8
0
 66
     1
 10
0.0
 20
0.0
 30
0.0
  0
VERTEX
  5
11A5D
  8
0
 10
84.0
 20
69.65000000000002
 30
0.0
  0
VERTEX
  5
11A5E
  8
0
 10
83.917632994061478
 20
69.159778933390029
 30
0.0
  0
VERTEX
  5
11A5F
  8
0
 10
83.816478056545975
 20
68.931546688274281
 30
0.0
  0
VERTEX
  5
11A60
  8
0
 10
83.680704983870896
 20
68.724832047105778
 30
0.0
  0
VERTEX
  5
11A61
  8
0
 10
83.425852191289536
 20
68.469831486657753
 30
0.0
  0
VERTEX
  5
11A62
  8
0
 10
83.159916675632985
 20
68.302962516771885
 30
0.0
  0
VERTEX
  5
11A63
  8
0
 10
82.960971399166283
 20
68.222587876907753
 30
0.0
  0
VERTEX
  5
11A64
  8
0
 10
82.840997717256968
 20
68.189273962433262
 30
0.0
  0
VERTEX
  5
11A65
  8
0
 10
82.82000000000005
 20
68.18453079186223
 30
0.0
  0
SEQEND
  5
11A66
  8
0
  0
LINE
  5
11677
  8
0
 10
84.0
 20
71.999999999999986
 30
0.0
 11
84.0
 21
69.65000000000002
 31
0.0
  0
POLYLINE
  5
1167D
  8
0
 66
     1
 10
0.0
 20
0.0
 30
0.0
  0
VERTEX
  5
11A67
  8
0
 10
82.82000000000005
 20
101.8154692081378
 30
0.0
  0
VERTEX
  5
11A68
  8
0
 10
82.784529205687704
 20
101.82276716799051
 30
0.0
  0
VERTEX
  5
11A69
  8
0
 10
82.674049621773975
 20
101.8398680240747
 30
0.0
  0
VERTEX
  5
11A6A
  8
0
 10
82.5
 20
101.84999999999999
 30
0.0
  0
SEQEND
  5
11A6B
  8
0
  0
LINE
  5
1167E
  8
0
 10
82.82000000000005
 20
101.8154692081378
 30
0.0
 11
82.82000000000005
 21
120.0
 31
0.0
  0
LINE
  5
1167F
  8
0
 10
82.82000000000005
 20
49.999999999999993
 30
0.0
 11
82.82000000000005
 21
68.18453079186223
 31
0.0
  0
POLYLINE
  5
11680
  8
0
 66
     1
 10
0.0
 20
0.0
 30
0.0
  0
VERTEX
  5
11A6C
  8
0
 10
82.5
 20
68.15000000000002
 30
0.0
  0
VERTEX
  5
11A6D
  8
0
 10
82.673674432271469
 20
68.160088193356657
 30
0.0
  0
VERTEX
  5
11A6E
  8
0
 10
82.784341481277565
 20
68.177196577263302
 30
0.0
  0
VERTEX
  5
11A6F
  8
0
 10
82.82000000000005
 20
68.18453079186223
 30
0.0
  0
SEQEND
  5
11A70
  8
0
  0
LINE
  5
11686
  8
0
 10
76.241572875253837
 20
101.84999999999999
 30
0.0
 11
76.241572875253837
 21
120.0
 31
0.0
  0
LINE
  5
11687
  8
0
 10
82.5
 20
101.84999999999999
 30
0.0
 11
62.931511002671073
 21
101.84999999999999
 31
0.0
  0
LINE
  5
11688
  8
0
 10
69.758427124746163
 20
101.84999999999999
 30
0.0
 11
69.758427124746163
 21
120.0
 31
0.0
  0
LINE
  5
1168C
  8
0
 10
96.0
 20
49.999999999999993
 30
0.0
 11
50.0
 21
49.999999999999993
 31
0.0
  0
LINE
  5
1168D
  8
0
 10
62.931511002671073
 20
68.15000000000002
 30
0.0
 11
82.5
 21
68.15000000000002
 31
0.0
  0
LINE
  5
1168F
  8
0
 10
69.758427124746163
 20
49.999999999999993
 30
0.0
 11
69.758427124746163
 21
68.15000000000002
 31
0.0
  0
LINE
  5
11690
  8
0
 10
76.241572875253837
 20
49.999999999999993
 30
0.0
 11
76.241572875253837
 21
68.15000000000002
 31
0.0
  0
LINE
  5
116AE
  8
0
 10
50.0
 20
120.0
 30
0.0
 11
96.0
 21
120.0
 31
0.0
  0
LINE
  5
1194D
  8
2
 10
168.90000000000001
 20
104.0
 30
0.0
 11
168.90000000000001
 21
116.0
 31
0.0
  0
LINE
  5
1194E
  8
2
 10
168.90000000000001
 20
53.999999999999993
 30
0.0
 11
168.90000000000001
 21
66.000000000000014
 31
0.0
  0
LINE
  5
1194F
  8
2
 10
46.0
 20
175.90000010430811
 30
0.0
 11
58.000000000000057
 21
175.90000010430811
 31
0.0
  0
LINE
  5
11950
  8
2
 10
100.0
 20
175.90000010430811
 30
0.0
 11
88.0
 21
175.90000010430811
 31
0.0
  0
ENDSEC
  0
EOF
