  0
SECTION
  2
HEADER
  9
$ACADVER
  1
AC1009
  9
$INSBASE
 10
0.0
 20
0.0
 30
0.0
  9
$EXTMIN
 10
0.0
 20
-2.960436562073669
 30
0.0
  9
$EXTMAX
 10
208.9122039396502
 20
219.40353982184951
 30
0.0
  9
$LIMMIN
 10
0.0
 20
0.0
  9
$LIMMAX
 10
375.0
 20
270.0
  9
$ORTHOMODE
 70
     0
  9
$REGENMODE
 70
     1
  9
$FILLMODE
 70
     1
  9
$QTEXTMODE
 70
     0
  9
$MIRRTEXT
 70
     0
  9
$DRAGMODE
 70
     2
  9
$LTSCALE
 40
10.0
  9
$OSMODE
 70
    37
  9
$ATTMODE
 70
     1
  9
$TEXTSIZE
 40
0.2
  9
$TRACEWID
 40
0.05
  9
$TEXTSTYLE
  7
STANDARD
  9
$CLAYER
  8
0
  9
$CELTYPE
  6
BYLAYER
  9
$CECOLOR
 62
   256
  9
$DIMSCALE
 40
1.0
  9
$DIMASZ
 40
3.0
  9
$DIMEXO
 40
0.0625
  9
$DIMDLI
 40
0.38
  9
$DIMRND
 40
0.0
  9
$DIMDLE
 40
0.0
  9
$DIMEXE
 40
0.18
  9
$DIMTP
 40
0.0
  9
$DIMTM
 40
0.0
  9
$DIMTXT
 40
3.0
  9
$DIMCEN
 40
0.09
  9
$DIMTSZ
 40
0.0
  9
$DIMTOL
 70
     0
  9
$DIMLIM
 70
     0
  9
$DIMTIH
 70
     1
  9
$DIMTOH
 70
     1
  9
$DIMSE1
 70
     0
  9
$DIMSE2
 70
     0
  9
$DIMTAD
 70
     0
  9
$DIMZIN
 70
     0
  9
$DIMBLK
  1

  9
$DIMASO
 70
     1
  9
$DIMSHO
 70
     1
  9
$DIMPOST
  1

  9
$DIMAPOST
  1

  9
$DIMALT
 70
     0
  9
$DIMALTD
 70
     2
  9
$DIMALTF
 40
25.399999999999999
  9
$DIMLFAC
 40
1.0
  9
$DIMTOFL
 70
     0
  9
$DIMTVP
 40
0.0
  9
$DIMTIX
 70
     0
  9
$DIMSOXD
 70
     0
  9
$DIMSAH
 70
     0
  9
$DIMBLK1
  1

  9
$DIMBLK2
  1

  9
$DIMSTYLE
  2
STANDARD
  9
$DIMCLRD
 70
     0
  9
$DIMCLRE
 70
     0
  9
$DIMCLRT
 70
     0
  9
$DIMTFAC
 40
1.0
  9
$DIMGAP
 40
0.09
  9
$LUNITS
 70
     2
  9
$LUPREC
 70
     4
  9
$SKETCHINC
 40
0.1
  9
$FILLETRAD
 40
0.0
  9
$AUNITS
 70
     0
  9
$AUPREC
 70
     0
  9
$MENU
  1
E:\r13\win\SUPPORT\ACAD
  9
$ELEVATION
 40
0.0
  9
$PELEVATION
 40
0.0
  9
$THICKNESS
 40
0.0
  9
$LIMCHECK
 70
     0
  9
$BLIPMODE
 70
     0
  9
$CHAMFERA
 40
0.0
  9
$CHAMFERB
 40
0.0
  9
$SKPOLY
 70
     0
  9
$TDCREATE
 40
2451600.4586799769
  9
$TDUPDATE
 40
2459429.5740527548
  9
$TDINDWG
 40
0.0361376968
  9
$TDUSRTIMER
 40
0.0361376968
  9
$USRTIMER
 70
     1
  9
$ANGBASE
 50
0.0
  9
$ANGDIR
 70
     0
  9
$PDMODE
 70
     0
  9
$PDSIZE
 40
0.0
  9
$PLINEWID
 40
0.0
  9
$COORDS
 70
     1
  9
$SPLFRAME
 70
     0
  9
$SPLINETYPE
 70
     6
  9
$SPLINESEGS
 70
     8
  9
$ATTDIA
 70
     0
  9
$ATTREQ
 70
     1
  9
$HANDLING
 70
     1
  9
$HANDSEED
  5
11E6
  9
$SURFTAB1
 70
     6
  9
$SURFTAB2
 70
     6
  9
$SURFTYPE
 70
     6
  9
$SURFU
 70
     6
  9
$SURFV
 70
     6
  9
$UCSNAME
  2

  9
$UCSORG
 10
0.0
 20
0.0
 30
0.0
  9
$UCSXDIR
 10
1.0
 20
0.0
 30
0.0
  9
$UCSYDIR
 10
0.0
 20
1.0
 30
0.0
  9
$PUCSNAME
  2

  9
$PUCSORG
 10
0.0
 20
0.0
 30
0.0
  9
$PUCSXDIR
 10
1.0
 20
0.0
 30
0.0
  9
$PUCSYDIR
 10
0.0
 20
1.0
 30
0.0
  9
$USERI1
 70
     3
  9
$USERI2
 70
     1
  9
$USERI3
 70
     0
  9
$USERI4
 70
     0
  9
$USERI5
 70
     0
  9
$USERR1
 40
1.0
  9
$USERR2
 40
3.0
  9
$USERR3
 40
3.0
  9
$USERR4
 40
3.0
  9
$USERR5
 40
10.0
  9
$WORLDVIEW
 70
     1
  9
$SHADEDGE
 70
     3
  9
$SHADEDIF
 70
    70
  9
$TILEMODE
 70
     1
  9
$MAXACTVP
 70
    16
  9
$PLIMCHECK
 70
     0
  9
$PEXTMIN
 10
1.0000000000000000E+020
 20
1.0000000000000000E+020
 30
1.0000000000000000E+020
  9
$PEXTMAX
 10
-1.0000000000000000E+020
 20
-1.0000000000000000E+020
 30
-1.0000000000000000E+020
  9
$PLIMMIN
 10
0.0
 20
0.0
  9
$PLIMMAX
 10
12.0
 20
9.0
  9
$UNITMODE
 70
     0
  9
$VISRETAIN
 70
     0
  9
$PLINEGEN
 70
     0
  9
$PSLTSCALE
 70
     0
  0
ENDSEC
  0
SECTION
  2
TABLES
  0
TABLE
  2
VPORT
 70
     1
  0
VPORT
  2
*ACTIVE
 70
     0
 10
0.0
 20
0.0
 11
1.0
 21
1.0
 12
213.9487150712244
 22
108.2222308414709
 13
0.0
 23
0.0
 14
10.0
 24
10.0
 15
10.0
 25
10.0
 16
0.0
 26
0.0
 36
1.0
 17
0.0
 27
0.0
 37
0.0
 40
224.33103159472711
 41
2.3805970149253719
 42
50.0
 43
0.0
 44
0.0
 50
0.0
 51
0.0
 71
     0
 72
   100
 73
     1
 74
     0
 75
     0
 76
     0
 77
     0
 78
     0
  0
ENDTAB
  0
TABLE
  2
LTYPE
 70
     4
  0
LTYPE
  2
CONTINUOUS
 70
     0
  3
Solid Line
 72
    65
 73
     0
 40
0.0
  0
LTYPE
  2
CENTER
 70
     0
  3
____ _ ____ _ ____ _ ____ _ ____ _ ____ _ ____
 72
    65
 73
     4
 40
2.0
 49
1.25
 49
-0.25
 49
0.25
 49
-0.25
  0
LTYPE
  2
HIDDEN
 70
     0
  3
_ _ _ _ _ _ _ _ _ _ _ _ _ _ _ _ _ _ _ _ _ _ _
 72
    65
 73
     2
 40
0.375
 49
0.25
 49
-0.125
  0
LTYPE
  2
PHANTOM2
 70
     0
  3
___ _ _ ___ _ _ ___ _ _ ___ _ _
 72
    65
 73
     6
 40
1.25
 49
0.625
 49
-0.125
 49
0.125
 49
-0.125
 49
0.125
 49
-0.125
  0
ENDTAB
  0
TABLE
  2
LAYER
 70
     3
  0
LAYER
  2
0
 70
     0
 62
     7
  6
CONTINUOUS
  0
LAYER
  2
1
 70
     0
 62
     1
  6
CENTER
  0
LAYER
  2
2
 70
     0
 62
     2
  6
HIDDEN
  0
ENDTAB
  0
TABLE
  2
STYLE
 70
     2
  0
STYLE
  2
STANDARD
 70
     0
 40
0.0
 41
1.0
 50
0.0
 71
     0
 42
0.2
  3
SIMPLEX
  4
BIGFONT
  0
STYLE
  2
STANDARD1
 70
     0
 40
0.0
 41
1.0
 50
0.0
 71
     0
 42
3.0
  3
txt
  4

  0
ENDTAB
  0
TABLE
  2
VIEW
 70
     0
  0
ENDTAB
  0
TABLE
  2
UCS
 70
     0
  0
ENDTAB
  0
TABLE
  2
APPID
 70
     6
  0
APPID
  2
ACAD
 70
     0
  0
APPID
  2
GENIUS_GENODEF_13
 70
     0
  0
APPID
  2
GENIUS_GENOBJ-N-FIL_13
 70
     0
  0
APPID
  2
ACAD_MLEADERVER
 70
     0
  0
APPID
  2
ACAD_NAV_VCDISPLAY
 70
     0
  0
APPID
  2
ACAD_EXEMPT_FROM_CAD_STANDARDS
 70
     0
  0
ENDTAB
  0
TABLE
  2
DIMSTYLE
 70
     1
  0
DIMSTYLE
  2
STANDARD
 70
     0
  3

  4

  5

  6

  7

 40
1.0
 41
0.18
 42
0.0625
 43
0.38
 44
0.18
 45
0.0
 46
0.0
 47
0.0
 48
0.0
140
0.18
141
0.09
142
0.0
143
25.399999999999999
144
1.0
145
0.0
146
1.0
147
0.09
 71
     0
 72
     0
 73
     1
 74
     1
 75
     0
 76
     0
 77
     0
 78
     0
170
     0
171
     2
172
     0
173
     0
174
     0
175
     0
176
     0
177
     0
178
     0
  0
ENDTAB
  0
ENDSEC
  0
SECTION
  2
BLOCKS
  0
BLOCK
  8
0
  2
$MODEL_SPACE
 70
     0
 10
0.0
 20
0.0
 30
0.0
  3
$MODEL_SPACE
  1

  0
ENDBLK
  5
246
  8
0
  0
BLOCK
 67
     1
  8
0
  2
$PAPER_SPACE
 70
     0
 10
0.0
 20
0.0
 30
0.0
  3
$PAPER_SPACE
  1

  0
ENDBLK
  5
244
 67
     1
  8
0
  0
ENDSEC
  0
SECTION
  2
ENTITIES
  0
TEXT
  5
B75
  8
0
 62
     3
 10
0.0
 20
0.0
 30
0.0
 40
10.0
  1
EFH5253CHP80-L
  7
STANDARD1
  0
LINE
  5
DAD
  8
2
 10
90.399999999999963
 20
53.0
 30
0.0
 11
90.399999999999963
 21
50.0
 31
0.0
  0
LINE
  5
DAE
  8
2
 10
95.600000000000023
 20
50.0
 30
0.0
 11
95.600000000000023
 21
53.0
 31
0.0
  0
LINE
  5
DAF
  8
2
 10
88.499999999999986
 20
59.0
 30
0.0
 11
88.499999999999986
 21
53.0
 31
0.0
  0
LINE
  5
DB0
  8
2
 10
97.5
 20
53.0
 30
0.0
 11
97.5
 21
58.0
 31
0.0
  0
LINE
  5
DB1
  8
2
 10
97.5
 20
53.0
 30
0.0
 11
88.499999999999986
 21
53.0
 31
0.0
  0
LINE
  5
DB2
  8
1
 10
93.0
 20
60.5
 30
0.0
 11
93.0
 21
48.5
 31
0.0
  0
LINE
  5
DB4
  8
1
 10
76.0
 20
47.0
 30
0.0
 11
76.0
 21
73.5
 31
0.0
  0
LINE
  5
DB6
  8
0
 10
90.804555427071136
 20
59.0
 30
0.0
 11
85.886859966642575
 21
59.0
 31
0.0
  0
ARC
  5
DB7
  8
0
 10
90.80455542707108
 20
38.999999999999581
 30
0.0
 40
20.00000000000043
 50
77.471192290849004
 51
90.0
  0
ARC
  5
DB8
  8
0
 10
97.0
 20
52.989141968170621
 30
0.0
 40
5.0000000000000071
 50
0.0
 51
77.471192290849004
  0
LINE
  5
DB9
  8
0
 10
98.084652289093299
 20
57.87007726909038
 30
0.0
 11
95.143164583444332
 21
58.523741203679037
 31
0.0
  0
LINE
  5
DBA
  8
0
 10
102.0
 20
50.0
 30
0.0
 11
102.0
 21
52.989141968170621
 31
0.0
  0
ARC
  5
DBB
  8
0
 10
76.0
 20
60.5
 30
0.0
 40
6.6999999999999797
 50
321.11872698896451
 51
338.88127301103742
  0
LINE
  5
DBC
  8
0
 10
86.5
 20
50.0
 30
0.0
 11
86.5
 21
59.0
 31
0.0
  0
LINE
  5
DBD
  8
0
 10
74.965603979714956
 20
67.119669544110081
 30
0.0
 11
70.784396020285044
 21
64.705648003195421
 31
0.0
  0
ARC
  5
DBE
  8
0
 10
76.0
 20
60.5
 30
0.0
 40
10.0
 50
351.3730734413208
 51
270.0
  0
ARC
  5
DBF
  8
0
 10
76.0
 20
60.500000000000057
 30
0.0
 40
6.699999999999938
 50
81.118726988963161
 51
98.881273011036839
  0
LINE
  5
DC0
  8
0
 10
76.0
 20
50.5
 30
0.0
 11
76.0
 21
50.0
 31
0.0
  0
LINE
  5
DC1
  8
0
 10
81.215603979714956
 20
64.705648003195392
 30
0.0
 11
77.034396020285044
 21
67.119669544110081
 31
0.0
  0
ARC
  5
DC2
  8
0
 10
76.000000000000114
 20
60.500000000000057
 30
0.0
 40
6.6999999999998927
 50
21.118726988962639
 51
38.881273011035461
  0
LINE
  5
DC3
  8
0
 10
82.249999999999986
 20
58.085978459085339
 30
0.0
 11
82.249999999999986
 21
62.914021540914661
 31
0.0
  0
LINE
  5
DC4
  8
0
 10
69.75
 20
62.914021540914661
 30
0.0
 11
69.75
 21
58.085978459085339
 31
0.0
  0
LINE
  5
DC5
  8
0
 10
70.784396020285044
 20
56.294351996804572
 30
0.0
 11
74.965603979714956
 21
53.880330455889919
 31
0.0
  0
ARC
  5
DC6
  8
0
 10
75.999999999999886
 20
60.500000000000057
 30
0.0
 40
6.6999999999998492
 50
141.11872698896451
 51
158.88127301103731
  0
LINE
  5
DC7
  8
0
 10
77.034396020285044
 20
53.880330455889919
 30
0.0
 11
81.215603979714956
 21
56.294351996804593
 31
0.0
  0
ARC
  5
DC8
  8
0
 10
76.0
 20
60.500000000000057
 30
0.0
 40
6.7000000000000526
 50
261.1187269889632
 51
278.88127301103691
  0
ARC
  5
DC9
  8
0
 10
76.000000000000057
 20
60.500000000000028
 30
0.0
 40
6.7000000000000526
 50
201.11872698896261
 51
218.88127301103549
  0
ARC
  5
DCA
  8
2
 10
76.0
 20
60.5
 30
0.0
 40
9.9999999999999964
 50
270.0
 51
351.3730734413208
  0
LINE
  5
DCB
  8
2
 10
56.39999999999997
 20
53.0
 30
0.0
 11
56.39999999999997
 21
50.0
 31
0.0
  0
LINE
  5
DCC
  8
2
 10
61.600000000000023
 20
50.0
 30
0.0
 11
61.600000000000023
 21
53.0
 31
0.0
  0
LINE
  5
DCD
  8
2
 10
54.5
 20
58.0
 30
0.0
 11
54.5
 21
53.0
 31
0.0
  0
LINE
  5
DCE
  8
2
 10
63.5
 20
53.0
 30
0.0
 11
63.5
 21
59.0
 31
0.0
  0
LINE
  5
DCF
  8
2
 10
63.5
 20
53.0
 30
0.0
 11
54.5
 21
53.0
 31
0.0
  0
LINE
  5
DD0
  8
1
 10
59.0
 20
60.5
 30
0.0
 11
59.0
 21
48.5
 31
0.0
  0
LINE
  5
DD1
  8
0
 10
102.0
 20
50.0
 30
0.0
 11
50.0
 21
50.0
 31
0.0
  0
LINE
  5
DD2
  8
0
 10
66.113140033357411
 20
59.0
 30
0.0
 11
61.195444572928857
 21
59.0
 31
0.0
  0
LINE
  5
DD3
  8
0
 10
56.856835416555562
 20
58.523741203679037
 30
0.0
 11
53.915347710906701
 21
57.870077269090359
 31
0.0
  0
ARC
  5
DD4
  8
0
 10
55.0
 20
52.989141968170578
 30
0.0
 40
5.0000000000000204
 50
102.528807709151
 51
180.0
  0
LINE
  5
DD5
  8
0
 10
50.0
 20
52.989141968170621
 30
0.0
 11
50.0
 21
50.0
 31
0.0
  0
LINE
  5
DD6
  8
0
 10
65.5
 20
59.0
 30
0.0
 11
65.5
 21
50.0
 31
0.0
  0
ARC
  5
DD7
  8
0
 10
61.195444572928643
 20
39.000000000001421
 30
0.0
 40
19.999999999998579
 50
90.0
 51
102.528807709151
  0
LINE
  5
DD8
  8
0
 10
69.75
 20
62.914021540914661
 30
0.0
 11
69.75
 21
58.085978459085339
 31
0.0
  0
ARC
  5
DD9
  8
0
 10
76.000000000000057
 20
60.500000000000028
 30
0.0
 40
6.7000000000000526
 50
201.11872698896261
 51
218.88127301103549
  0
LINE
  5
DDA
  8
0
 10
70.784396020285044
 20
56.294351996804572
 30
0.0
 11
74.965603979714956
 21
53.880330455889919
 31
0.0
  0
ARC
  5
DDB
  8
0
 10
76.0
 20
60.500000000000057
 30
0.0
 40
6.7000000000000526
 50
261.1187269889632
 51
278.88127301103691
  0
LINE
  5
DDC
  8
0
 10
77.034396020285044
 20
53.880330455889919
 30
0.0
 11
81.215603979714956
 21
56.294351996804593
 31
0.0
  0
ARC
  5
DDD
  8
0
 10
76.0
 20
60.5
 30
0.0
 40
6.6999999999999797
 50
321.11872698896451
 51
338.88127301103742
  0
LINE
  5
DDE
  8
0
 10
82.249999999999986
 20
58.085978459085339
 30
0.0
 11
82.249999999999986
 21
62.914021540914661
 31
0.0
  0
ARC
  5
DDF
  8
0
 10
76.000000000000114
 20
60.500000000000057
 30
0.0
 40
6.6999999999998927
 50
21.118726988962639
 51
38.881273011035461
  0
LINE
  5
DE0
  8
0
 10
81.215603979714956
 20
64.705648003195392
 30
0.0
 11
77.034396020285044
 21
67.119669544110081
 31
0.0
  0
ARC
  5
DE1
  8
0
 10
76.0
 20
60.500000000000057
 30
0.0
 40
6.699999999999938
 50
81.118726988963161
 51
98.881273011036839
  0
LINE
  5
DE2
  8
0
 10
74.965603979714956
 20
67.119669544110081
 30
0.0
 11
70.784396020285044
 21
64.705648003195421
 31
0.0
  0
ARC
  5
DE3
  8
0
 10
75.999999999999886
 20
60.500000000000057
 30
0.0
 40
6.6999999999998492
 50
141.11872698896451
 51
158.88127301103731
  0
CIRCLE
  5
DF8
  8
0
 10
93.0
 20
206.90353982184951
 30
0.0
 40
2.5999999999999992
  0
CIRCLE
  5
DF9
  8
0
 10
93.0
 20
172.90353982184951
 30
0.0
 40
2.6000000000000041
  0
LINE
  5
DFA
  8
0
 10
102.0
 20
164.65353982184951
 30
0.0
 11
102.0
 21
215.15353982184951
 31
0.0
  0
LINE
  5
DFB
  8
0
 10
95.143164583444332
 20
168.94666661586101
 30
0.0
 11
95.479873418391492
 21
169.14851281412299
 31
0.0
  0
LINE
  5
DFC
  8
0
 10
95.479873418391492
 20
169.14851281412299
 30
0.0
 11
95.797708919236129
 21
169.37893703526109
 31
0.0
  0
LINE
  5
DFD
  8
0
 10
95.797708919236129
 20
169.37893703526109
 30
0.0
 11
96.094252165902617
 21
169.6361856118186
 31
0.0
  0
LINE
  5
DFE
  8
0
 10
96.094252165902617
 20
169.6361856118186
 30
0.0
 11
96.367246285226031
 21
169.9183007267967
 31
0.0
  0
LINE
  5
DFF
  8
0
 10
96.367246285226031
 20
169.9183007267967
 30
0.0
 11
96.614613627119979
 21
170.22313531382491
 31
0.0
  0
LINE
  5
E00
  8
0
 10
96.614613627119979
 20
170.22313531382491
 30
0.0
 11
96.834471576748115
 21
170.5483693976316
 31
0.0
  0
LINE
  5
E01
  8
0
 10
96.834471576748115
 20
170.5483693976316
 30
0.0
 11
97.025146882360005
 21
170.8915277504575
 31
0.0
  0
LINE
  5
E02
  8
0
 10
97.025146882360005
 20
170.8915277504575
 30
0.0
 11
97.185188389746997
 21
171.2499987300327
 31
0.0
  0
LINE
  5
E03
  8
0
 10
97.185188389746997
 20
171.2499987300327
 30
0.0
 11
97.313378086402167
 21
171.62105415575201
 31
0.0
  0
LINE
  5
E04
  8
0
 10
97.313378086402167
 20
171.62105415575201
 30
0.0
 11
97.408740371330907
 21
172.00187007177641
 31
0.0
  0
LINE
  5
E05
  8
0
 10
97.408740371330907
 20
172.00187007177641
 30
0.0
 11
97.470549479963594
 21
172.38954823904189
 31
0.0
  0
LINE
  5
E06
  8
0
 10
97.470549479963594
 20
172.38954823904189
 30
0.0
 11
97.49833500766222
 21
172.78113819260909
 31
0.0
  0
LINE
  5
E07
  8
0
 10
97.49833500766222
 20
172.78113819260909
 30
0.0
 11
97.491885489783556
 21
173.1736596964831
 31
0.0
  0
LINE
  5
E08
  8
0
 10
97.491885489783556
 20
173.1736596964831
 30
0.0
 11
97.451250011053048
 21
173.56412542500809
 31
0.0
  0
LINE
  5
E09
  8
0
 10
97.451250011053048
 20
173.56412542500809
 30
0.0
 11
97.376737832000174
 21
173.94956369822069
 31
0.0
  0
LINE
  5
E0A
  8
0
 10
97.376737832000174
 20
173.94956369822069
 30
0.0
 11
97.268916035299185
 21
174.32704109812761
 31
0.0
  0
LINE
  5
E0B
  8
0
 10
97.268916035299185
 20
174.32704109812761
 30
0.0
 11
97.128605209927613
 21
174.69368479378849
 31
0.0
  0
LINE
  5
E0C
  8
0
 10
97.128605209927613
 20
174.69368479378849
 30
0.0
 11
96.956873205988529
 21
175.04670440529381
 31
0.0
  0
LINE
  5
E0D
  8
0
 10
96.956873205988529
 20
175.04670440529381
 30
0.0
 11
96.755027007726483
 21
175.383413240241
 31
0.0
  0
LINE
  5
E0E
  8
0
 10
96.755027007726483
 20
175.383413240241
 30
0.0
 11
96.524602786588389
 21
175.70124874108569
 31
0.0
  0
LINE
  5
E0F
  8
0
 10
96.524602786588389
 20
175.70124874108569
 30
0.0
 11
96.267354210030931
 21
175.99779198775221
 31
0.0
  0
LINE
  5
E10
  8
0
 10
96.267354210030931
 20
175.99779198775221
 30
0.0
 11
95.985239095052805
 21
176.27078610707559
 31
0.0
  0
LINE
  5
E11
  8
0
 10
95.985239095052805
 20
176.27078610707559
 30
0.0
 11
95.680404508024651
 21
176.51815344896951
 31
0.0
  0
LINE
  5
E12
  8
0
 10
95.680404508024651
 20
176.51815344896951
 30
0.0
 11
95.355170424217917
 21
176.73801139859771
 31
0.0
  0
LINE
  5
E13
  8
0
 10
95.355170424217917
 20
176.73801139859771
 30
0.0
 11
95.143164583444332
 21
176.86041302783809
 31
0.0
  0
LINE
  5
E14
  8
0
 10
95.143164583444332
 20
202.94666661586101
 30
0.0
 11
95.479873418391492
 21
203.14851281412299
 31
0.0
  0
LINE
  5
E15
  8
0
 10
95.479873418391492
 20
203.14851281412299
 30
0.0
 11
95.797708919236129
 21
203.3789370352612
 31
0.0
  0
LINE
  5
E16
  8
0
 10
95.797708919236129
 20
203.3789370352612
 30
0.0
 11
96.094252165902617
 21
203.6361856118186
 31
0.0
  0
LINE
  5
E17
  8
0
 10
96.094252165902617
 20
203.6361856118186
 30
0.0
 11
96.367246285226031
 21
203.91830072679679
 31
0.0
  0
LINE
  5
E18
  8
0
 10
96.367246285226031
 20
203.91830072679679
 30
0.0
 11
96.614613627119979
 21
204.223135313825
 31
0.0
  0
LINE
  5
E19
  8
0
 10
96.614613627119979
 20
204.223135313825
 30
0.0
 11
96.834471576748115
 21
204.5483693976316
 31
0.0
  0
LINE
  5
E1A
  8
0
 10
96.834471576748115
 20
204.5483693976316
 30
0.0
 11
97.025146882360005
 21
204.8915277504575
 31
0.0
  0
LINE
  5
E1B
  8
0
 10
97.025146882360005
 20
204.8915277504575
 30
0.0
 11
97.185188389746997
 21
205.24999873003259
 31
0.0
  0
LINE
  5
E1C
  8
0
 10
97.185188389746997
 20
205.24999873003259
 30
0.0
 11
97.313378086402167
 21
205.62105415575209
 31
0.0
  0
LINE
  5
E1D
  8
0
 10
97.313378086402167
 20
205.62105415575209
 30
0.0
 11
97.408740371330907
 21
206.00187007177641
 31
0.0
  0
LINE
  5
E1E
  8
0
 10
97.408740371330907
 20
206.00187007177641
 30
0.0
 11
97.470549479963594
 21
206.38954823904189
 31
0.0
  0
LINE
  5
E1F
  8
0
 10
97.470549479963594
 20
206.38954823904189
 30
0.0
 11
97.49833500766222
 21
206.78113819260909
 31
0.0
  0
LINE
  5
E20
  8
0
 10
97.49833500766222
 20
206.78113819260909
 30
0.0
 11
97.491885489783556
 21
207.1736596964831
 31
0.0
  0
LINE
  5
E21
  8
0
 10
97.491885489783556
 20
207.1736596964831
 30
0.0
 11
97.451250011053048
 21
207.5641254250082
 31
0.0
  0
LINE
  5
E22
  8
0
 10
97.451250011053048
 20
207.5641254250082
 30
0.0
 11
97.376737832000174
 21
207.9495636982208
 31
0.0
  0
LINE
  5
E23
  8
0
 10
97.376737832000174
 20
207.9495636982208
 30
0.0
 11
97.268916035299185
 21
208.32704109812769
 31
0.0
  0
LINE
  5
E24
  8
0
 10
97.268916035299185
 20
208.32704109812769
 30
0.0
 11
97.128605209927613
 21
208.69368479378849
 31
0.0
  0
LINE
  5
E25
  8
0
 10
97.128605209927613
 20
208.69368479378849
 30
0.0
 11
96.956873205988529
 21
209.04670440529389
 31
0.0
  0
LINE
  5
E26
  8
0
 10
96.956873205988529
 20
209.04670440529389
 30
0.0
 11
96.755027007726483
 21
209.383413240241
 31
0.0
  0
LINE
  5
E27
  8
0
 10
96.755027007726483
 20
209.383413240241
 30
0.0
 11
96.524602786588389
 21
209.70124874108569
 31
0.0
  0
LINE
  5
E28
  8
0
 10
96.524602786588389
 20
209.70124874108569
 30
0.0
 11
96.267354210030931
 21
209.99779198775221
 31
0.0
  0
LINE
  5
E29
  8
0
 10
96.267354210030931
 20
209.99779198775221
 30
0.0
 11
95.985239095052805
 21
210.27078610707551
 31
0.0
  0
LINE
  5
E2A
  8
0
 10
95.985239095052805
 20
210.27078610707551
 30
0.0
 11
95.680404508024651
 21
210.5181534489696
 31
0.0
  0
LINE
  5
E2B
  8
0
 10
95.680404508024651
 20
210.5181534489696
 30
0.0
 11
95.355170424217917
 21
210.73801139859771
 31
0.0
  0
LINE
  5
E2C
  8
0
 10
95.355170424217917
 20
210.73801139859771
 30
0.0
 11
95.143164583444332
 21
210.86041302783809
 31
0.0
  0
LINE
  5
E2D
  8
0
 10
95.143164583444332
 20
210.86041302783809
 30
0.0
 11
94.811004123771625
 21
211.02303785725169
 31
0.0
  0
LINE
  5
E2E
  8
0
 10
94.811004123771625
 20
211.02303785725169
 30
0.0
 11
94.463650938649437
 21
211.15885719306769
 31
0.0
  0
LINE
  5
E2F
  8
0
 10
94.463650938649437
 20
211.15885719306769
 30
0.0
 11
94.097764698760329
 21
211.26758756060721
 31
0.0
  0
LINE
  5
E30
  8
0
 10
94.097764698760329
 20
211.26758756060721
 30
0.0
 11
93.720304093199502
 21
211.3455170857851
 31
0.0
  0
LINE
  5
E31
  8
0
 10
93.720304093199502
 20
211.3455170857851
 30
0.0
 11
93.349849775597534
 21
211.3899197806264
 31
0.0
  0
LINE
  5
E32
  8
0
 10
93.349849775597534
 20
211.3899197806264
 30
0.0
 11
92.973450450598421
 21
211.40346150132649
 31
0.0
  0
LINE
  5
E33
  8
0
 10
92.973450450598421
 20
211.40346150132649
 30
0.0
 11
92.587890853698809
 21
211.3846296503996
 31
0.0
  0
LINE
  5
E34
  8
0
 10
92.587890853698809
 20
211.3846296503996
 30
0.0
 11
92.201713718883738
 21
211.33216703729479
 31
0.0
  0
LINE
  5
E35
  8
0
 10
92.201713718883738
 20
211.33216703729479
 30
0.0
 11
91.844854215968155
 21
211.25275103971811
 31
0.0
  0
LINE
  5
E36
  8
0
 10
91.844854215968155
 20
211.25275103971811
 30
0.0
 11
91.143468881480146
 21
211.00272171656559
 31
0.0
  0
LINE
  5
E37
  8
0
 10
91.143468881480146
 20
211.00272171656559
 30
0.0
 11
90.804555427071136
 21
210.83164663394069
 31
0.0
  0
LINE
  5
E38
  8
0
 10
95.143164583444332
 20
176.86041302783809
 30
0.0
 11
94.811004123771625
 21
177.02303785725169
 31
0.0
  0
LINE
  5
E39
  8
0
 10
94.811004123771625
 20
177.02303785725169
 30
0.0
 11
94.463650938649437
 21
177.15885719306769
 31
0.0
  0
LINE
  5
E3A
  8
0
 10
94.463650938649437
 20
177.15885719306769
 30
0.0
 11
94.097764698760329
 21
177.26758756060721
 31
0.0
  0
LINE
  5
E3B
  8
0
 10
94.097764698760329
 20
177.26758756060721
 30
0.0
 11
93.720304093199502
 21
177.34551708578499
 31
0.0
  0
LINE
  5
E3C
  8
0
 10
93.720304093199502
 20
177.34551708578499
 30
0.0
 11
93.349849775597534
 21
177.38991978062629
 31
0.0
  0
LINE
  5
E3D
  8
0
 10
93.349849775597534
 20
177.38991978062629
 30
0.0
 11
92.973450450598421
 21
177.40346150132649
 31
0.0
  0
LINE
  5
E3E
  8
0
 10
92.973450450598421
 20
177.40346150132649
 30
0.0
 11
92.587890853698809
 21
177.3846296503996
 31
0.0
  0
LINE
  5
E3F
  8
0
 10
92.587890853698809
 20
177.3846296503996
 30
0.0
 11
92.201713718883738
 21
177.33216703729471
 31
0.0
  0
LINE
  5
E40
  8
0
 10
92.201713718883738
 20
177.33216703729471
 30
0.0
 11
91.844854215968155
 21
177.25275103971799
 31
0.0
  0
LINE
  5
E41
  8
0
 10
91.844854215968155
 20
177.25275103971799
 30
0.0
 11
91.143468881480146
 21
177.0027217165655
 31
0.0
  0
LINE
  5
E42
  8
0
 10
91.143468881480146
 20
177.0027217165655
 30
0.0
 11
90.804555427071136
 21
176.83164663394069
 31
0.0
  0
LINE
  5
E43
  8
0
 10
90.804555427071136
 20
202.9754330097584
 30
0.0
 11
91.130791970001724
 21
202.81012299228169
 31
0.0
  0
LINE
  5
E44
  8
0
 10
91.130791970001724
 20
202.81012299228169
 30
0.0
 11
91.471675731903645
 21
202.6710198949564
 31
0.0
  0
LINE
  5
E45
  8
0
 10
91.471675731903645
 20
202.6710198949564
 30
0.0
 11
91.830333153470235
 21
202.5582113569198
 31
0.0
  0
LINE
  5
E46
  8
0
 10
91.830333153470235
 20
202.5582113569198
 30
0.0
 11
92.199547422852149
 21
202.475303641186
 31
0.0
  0
LINE
  5
E47
  8
0
 10
92.199547422852149
 20
202.475303641186
 30
0.0
 11
92.560692158397899
 21
202.42503464486171
 31
0.0
  0
LINE
  5
E48
  8
0
 10
92.560692158397899
 20
202.42503464486171
 30
0.0
 11
93.300244218040859
 21
202.41356728189649
 31
0.0
  0
LINE
  5
E49
  8
0
 10
93.300244218040859
 20
202.41356728189649
 30
0.0
 11
93.673590111728117
 21
202.4542391620399
 31
0.0
  0
LINE
  5
E4A
  8
0
 10
93.673590111728117
 20
202.4542391620399
 30
0.0
 11
94.049824849450786
 21
202.52771215322781
 31
0.0
  0
LINE
  5
E4B
  8
0
 10
94.049824849450786
 20
202.52771215322781
 30
0.0
 11
94.420248295890815
 21
202.63354043332279
 31
0.0
  0
LINE
  5
E4C
  8
0
 10
94.420248295890815
 20
202.63354043332279
 30
0.0
 11
94.787546192720853
 21
202.77380876415481
 31
0.0
  0
LINE
  5
E4D
  8
0
 10
94.787546192720853
 20
202.77380876415481
 30
0.0
 11
95.143164583444332
 21
202.94666661586101
 31
0.0
  0
LINE
  5
E4E
  8
0
 10
90.804555427071136
 20
168.97543300975829
 30
0.0
 11
91.130791970001724
 21
168.81012299228161
 31
0.0
  0
LINE
  5
E4F
  8
0
 10
91.130791970001724
 20
168.81012299228161
 30
0.0
 11
91.471675731903645
 21
168.6710198949564
 31
0.0
  0
LINE
  5
E50
  8
0
 10
91.471675731903645
 20
168.6710198949564
 30
0.0
 11
91.830333153470306
 21
168.55821135691971
 31
0.0
  0
LINE
  5
E51
  8
0
 10
91.830333153470306
 20
168.55821135691971
 30
0.0
 11
92.199547422852234
 21
168.475303641186
 31
0.0
  0
LINE
  5
E52
  8
0
 10
92.199547422852234
 20
168.475303641186
 30
0.0
 11
92.560692158397899
 21
168.42503464486171
 31
0.0
  0
LINE
  5
E53
  8
0
 10
92.560692158397899
 20
168.42503464486171
 30
0.0
 11
93.300244218040859
 21
168.41356728189641
 31
0.0
  0
LINE
  5
E54
  8
0
 10
93.300244218040859
 20
168.41356728189641
 30
0.0
 11
93.673590111728117
 21
168.4542391620399
 31
0.0
  0
LINE
  5
E55
  8
0
 10
93.673590111728117
 20
168.4542391620399
 30
0.0
 11
94.049824849450786
 21
168.52771215322781
 31
0.0
  0
LINE
  5
E56
  8
0
 10
94.049824849450786
 20
168.52771215322781
 30
0.0
 11
94.420248295890815
 21
168.63354043332271
 31
0.0
  0
LINE
  5
E57
  8
0
 10
94.420248295890815
 20
168.63354043332271
 30
0.0
 11
94.787546192720853
 21
168.77380876415469
 31
0.0
  0
LINE
  5
E58
  8
0
 10
94.787546192720853
 20
168.77380876415469
 30
0.0
 11
95.143164583444332
 21
168.94666661586101
 31
0.0
  0
LINE
  5
E59
  8
0
 10
86.5
 20
163.40353982184951
 30
0.0
 11
66.0
 21
163.40353982184951
 31
0.0
  0
LINE
  5
E5A
  8
0
 10
65.5
 20
177.40353982184951
 30
0.0
 11
86.5
 21
177.40353982184951
 31
0.0
  0
LINE
  5
E5C
  8
0
 10
86.5
 20
216.40353982184959
 30
0.0
 11
66.0
 21
216.40353982184959
 31
0.0
  0
ARC
  5
E5D
  8
0
 10
93.0
 20
172.90353982184951
 30
0.0
 40
4.4999999999999982
 50
119.201110095852
 51
240.79888990414801
  0
ARC
  5
E5E
  8
0
 10
93.0
 20
206.90353982184951
 30
0.0
 40
4.5000000000000009
 50
119.201110095852
 51
240.79888990414801
  0
LINE
  5
E5F
  8
0
 10
86.5
 20
215.15353982184951
 30
0.0
 11
102.0
 21
215.15353982184951
 31
0.0
  0
LINE
  5
E60
  8
0
 10
86.5
 20
216.40353982184959
 30
0.0
 11
86.5
 21
215.15353982184951
 31
0.0
  0
LINE
  5
E61
  8
0
 10
86.5
 20
177.40353982184951
 30
0.0
 11
86.5
 21
202.40353982184951
 31
0.0
  0
LINE
  5
E62
  8
0
 10
86.5
 20
164.65353982184951
 30
0.0
 11
86.5
 21
163.40353982184951
 31
0.0
  0
LINE
  5
E63
  8
0
 10
102.0
 20
164.65353982184951
 30
0.0
 11
86.5
 21
164.65353982184951
 31
0.0
  0
LINE
  5
E64
  8
0
 10
86.0
 20
202.40353982184951
 30
0.0
 11
86.0
 21
216.40353982184959
 31
0.0
  0
LINE
  5
E65
  8
0
 10
66.0
 20
216.40353982184959
 30
0.0
 11
66.0
 21
202.40353982184951
 31
0.0
  0
LINE
  5
E66
  8
0
 10
86.0
 20
163.40353982184951
 30
0.0
 11
86.0
 21
177.40353982184951
 31
0.0
  0
LINE
  5
E67
  8
0
 10
66.0
 20
177.40353982184951
 30
0.0
 11
66.0
 21
163.40353982184951
 31
0.0
  0
LINE
  5
E71
  8
1
 10
59.0
 20
201.30353982184951
 30
0.0
 11
59.0
 21
212.50353982184961
 31
0.0
  0
CIRCLE
  5
E74
  8
0
 10
59.0
 20
206.90353982184951
 30
0.0
 40
2.5999999999999992
  0
CIRCLE
  5
E75
  8
0
 10
59.0
 20
172.90353982184951
 30
0.0
 40
2.6000000000000041
  0
LINE
  5
E76
  8
0
 10
50.0
 20
164.65353982184951
 30
0.0
 11
50.0
 21
215.15353982184951
 31
0.0
  0
LINE
  5
E77
  8
0
 10
56.856835416555562
 20
176.86041302783801
 30
0.0
 11
56.520126581608388
 21
176.65856682957599
 31
0.0
  0
LINE
  5
E78
  8
0
 10
56.520126581608388
 20
176.65856682957599
 30
0.0
 11
56.202291080763757
 21
176.42814260843781
 31
0.0
  0
LINE
  5
E79
  8
0
 10
56.202291080763757
 20
176.42814260843781
 30
0.0
 11
55.905747834097269
 21
176.17089403188041
 31
0.0
  0
LINE
  5
E7A
  8
0
 10
55.905747834097269
 20
176.17089403188041
 30
0.0
 11
55.632753714773848
 21
175.8887789169022
 31
0.0
  0
LINE
  5
E7B
  8
0
 10
55.632753714773848
 20
175.8887789169022
 30
0.0
 11
55.385386372879957
 21
175.58394432987399
 31
0.0
  0
LINE
  5
E7C
  8
0
 10
55.385386372879957
 20
175.58394432987399
 30
0.0
 11
55.165528423251772
 21
175.2587102460673
 31
0.0
  0
LINE
  5
E7D
  8
0
 10
55.165528423251772
 20
175.2587102460673
 30
0.0
 11
54.974853117639888
 21
174.91555189324151
 31
0.0
  0
LINE
  5
E7E
  8
0
 10
54.974853117639888
 20
174.91555189324151
 30
0.0
 11
54.814811610252939
 21
174.55708091366631
 31
0.0
  0
LINE
  5
E7F
  8
0
 10
54.814811610252939
 20
174.55708091366631
 30
0.0
 11
54.686621913597769
 21
174.18602548794689
 31
0.0
  0
LINE
  5
E80
  8
0
 10
54.686621913597769
 20
174.18602548794689
 30
0.0
 11
54.591259628669029
 21
173.8052095719226
 31
0.0
  0
LINE
  5
E81
  8
0
 10
54.591259628669029
 20
173.8052095719226
 30
0.0
 11
54.529450520036391
 21
173.4175314046571
 31
0.0
  0
LINE
  5
E82
  8
0
 10
54.529450520036391
 20
173.4175314046571
 30
0.0
 11
54.501664992337787
 21
173.02594145108981
 31
0.0
  0
LINE
  5
E83
  8
0
 10
54.501664992337787
 20
173.02594145108981
 30
0.0
 11
54.508114510216437
 21
172.63341994721591
 31
0.0
  0
LINE
  5
E84
  8
0
 10
54.508114510216437
 20
172.63341994721591
 30
0.0
 11
54.548749988947009
 21
172.24295421869081
 31
0.0
  0
LINE
  5
E85
  8
0
 10
54.548749988947009
 20
172.24295421869081
 30
0.0
 11
54.623262167999883
 21
171.85751594547821
 31
0.0
  0
LINE
  5
E86
  8
0
 10
54.623262167999883
 20
171.85751594547821
 30
0.0
 11
54.731083964700872
 21
171.48003854557129
 31
0.0
  0
LINE
  5
E87
  8
0
 10
54.731083964700872
 20
171.48003854557129
 30
0.0
 11
54.871394790072429
 21
171.11339484991041
 31
0.0
  0
LINE
  5
E88
  8
0
 10
54.871394790072429
 20
171.11339484991041
 30
0.0
 11
55.043126794011521
 21
170.76037523840509
 31
0.0
  0
LINE
  5
E89
  8
0
 10
55.043126794011521
 20
170.76037523840509
 30
0.0
 11
55.244972992273567
 21
170.42366640345799
 31
0.0
  0
LINE
  5
E8A
  8
0
 10
55.244972992273567
 20
170.42366640345799
 30
0.0
 11
55.475397213411732
 21
170.10583090261329
 31
0.0
  0
LINE
  5
E8B
  8
0
 10
55.475397213411732
 20
170.10583090261329
 30
0.0
 11
55.732645789969119
 21
169.8092876559468
 31
0.0
  0
LINE
  5
E8C
  8
0
 10
55.732645789969119
 20
169.8092876559468
 30
0.0
 11
56.014760904947309
 21
169.53629353662339
 31
0.0
  0
LINE
  5
E8D
  8
0
 10
56.014760904947309
 20
169.53629353662339
 30
0.0
 11
56.319595491975463
 21
169.2889261947295
 31
0.0
  0
LINE
  5
E8E
  8
0
 10
56.319595491975463
 20
169.2889261947295
 30
0.0
 11
56.644829575782239
 21
169.06906824510131
 31
0.0
  0
LINE
  5
E8F
  8
0
 10
56.644829575782239
 20
169.06906824510131
 30
0.0
 11
56.856835416555562
 21
168.94666661586109
 31
0.0
  0
LINE
  5
E90
  8
0
 10
56.856835416555562
 20
210.86041302783801
 30
0.0
 11
56.520126581608388
 21
210.65856682957599
 31
0.0
  0
LINE
  5
E91
  8
0
 10
56.520126581608388
 20
210.65856682957599
 30
0.0
 11
56.202291080763757
 21
210.42814260843781
 31
0.0
  0
LINE
  5
E92
  8
0
 10
56.202291080763757
 20
210.42814260843781
 30
0.0
 11
55.905747834097269
 21
210.17089403188041
 31
0.0
  0
LINE
  5
E93
  8
0
 10
55.905747834097269
 20
210.17089403188041
 30
0.0
 11
55.632753714773912
 21
209.8887789169022
 31
0.0
  0
LINE
  5
E94
  8
0
 10
55.632753714773912
 20
209.8887789169022
 30
0.0
 11
55.385386372879957
 21
209.5839443298741
 31
0.0
  0
LINE
  5
E95
  8
0
 10
55.385386372879957
 20
209.5839443298741
 30
0.0
 11
55.165528423251772
 21
209.2587102460673
 31
0.0
  0
LINE
  5
E96
  8
0
 10
55.165528423251772
 20
209.2587102460673
 30
0.0
 11
54.974853117639888
 21
208.91555189324151
 31
0.0
  0
LINE
  5
E97
  8
0
 10
54.974853117639888
 20
208.91555189324151
 30
0.0
 11
54.814811610252939
 21
208.55708091366631
 31
0.0
  0
LINE
  5
E98
  8
0
 10
54.814811610252939
 20
208.55708091366631
 30
0.0
 11
54.686621913597769
 21
208.18602548794689
 31
0.0
  0
LINE
  5
E99
  8
0
 10
54.686621913597769
 20
208.18602548794689
 30
0.0
 11
54.591259628669029
 21
207.8052095719226
 31
0.0
  0
LINE
  5
E9A
  8
0
 10
54.591259628669029
 20
207.8052095719226
 30
0.0
 11
54.529450520036391
 21
207.4175314046571
 31
0.0
  0
LINE
  5
E9B
  8
0
 10
54.529450520036391
 20
207.4175314046571
 30
0.0
 11
54.501664992337787
 21
207.02594145108981
 31
0.0
  0
LINE
  5
E9C
  8
0
 10
54.501664992337787
 20
207.02594145108981
 30
0.0
 11
54.508114510216437
 21
206.63341994721591
 31
0.0
  0
LINE
  5
E9D
  8
0
 10
54.508114510216437
 20
206.63341994721591
 30
0.0
 11
54.548749988947009
 21
206.24295421869081
 31
0.0
  0
LINE
  5
E9E
  8
0
 10
54.548749988947009
 20
206.24295421869081
 30
0.0
 11
54.623262167999883
 21
205.85751594547821
 31
0.0
  0
LINE
  5
E9F
  8
0
 10
54.623262167999883
 20
205.85751594547821
 30
0.0
 11
54.731083964700872
 21
205.48003854557129
 31
0.0
  0
LINE
  5
EA0
  8
0
 10
54.731083964700872
 20
205.48003854557129
 30
0.0
 11
54.871394790072429
 21
205.11339484991041
 31
0.0
  0
LINE
  5
EA1
  8
0
 10
54.871394790072429
 20
205.11339484991041
 30
0.0
 11
55.043126794011521
 21
204.76037523840509
 31
0.0
  0
LINE
  5
EA2
  8
0
 10
55.043126794011521
 20
204.76037523840509
 30
0.0
 11
55.244972992273567
 21
204.42366640345799
 31
0.0
  0
LINE
  5
EA3
  8
0
 10
55.244972992273567
 20
204.42366640345799
 30
0.0
 11
55.475397213411732
 21
204.10583090261329
 31
0.0
  0
LINE
  5
EA4
  8
0
 10
55.475397213411732
 20
204.10583090261329
 30
0.0
 11
55.732645789969119
 21
203.8092876559468
 31
0.0
  0
LINE
  5
EA5
  8
0
 10
55.732645789969119
 20
203.8092876559468
 30
0.0
 11
56.014760904947309
 21
203.5362935366235
 31
0.0
  0
LINE
  5
EA6
  8
0
 10
56.014760904947309
 20
203.5362935366235
 30
0.0
 11
56.31959549197552
 21
203.2889261947295
 31
0.0
  0
LINE
  5
EA7
  8
0
 10
56.31959549197552
 20
203.2889261947295
 30
0.0
 11
56.644829575782239
 21
203.06906824510131
 31
0.0
  0
LINE
  5
EA8
  8
0
 10
56.644829575782239
 20
203.06906824510131
 30
0.0
 11
56.856835416555562
 21
202.94666661586109
 31
0.0
  0
LINE
  5
EA9
  8
0
 10
61.195444572928857
 20
210.83164663394069
 30
0.0
 11
60.869208029998269
 21
210.99695665141749
 31
0.0
  0
LINE
  5
EAA
  8
0
 10
60.869208029998269
 20
210.99695665141749
 30
0.0
 11
60.528324268096362
 21
211.1360597487427
 31
0.0
  0
LINE
  5
EAB
  8
0
 10
60.528324268096362
 20
211.1360597487427
 30
0.0
 11
60.169666846529701
 21
211.24886828677941
 31
0.0
  0
LINE
  5
EAC
  8
0
 10
60.169666846529701
 20
211.24886828677941
 30
0.0
 11
59.800452577147837
 21
211.3317760025131
 31
0.0
  0
LINE
  5
EAD
  8
0
 10
59.800452577147837
 20
211.3317760025131
 30
0.0
 11
59.439307841602101
 21
211.38204499883739
 31
0.0
  0
LINE
  5
EAE
  8
0
 10
59.439307841602101
 20
211.38204499883739
 30
0.0
 11
58.699755781959141
 21
211.39351236180269
 31
0.0
  0
LINE
  5
EAF
  8
0
 10
58.699755781959141
 20
211.39351236180269
 30
0.0
 11
58.326409888271883
 21
211.3528404816592
 31
0.0
  0
LINE
  5
EB0
  8
0
 10
58.326409888271883
 20
211.3528404816592
 30
0.0
 11
57.950175150549221
 21
211.27936749047129
 31
0.0
  0
LINE
  5
EB1
  8
0
 10
57.950175150549221
 20
211.27936749047129
 30
0.0
 11
57.579751704109192
 21
211.17353921037639
 31
0.0
  0
LINE
  5
EB2
  8
0
 10
57.579751704109192
 20
211.17353921037639
 30
0.0
 11
57.212453807279019
 21
211.0332708795444
 31
0.0
  0
LINE
  5
EB3
  8
0
 10
57.212453807279019
 20
211.0332708795444
 30
0.0
 11
56.856835416555562
 21
210.86041302783801
 31
0.0
  0
LINE
  5
EB4
  8
0
 10
61.195444572928857
 20
176.83164663394069
 30
0.0
 11
60.869208029998269
 21
176.99695665141749
 31
0.0
  0
LINE
  5
EB5
  8
0
 10
60.869208029998269
 20
176.99695665141749
 30
0.0
 11
60.528324268096362
 21
177.1360597487427
 31
0.0
  0
LINE
  5
EB6
  8
0
 10
60.528324268096362
 20
177.1360597487427
 30
0.0
 11
60.169666846529701
 21
177.2488682867793
 31
0.0
  0
LINE
  5
EB7
  8
0
 10
60.169666846529701
 20
177.2488682867793
 30
0.0
 11
59.80045257714778
 21
177.3317760025131
 31
0.0
  0
LINE
  5
EB8
  8
0
 10
59.80045257714778
 20
177.3317760025131
 30
0.0
 11
59.439307841602101
 21
177.38204499883739
 31
0.0
  0
LINE
  5
EB9
  8
0
 10
59.439307841602101
 20
177.38204499883739
 30
0.0
 11
58.699755781959141
 21
177.39351236180261
 31
0.0
  0
LINE
  5
EBA
  8
0
 10
58.699755781959141
 20
177.39351236180261
 30
0.0
 11
58.326409888271883
 21
177.3528404816592
 31
0.0
  0
LINE
  5
EBB
  8
0
 10
58.326409888271883
 20
177.3528404816592
 30
0.0
 11
57.950175150549221
 21
177.27936749047129
 31
0.0
  0
LINE
  5
EBC
  8
0
 10
57.950175150549221
 20
177.27936749047129
 30
0.0
 11
57.579751704109128
 21
177.17353921037639
 31
0.0
  0
LINE
  5
EBD
  8
0
 10
57.579751704109128
 20
177.17353921037639
 30
0.0
 11
57.212453807279019
 21
177.03327087954429
 31
0.0
  0
LINE
  5
EBE
  8
0
 10
57.212453807279019
 20
177.03327087954429
 30
0.0
 11
56.856835416555562
 21
176.86041302783801
 31
0.0
  0
LINE
  5
EBF
  8
0
 10
56.856835416555562
 20
202.94666661586109
 30
0.0
 11
57.188995876228212
 21
202.7840417864474
 31
0.0
  0
LINE
  5
EC0
  8
0
 10
57.188995876228212
 20
202.7840417864474
 30
0.0
 11
57.53634906135045
 21
202.64822245063141
 31
0.0
  0
LINE
  5
EC1
  8
0
 10
57.53634906135045
 20
202.64822245063141
 30
0.0
 11
57.902235301239557
 21
202.539492083092
 31
0.0
  0
LINE
  5
EC2
  8
0
 10
57.902235301239557
 20
202.539492083092
 30
0.0
 11
58.279695906800328
 21
202.46156255791411
 31
0.0
  0
LINE
  5
EC3
  8
0
 10
58.279695906800328
 20
202.46156255791411
 30
0.0
 11
58.650150224402289
 21
202.41715986307281
 31
0.0
  0
LINE
  5
EC4
  8
0
 10
58.650150224402289
 20
202.41715986307281
 30
0.0
 11
59.026549549401459
 21
202.40361814237261
 31
0.0
  0
LINE
  5
EC5
  8
0
 10
59.026549549401459
 20
202.40361814237261
 30
0.0
 11
59.41210914630102
 21
202.42244999329949
 31
0.0
  0
LINE
  5
EC6
  8
0
 10
59.41210914630102
 20
202.42244999329949
 30
0.0
 11
59.798286281116077
 21
202.47491260640439
 31
0.0
  0
LINE
  5
EC7
  8
0
 10
59.798286281116077
 20
202.47491260640439
 30
0.0
 11
60.155145784031731
 21
202.55432860398099
 31
0.0
  0
LINE
  5
EC8
  8
0
 10
60.155145784031731
 20
202.55432860398099
 30
0.0
 11
60.85653111851979
 21
202.80435792713359
 31
0.0
  0
LINE
  5
EC9
  8
0
 10
60.85653111851979
 20
202.80435792713359
 30
0.0
 11
61.195444572928857
 21
202.9754330097584
 31
0.0
  0
LINE
  5
ECA
  8
0
 10
56.856835416555562
 20
168.94666661586109
 30
0.0
 11
57.188995876228212
 21
168.7840417864474
 31
0.0
  0
LINE
  5
ECB
  8
0
 10
57.188995876228212
 20
168.7840417864474
 30
0.0
 11
57.53634906135045
 21
168.64822245063149
 31
0.0
  0
LINE
  5
ECC
  8
0
 10
57.53634906135045
 20
168.64822245063149
 30
0.0
 11
57.902235301239557
 21
168.53949208309189
 31
0.0
  0
LINE
  5
ECD
  8
0
 10
57.902235301239557
 20
168.53949208309189
 30
0.0
 11
58.279695906800328
 21
168.46156255791411
 31
0.0
  0
LINE
  5
ECE
  8
0
 10
58.279695906800328
 20
168.46156255791411
 30
0.0
 11
58.650150224402289
 21
168.4171598630727
 31
0.0
  0
LINE
  5
ECF
  8
0
 10
58.650150224402289
 20
168.4171598630727
 30
0.0
 11
59.026549549401459
 21
168.40361814237261
 31
0.0
  0
LINE
  5
ED0
  8
0
 10
59.026549549401459
 20
168.40361814237261
 30
0.0
 11
59.41210914630102
 21
168.42244999329941
 31
0.0
  0
LINE
  5
ED1
  8
0
 10
59.41210914630102
 20
168.42244999329941
 30
0.0
 11
59.798286281116077
 21
168.4749126064043
 31
0.0
  0
LINE
  5
ED2
  8
0
 10
59.798286281116077
 20
168.4749126064043
 30
0.0
 11
60.155145784031731
 21
168.55432860398099
 31
0.0
  0
LINE
  5
ED3
  8
0
 10
60.155145784031731
 20
168.55432860398099
 30
0.0
 11
60.85653111851979
 21
168.80435792713351
 31
0.0
  0
LINE
  5
ED4
  8
0
 10
60.85653111851979
 20
168.80435792713351
 30
0.0
 11
61.195444572928857
 21
168.97543300975829
 31
0.0
  0
LINE
  5
ED6
  8
0
 10
65.5
 20
202.40353982184951
 30
0.0
 11
86.5
 21
202.40353982184951
 31
0.0
  0
LINE
  5
ED7
  8
0
 10
65.5
 20
164.65353982184951
 30
0.0
 11
50.0
 21
164.65353982184951
 31
0.0
  0
ARC
  5
ED8
  8
0
 10
59.0
 20
172.90353982184951
 30
0.0
 40
4.4999999999999929
 50
299.20111009585202
 51
60.798889904147963
  0
LINE
  5
ED9
  8
0
 10
65.5
 20
177.40353982184951
 30
0.0
 11
65.5
 21
164.65353982184951
 31
0.0
  0
LINE
  5
EDA
  8
0
 10
65.5
 20
215.15353982184951
 30
0.0
 11
65.5
 21
202.40353982184951
 31
0.0
  0
LINE
  5
EDB
  8
0
 10
50.0
 20
215.15353982184951
 30
0.0
 11
65.5
 21
215.15353982184951
 31
0.0
  0
ARC
  5
EDC
  8
0
 10
59.0
 20
206.90353982184951
 30
0.0
 40
4.4999999999999982
 50
299.20111009585202
 51
60.798889904147963
  0
LINE
  5
EDD
  8
0
 10
86.0
 20
177.40353982184951
 30
0.0
 11
86.0
 21
202.40353982184951
 31
0.0
  0
LINE
  5
EDE
  8
0
 10
66.0
 20
202.40353982184951
 30
0.0
 11
66.0
 21
177.40353982184951
 31
0.0
  0
LINE
  5
EF7
  8
2
 10
169.91220393963599
 20
58.879136621977807
 30
0.0
 11
169.91220393965031
 21
53.0
 31
0.0
  0
LINE
  5
EF8
  8
2
 10
194.9122039396502
 20
58.87913543397201
 30
0.0
 11
194.9122039396502
 21
52.999999999999979
 31
0.0
  0
LINE
  5
EF9
  8
2
 10
196.8122039396502
 20
53.0
 30
0.0
 11
196.8122039396502
 21
50.0
 31
0.0
  0
LINE
  5
EFA
  8
2
 10
202.01220393965031
 20
50.0
 30
0.0
 11
202.01220393965031
 21
53.0
 31
0.0
  0
LINE
  5
EFB
  8
2
 10
162.8122039396502
 20
53.0
 30
0.0
 11
162.8122039396502
 21
50.0
 31
0.0
  0
LINE
  5
EFC
  8
2
 10
168.01220393965019
 20
50.0
 30
0.0
 11
168.01220393965019
 21
53.0
 31
0.0
  0
LINE
  5
EFD
  8
2
 10
203.9122039396502
 20
53.0
 30
0.0
 11
194.9122039396502
 21
53.0
 31
0.0
  0
LINE
  5
EFE
  8
2
 10
203.9122039396502
 20
53.0
 30
0.0
 11
203.91220393963599
 21
58.879136621977807
 31
0.0
  0
LINE
  5
EFF
  8
2
 10
169.9122039396502
 20
53.0
 30
0.0
 11
160.9122039396502
 21
53.0
 31
0.0
  0
LINE
  5
F00
  8
2
 10
160.9122039396502
 20
58.87913543397201
 30
0.0
 11
160.9122039396502
 21
53.0
 31
0.0
  0
LINE
  5
F01
  8
1
 10
165.4122039396502
 20
60.5
 30
0.0
 11
165.4122039396502
 21
48.5
 31
0.0
  0
LINE
  5
F02
  8
0
 10
194.9122039396502
 20
59.0
 30
0.0
 11
194.9122039396502
 21
70.5
 31
0.0
  0
LINE
  5
F03
  8
0
 10
208.9122039396502
 20
50.0
 30
0.0
 11
208.9122039396502
 21
70.5
 31
0.0
  0
LINE
  5
F05
  8
0
 10
155.9122039396502
 20
50.0
 30
0.0
 11
155.9122039396502
 21
70.5
 31
0.0
  0
LINE
  5
F07
  8
0
 10
169.9122039396502
 20
70.5
 30
0.0
 11
169.9122039396502
 21
59.0
 31
0.0
  0
LINE
  5
F08
  8
0
 10
208.9122039396502
 20
50.0
 30
0.0
 11
155.9122039396502
 21
50.0
 31
0.0
  0
LINE
  5
F09
  8
0
 10
208.9122039396502
 20
59.0
 30
0.0
 11
155.9122039396502
 21
59.0
 31
0.0
  0
LINE
  5
F0A
  8
0
 10
203.36907714563881
 20
58.523741203679037
 30
0.0
 11
203.5317019750523
 21
58.59460050219721
 31
0.0
  0
LINE
  5
F0B
  8
0
 10
203.5317019750523
 20
58.59460050219721
 30
0.0
 11
203.6675213108683
 21
58.662426606020631
 31
0.0
  0
LINE
  5
F0C
  8
0
 10
203.6675213108683
 20
58.662426606020631
 30
0.0
 11
203.7762516784079
 21
58.727006176631562
 31
0.0
  0
LINE
  5
F0D
  8
0
 10
203.7762516784079
 20
58.727006176631562
 30
0.0
 11
203.8541812035858
 21
58.786318750994859
 31
0.0
  0
LINE
  5
F0E
  8
0
 10
203.8541812035858
 20
58.786318750994859
 30
0.0
 11
203.89858389842709
 21
58.837375750823469
 31
0.0
  0
LINE
  5
F0F
  8
0
 10
203.89858389842709
 20
58.837375750823469
 30
0.0
 11
203.91220393963599
 21
58.879136621977807
 31
0.0
  0
LINE
  5
F10
  8
0
 10
195.48409712755901
 20
59.0
 30
0.0
 11
195.3187871100823
 21
58.997339065937183
 31
0.0
  0
LINE
  5
F11
  8
0
 10
195.3187871100823
 20
58.997339065937183
 30
0.0
 11
195.17968401275709
 21
58.988870665920068
 31
0.0
  0
LINE
  5
F12
  8
0
 10
195.17968401275709
 20
58.988870665920068
 30
0.0
 11
195.0668754747204
 21
58.97367717912811
 31
0.0
  0
LINE
  5
F13
  8
0
 10
195.0668754747204
 20
58.97367717912811
 30
0.0
 11
194.98396775898669
 21
58.95129061819577
 31
0.0
  0
LINE
  5
F14
  8
0
 10
194.98396775898669
 20
58.95129061819577
 30
0.0
 11
194.9336987626624
 21
58.922750407031799
 31
0.0
  0
LINE
  5
F15
  8
0
 10
194.9336987626624
 20
58.922750407031799
 30
0.0
 11
194.91280179783541
 21
58.887099305374733
 31
0.0
  0
LINE
  5
F16
  8
0
 10
194.91280179783541
 20
58.887099305374733
 30
0.0
 11
194.9122039396502
 21
58.87913543397201
 31
0.0
  0
LINE
  5
F17
  8
0
 10
203.91220393963599
 20
58.879136621977807
 30
0.0
 11
203.91212561912721
 21
58.882049551716698
 31
0.0
  0
LINE
  5
F18
  8
0
 10
203.91212561912721
 20
58.882049551716698
 30
0.0
 11
203.89329376820021
 21
58.920334202922781
 31
0.0
  0
LINE
  5
F19
  8
0
 10
203.89329376820021
 20
58.920334202922781
 30
0.0
 11
203.8408311550954
 21
58.951139032837681
 31
0.0
  0
LINE
  5
F1A
  8
0
 10
203.8408311550954
 20
58.951139032837681
 30
0.0
 11
203.76141515751871
 21
58.97292613589255
 31
0.0
  0
LINE
  5
F1B
  8
0
 10
203.76141515751871
 20
58.97292613589255
 30
0.0
 11
203.65232225205071
 21
58.988151562597658
 31
0.0
  0
LINE
  5
F1C
  8
0
 10
203.65232225205071
 20
58.988151562597658
 30
0.0
 11
203.51138583436631
 21
58.997128235584732
 31
0.0
  0
LINE
  5
F1D
  8
0
 10
203.51138583436631
 20
58.997128235584732
 30
0.0
 11
203.3403107517413
 21
59.0
 31
0.0
  0
LINE
  5
F1E
  8
0
 10
194.9122039396502
 20
58.87913543397201
 30
0.0
 11
194.9222313996971
 21
58.843677518510219
 31
0.0
  0
LINE
  5
F1F
  8
0
 10
194.9222313996971
 20
58.843677518510219
 30
0.0
 11
194.9629032798405
 21
58.793146288001701
 31
0.0
  0
LINE
  5
F20
  8
0
 10
194.9629032798405
 20
58.793146288001701
 30
0.0
 11
195.0363762710285
 21
58.734949363405242
 31
0.0
  0
LINE
  5
F21
  8
0
 10
195.0363762710285
 20
58.734949363405242
 30
0.0
 11
195.1422045511234
 21
58.670454114696149
 31
0.0
  0
LINE
  5
F22
  8
0
 10
195.1422045511234
 20
58.670454114696149
 30
0.0
 11
195.28247288195541
 21
58.599382249467681
 31
0.0
  0
LINE
  5
F23
  8
0
 10
195.28247288195541
 20
58.599382249467681
 30
0.0
 11
195.4553307336617
 21
58.523741203678981
 31
0.0
  0
LINE
  5
F24
  8
0
 10
169.3690771456387
 20
58.523741203679037
 30
0.0
 11
169.53170197505241
 21
58.59460050219721
 31
0.0
  0
LINE
  5
F25
  8
0
 10
169.53170197505241
 20
58.59460050219721
 30
0.0
 11
169.6675213108683
 21
58.662426606020631
 31
0.0
  0
LINE
  5
F26
  8
0
 10
169.6675213108683
 20
58.662426606020631
 30
0.0
 11
169.7762516784079
 21
58.727006176631562
 31
0.0
  0
LINE
  5
F27
  8
0
 10
169.7762516784079
 20
58.727006176631562
 30
0.0
 11
169.85418120358571
 21
58.786318750994859
 31
0.0
  0
LINE
  5
F28
  8
0
 10
169.85418120358571
 20
58.786318750994859
 30
0.0
 11
169.89858389842701
 21
58.837375750823469
 31
0.0
  0
LINE
  5
F29
  8
0
 10
169.89858389842701
 20
58.837375750823469
 30
0.0
 11
169.91220393963599
 21
58.879136621977807
 31
0.0
  0
LINE
  5
F2A
  8
0
 10
161.48409712755901
 20
59.0
 30
0.0
 11
161.3187871100823
 21
58.997339065937183
 31
0.0
  0
LINE
  5
F2B
  8
0
 10
161.3187871100823
 20
58.997339065937183
 30
0.0
 11
161.17968401275701
 21
58.988870665920068
 31
0.0
  0
LINE
  5
F2C
  8
0
 10
161.17968401275701
 20
58.988870665920068
 30
0.0
 11
161.0668754747204
 21
58.97367717912811
 31
0.0
  0
LINE
  5
F2D
  8
0
 10
161.0668754747204
 20
58.97367717912811
 30
0.0
 11
160.98396775898669
 21
58.95129061819577
 31
0.0
  0
LINE
  5
F2E
  8
0
 10
160.98396775898669
 20
58.95129061819577
 30
0.0
 11
160.9336987626624
 21
58.922750407031799
 31
0.0
  0
LINE
  5
F2F
  8
0
 10
160.9336987626624
 20
58.922750407031799
 30
0.0
 11
160.9128017978353
 21
58.887099305374697
 31
0.0
  0
LINE
  5
F30
  8
0
 10
160.9128017978353
 20
58.887099305374697
 30
0.0
 11
160.9122039396502
 21
58.87913543397201
 31
0.0
  0
LINE
  5
F31
  8
0
 10
169.91220393963599
 20
58.879136621977807
 30
0.0
 11
169.9121256191271
 21
58.882049551716698
 31
0.0
  0
LINE
  5
F32
  8
0
 10
169.9121256191271
 20
58.882049551716698
 30
0.0
 11
169.89329376820029
 21
58.920334202922781
 31
0.0
  0
LINE
  5
F33
  8
0
 10
169.89329376820029
 20
58.920334202922781
 30
0.0
 11
169.8408311550954
 21
58.951139032837681
 31
0.0
  0
LINE
  5
F34
  8
0
 10
169.8408311550954
 20
58.951139032837681
 30
0.0
 11
169.76141515751871
 21
58.97292613589255
 31
0.0
  0
LINE
  5
F35
  8
0
 10
169.76141515751871
 20
58.97292613589255
 30
0.0
 11
169.65232225205071
 21
58.988151562597658
 31
0.0
  0
LINE
  5
F36
  8
0
 10
169.65232225205071
 20
58.988151562597658
 30
0.0
 11
169.51138583436619
 21
58.997128235584732
 31
0.0
  0
LINE
  5
F37
  8
0
 10
169.51138583436619
 20
58.997128235584732
 30
0.0
 11
169.3403107517413
 21
59.0
 31
0.0
  0
LINE
  5
F38
  8
0
 10
160.9122039396502
 20
58.87913543397201
 30
0.0
 11
160.9222313996971
 21
58.843677518510219
 31
0.0
  0
LINE
  5
F39
  8
0
 10
160.9222313996971
 20
58.843677518510219
 30
0.0
 11
160.96290327984059
 21
58.793146288001701
 31
0.0
  0
LINE
  5
F3A
  8
0
 10
160.96290327984059
 20
58.793146288001701
 30
0.0
 11
161.03637627102839
 21
58.734949363405242
 31
0.0
  0
LINE
  5
F3B
  8
0
 10
161.03637627102839
 20
58.734949363405242
 30
0.0
 11
161.1422045511234
 21
58.670454114696149
 31
0.0
  0
LINE
  5
F3C
  8
0
 10
161.1422045511234
 20
58.670454114696149
 30
0.0
 11
161.28247288195541
 21
58.599382249467681
 31
0.0
  0
LINE
  5
F3D
  8
0
 10
161.28247288195541
 20
58.599382249467681
 30
0.0
 11
161.4553307336617
 21
58.523741203678981
 31
0.0
  0
LINE
  5
F3E
  8
0
 10
161.4553307336617
 20
58.523741203679037
 30
0.0
 11
161.65717693192369
 21
58.448917018135234
 31
0.0
  0
LINE
  5
F3F
  8
0
 10
161.65717693192369
 20
58.448917018135234
 30
0.0
 11
161.88760115306181
 21
58.378286906836422
 31
0.0
  0
LINE
  5
F40
  8
0
 10
161.88760115306181
 20
58.378286906836422
 30
0.0
 11
162.1448497296193
 21
58.312388407577203
 31
0.0
  0
LINE
  5
F41
  8
0
 10
162.1448497296193
 20
58.312388407577203
 30
0.0
 11
162.42696484459739
 21
58.251723047727552
 31
0.0
  0
LINE
  5
F42
  8
0
 10
162.42696484459739
 20
58.251723047727552
 30
0.0
 11
162.7317994316256
 21
58.196752527306671
 31
0.0
  0
LINE
  5
F43
  8
0
 10
162.7317994316256
 20
58.196752527306671
 30
0.0
 11
163.05703351543229
 21
58.147895205167089
 31
0.0
  0
LINE
  5
F44
  8
0
 10
163.05703351543229
 20
58.147895205167089
 30
0.0
 11
163.4001918682581
 21
58.105522915031109
 31
0.0
  0
LINE
  5
F45
  8
0
 10
163.4001918682581
 20
58.105522915031109
 30
0.0
 11
163.75866284783331
 21
58.069958135611778
 31
0.0
  0
LINE
  5
F46
  8
0
 10
163.75866284783331
 20
58.069958135611778
 30
0.0
 11
164.12971827355261
 21
58.041471536355061
 31
0.0
  0
LINE
  5
F47
  8
0
 10
164.12971827355261
 20
58.041471536355061
 30
0.0
 11
164.51053418957699
 21
58.020279917482007
 31
0.0
  0
LINE
  5
F48
  8
0
 10
164.51053418957699
 20
58.020279917482007
 30
0.0
 11
164.89821235684261
 21
58.006544560008081
 31
0.0
  0
LINE
  5
F49
  8
0
 10
164.89821235684261
 20
58.006544560008081
 30
0.0
 11
165.28980231040981
 21
58.00036999829728
 31
0.0
  0
LINE
  5
F4A
  8
0
 10
165.28980231040981
 20
58.00036999829728
 30
0.0
 11
165.68232381428371
 21
58.001803224492562
 31
0.0
  0
LINE
  5
F4B
  8
0
 10
165.68232381428371
 20
58.001803224492562
 30
0.0
 11
166.07278954280881
 21
58.010833330877119
 31
0.0
  0
LINE
  5
F4C
  8
0
 10
166.07278954280881
 20
58.010833330877119
 30
0.0
 11
166.45822781602141
 21
58.027391592888847
 31
0.0
  0
LINE
  5
F4D
  8
0
 10
166.45822781602141
 20
58.027391592888847
 30
0.0
 11
166.8357052159283
 21
58.05135199215573
 31
0.0
  0
LINE
  5
F4E
  8
0
 10
166.8357052159283
 20
58.05135199215573
 30
0.0
 11
167.20234891158921
 21
58.08253217557165
 31
0.0
  0
LINE
  5
F4F
  8
0
 10
167.20234891158921
 20
58.08253217557165
 30
0.0
 11
167.5553685230945
 21
58.120694843113647
 31
0.0
  0
LINE
  5
F50
  8
0
 10
167.5553685230945
 20
58.120694843113647
 30
0.0
 11
167.8920773580416
 21
58.165549553838559
 31
0.0
  0
LINE
  5
F51
  8
0
 10
167.8920773580416
 20
58.165549553838559
 30
0.0
 11
168.2099128588863
 21
58.216754936313691
 31
0.0
  0
LINE
  5
F52
  8
0
 10
168.2099128588863
 20
58.216754936313691
 30
0.0
 11
168.50645610555279
 21
58.2739212866598
 31
0.0
  0
LINE
  5
F53
  8
0
 10
168.50645610555279
 20
58.2739212866598
 30
0.0
 11
168.7794502248762
 21
58.336613534432729
 31
0.0
  0
LINE
  5
F54
  8
0
 10
168.7794502248762
 20
58.336613534432729
 30
0.0
 11
169.02681756677021
 21
58.404354553772293
 31
0.0
  0
LINE
  5
F55
  8
0
 10
169.02681756677021
 20
58.404354553772293
 30
0.0
 11
169.24667551639831
 21
58.47662879461825
 31
0.0
  0
LINE
  5
F56
  8
0
 10
169.24667551639831
 20
58.47662879461825
 30
0.0
 11
169.3690771456387
 21
58.523741203679037
 31
0.0
  0
LINE
  5
F59
  8
0
 10
195.45533073366161
 20
58.523741203679037
 30
0.0
 11
195.65717693192369
 21
58.448917018135234
 31
0.0
  0
LINE
  5
F5A
  8
0
 10
195.65717693192369
 20
58.448917018135234
 30
0.0
 11
195.88760115306181
 21
58.378286906836422
 31
0.0
  0
LINE
  5
F5B
  8
0
 10
195.88760115306181
 20
58.378286906836422
 30
0.0
 11
196.1448497296193
 21
58.312388407577203
 31
0.0
  0
LINE
  5
F5C
  8
0
 10
196.1448497296193
 20
58.312388407577203
 30
0.0
 11
196.42696484459739
 21
58.251723047727552
 31
0.0
  0
LINE
  5
F5D
  8
0
 10
196.42696484459739
 20
58.251723047727552
 30
0.0
 11
196.7317994316256
 21
58.196752527306671
 31
0.0
  0
LINE
  5
F5E
  8
0
 10
196.7317994316256
 20
58.196752527306671
 30
0.0
 11
197.05703351543229
 21
58.147895205167089
 31
0.0
  0
LINE
  5
F5F
  8
0
 10
197.05703351543229
 20
58.147895205167089
 30
0.0
 11
197.4001918682581
 21
58.105522915031109
 31
0.0
  0
LINE
  5
F60
  8
0
 10
197.4001918682581
 20
58.105522915031109
 30
0.0
 11
197.75866284783331
 21
58.069958135611778
 31
0.0
  0
LINE
  5
F61
  8
0
 10
197.75866284783331
 20
58.069958135611778
 30
0.0
 11
198.1297182735527
 21
58.041471536355061
 31
0.0
  0
LINE
  5
F62
  8
0
 10
198.1297182735527
 20
58.041471536355061
 30
0.0
 11
198.51053418957699
 21
58.020279917482007
 31
0.0
  0
LINE
  5
F63
  8
0
 10
198.51053418957699
 20
58.020279917482007
 30
0.0
 11
198.89821235684249
 21
58.006544560008081
 31
0.0
  0
LINE
  5
F64
  8
0
 10
198.89821235684249
 20
58.006544560008081
 30
0.0
 11
199.28980231040981
 21
58.00036999829728
 31
0.0
  0
LINE
  5
F65
  8
0
 10
199.28980231040981
 20
58.00036999829728
 30
0.0
 11
199.68232381428379
 21
58.001803224492562
 31
0.0
  0
LINE
  5
F66
  8
0
 10
199.68232381428379
 20
58.001803224492562
 30
0.0
 11
200.07278954280889
 21
58.010833330877119
 31
0.0
  0
LINE
  5
F67
  8
0
 10
200.07278954280889
 20
58.010833330877119
 30
0.0
 11
200.45822781602141
 21
58.027391592888868
 31
0.0
  0
LINE
  5
F68
  8
0
 10
200.45822781602141
 20
58.027391592888868
 30
0.0
 11
200.8357052159283
 21
58.05135199215573
 31
0.0
  0
LINE
  5
F69
  8
0
 10
200.8357052159283
 20
58.05135199215573
 30
0.0
 11
201.20234891158921
 21
58.08253217557165
 31
0.0
  0
LINE
  5
F6A
  8
0
 10
201.20234891158921
 20
58.08253217557165
 30
0.0
 11
201.5553685230945
 21
58.120694843113647
 31
0.0
  0
LINE
  5
F6B
  8
0
 10
201.5553685230945
 20
58.120694843113647
 30
0.0
 11
201.89207735804169
 21
58.165549553838559
 31
0.0
  0
LINE
  5
F6C
  8
0
 10
201.89207735804169
 20
58.165549553838559
 30
0.0
 11
202.2099128588863
 21
58.216754936313691
 31
0.0
  0
LINE
  5
F6D
  8
0
 10
202.2099128588863
 20
58.216754936313691
 30
0.0
 11
202.5064561055529
 21
58.2739212866598
 31
0.0
  0
LINE
  5
F6E
  8
0
 10
202.5064561055529
 20
58.2739212866598
 30
0.0
 11
202.7794502248762
 21
58.336613534432729
 31
0.0
  0
LINE
  5
F6F
  8
0
 10
202.7794502248762
 20
58.336613534432729
 30
0.0
 11
203.02681756677021
 21
58.404354553772293
 31
0.0
  0
LINE
  5
F70
  8
0
 10
203.02681756677021
 20
58.404354553772293
 30
0.0
 11
203.24667551639831
 21
58.47662879461825
 31
0.0
  0
LINE
  5
F71
  8
0
 10
203.24667551639831
 20
58.47662879461825
 30
0.0
 11
203.36907714563881
 21
58.523741203679037
 31
0.0
  0
LINE
  5
F74
  8
0
 10
157.1622039396502
 20
50.0
 30
0.0
 11
157.1622039396502
 21
59.0
 31
0.0
  0
LINE
  5
F75
  8
0
 10
207.6622039396502
 20
59.0
 30
0.0
 11
207.6622039396502
 21
50.0
 31
0.0
  0
LINE
  5
F76
  8
0
 10
157.1622039396502
 20
52.9891419681706
 30
0.0
 11
207.6622039396502
 21
52.9891419681706
 31
0.0
  0
LINE
  5
F82
  8
1
 10
199.4122039396502
 20
60.5
 30
0.0
 11
199.4122039396502
 21
48.5
 31
0.0
  0
LINE
  5
F83
  8
0
 10
169.9122039396502
 20
59.0
 30
0.0
 11
169.9122039396502
 21
70.5
 31
0.0
  0
LINE
  5
F84
  8
0
 10
208.91220393965011
 20
70.5
 30
0.0
 11
155.91220393965011
 21
70.5
 31
0.0
  0
LINE
  5
F85
  8
0
 10
194.9122039396502
 20
70.5
 30
0.0
 11
194.9122039396502
 21
59.0
 31
0.0
  0
LINE
  5
101B
  8
1
 10
76.0
 20
219.40353982184951
 30
0.0
 11
76.0
 21
160.40353982184951
 31
0.0
  0
LINE
  5
107C
  8
1
 10
64.600000000000023
 20
206.90353982184951
 30
0.0
 11
53.399999999999977
 21
206.90353982184951
 31
0.0
  0
LINE
  5
107D
  8
1
 10
93.0
 20
201.30353982184951
 30
0.0
 11
93.0
 21
212.50353982184961
 31
0.0
  0
LINE
  5
107E
  8
1
 10
98.600000000000023
 20
206.90353982184951
 30
0.0
 11
87.399999999999977
 21
206.90353982184951
 31
0.0
  0
LINE
  5
107F
  8
1
 10
93.0
 20
167.30353982184951
 30
0.0
 11
93.0
 21
178.50353982184961
 31
0.0
  0
LINE
  5
1080
  8
1
 10
98.600000000000023
 20
172.90353982184951
 30
0.0
 11
87.399999999999977
 21
172.90353982184951
 31
0.0
  0
LINE
  5
1081
  8
1
 10
59.0
 20
167.30353982184951
 30
0.0
 11
59.0
 21
178.50353982184961
 31
0.0
  0
LINE
  5
1082
  8
1
 10
64.600000000000023
 20
172.90353982184951
 30
0.0
 11
53.399999999999977
 21
172.90353982184951
 31
0.0
  0
LINE
  5
108B
  8
1
 10
63.0
 20
60.5
 30
0.0
 11
89.0
 21
60.5
 31
0.0
  0
ENDSEC
  0
EOF
