  0
SECTION
  2
HEADER
  9
$ACADVER
  1
AC1009
  9
$INSBASE
 10
0.0
 20
0.0
 30
0.0
  9
$EXTMIN
 10
0.0
 20
-2.960436562073669
 30
0.0
  9
$EXTMAX
 10
159.2048908089923
 20
173.71371041578621
 30
0.0
  9
$LIMMIN
 10
0.0
 20
0.0
  9
$LIMMAX
 10
375.0
 20
270.0
  9
$ORTHOMODE
 70
     1
  9
$REGENMODE
 70
     1
  9
$FILLMODE
 70
     1
  9
$QTEXTMODE
 70
     0
  9
$MIRRTEXT
 70
     1
  9
$DRAGMODE
 70
     2
  9
$LTSCALE
 40
10.0
  9
$OSMODE
 70
  3071
  9
$ATTMODE
 70
     1
  9
$TEXTSIZE
 40
5.0
  9
$TRACEWID
 40
0.05
  9
$TEXTSTYLE
  7
STANDARD
  9
$CLAYER
  8
4
  9
$CELTYPE
  6
BYLAYER
  9
$CECOLOR
 62
   256
  9
$DIMSCALE
 40
1.0
  9
$DIMASZ
 40
3.0
  9
$DIMEXO
 40
2.0
  9
$DIMDLI
 40
0.38
  9
$DIMRND
 40
0.0
  9
$DIMDLE
 40
0.0
  9
$DIMEXE
 40
2.0
  9
$DIMTP
 40
0.0
  9
$DIMTM
 40
0.0
  9
$DIMTXT
 40
3.2000000000000002
  9
$DIMCEN
 40
0.0
  9
$DIMTSZ
 40
0.0
  9
$DIMTOL
 70
     0
  9
$DIMLIM
 70
     0
  9
$DIMTIH
 70
     0
  9
$DIMTOH
 70
     0
  9
$DIMSE1
 70
     0
  9
$DIMSE2
 70
     0
  9
$DIMTAD
 70
     1
  9
$DIMZIN
 70
     8
  9
$DIMBLK
  1

  9
$DIMASO
 70
     0
  9
$DIMSHO
 70
     0
  9
$DIMPOST
  1

  9
$DIMAPOST
  1

  9
$DIMALT
 70
     0
  9
$DIMALTD
 70
     2
  9
$DIMALTF
 40
25.399999999999999
  9
$DIMLFAC
 40
1.0
  9
$DIMTOFL
 70
     0
  9
$DIMTVP
 40
1.6000000000000001
  9
$DIMTIX
 70
     1
  9
$DIMSOXD
 70
     0
  9
$DIMSAH
 70
     0
  9
$DIMBLK1
  1

  9
$DIMBLK2
  1

  9
$DIMSTYLE
  2
STANDARD
  9
$DIMCLRD
 70
     0
  9
$DIMCLRE
 70
     0
  9
$DIMCLRT
 70
     0
  9
$DIMTFAC
 40
1.0
  9
$DIMGAP
 40
1.1999999999999991
  9
$LUNITS
 70
     2
  9
$LUPREC
 70
     4
  9
$SKETCHINC
 40
0.1
  9
$FILLETRAD
 40
0.0
  9
$AUNITS
 70
     0
  9
$AUPREC
 70
     4
  9
$MENU
  1
ACAD
  9
$ELEVATION
 40
0.0
  9
$PELEVATION
 40
0.0
  9
$THICKNESS
 40
0.0
  9
$LIMCHECK
 70
     0
  9
$BLIPMODE
 70
     0
  9
$CHAMFERA
 40
0.0
  9
$CHAMFERB
 40
0.0
  9
$SKPOLY
 70
     0
  9
$TDCREATE
 40
2448055.7149187499
  9
$TDUPDATE
 40
2456598.656975498
  9
$TDINDWG
 40
0.6468956713
  9
$TDUSRTIMER
 40
0.6468956713
  9
$USRTIMER
 70
     1
  9
$ANGBASE
 50
0.0
  9
$ANGDIR
 70
     0
  9
$PDMODE
 70
     0
  9
$PDSIZE
 40
0.0
  9
$PLINEWID
 40
0.0
  9
$COORDS
 70
     1
  9
$SPLFRAME
 70
     0
  9
$SPLINETYPE
 70
     6
  9
$SPLINESEGS
 70
     8
  9
$ATTDIA
 70
     0
  9
$ATTREQ
 70
     1
  9
$HANDLING
 70
     1
  9
$HANDSEED
  5
3657
  9
$SURFTAB1
 70
     6
  9
$SURFTAB2
 70
     6
  9
$SURFTYPE
 70
     6
  9
$SURFU
 70
     6
  9
$SURFV
 70
     6
  9
$UCSNAME
  2

  9
$UCSORG
 10
0.0
 20
0.0
 30
0.0
  9
$UCSXDIR
 10
1.0
 20
0.0
 30
0.0
  9
$UCSYDIR
 10
0.0
 20
1.0
 30
0.0
  9
$PUCSNAME
  2

  9
$PUCSORG
 10
0.0
 20
0.0
 30
0.0
  9
$PUCSXDIR
 10
1.0
 20
0.0
 30
0.0
  9
$PUCSYDIR
 10
0.0
 20
1.0
 30
0.0
  9
$USERI1
 70
     0
  9
$USERI2
 70
     0
  9
$USERI3
 70
     0
  9
$USERI4
 70
     0
  9
$USERI5
 70
     0
  9
$USERR1
 40
0.0
  9
$USERR2
 40
0.0
  9
$USERR3
 40
0.0
  9
$USERR4
 40
0.0
  9
$USERR5
 40
0.0
  9
$WORLDVIEW
 70
     1
  9
$SHADEDGE
 70
     3
  9
$SHADEDIF
 70
    70
  9
$TILEMODE
 70
     1
  9
$MAXACTVP
 70
    16
  9
$PLIMCHECK
 70
     0
  9
$PEXTMIN
 10
1.0000000000000000E+020
 20
1.0000000000000000E+020
 30
1.0000000000000000E+020
  9
$PEXTMAX
 10
-1.0000000000000000E+020
 20
-1.0000000000000000E+020
 30
-1.0000000000000000E+020
  9
$PLIMMIN
 10
0.0
 20
0.0
  9
$PLIMMAX
 10
12.0
 20
9.0
  9
$UNITMODE
 70
     0
  9
$VISRETAIN
 70
     0
  9
$PLINEGEN
 70
     1
  9
$PSLTSCALE
 70
     0
  0
ENDSEC
  0
SECTION
  2
TABLES
  0
TABLE
  2
VPORT
 70
     1
  0
VPORT
  2
*ACTIVE
 70
     0
 10
0.0
 20
0.0
 11
1.0
 21
1.0
 12
187.49427839065231
 22
169.9063198933564
 13
0.0
 23
0.0
 14
5.0
 24
5.0
 15
10.0
 25
10.0
 16
0.0
 26
0.0
 36
1.0
 17
0.0
 27
0.0
 37
0.0
 40
348.89937369551939
 41
1.831871345029239
 42
50.0
 43
0.0
 44
0.0
 50
0.0
 51
0.0
 71
     0
 72
   500
 73
     1
 74
     1
 75
     0
 76
     0
 77
     0
 78
     2
  0
ENDTAB
  0
TABLE
  2
LTYPE
 70
     4
  0
LTYPE
  2
CONTINUOUS
 70
     0
  3
実線
 72
    65
 73
     0
 40
0.0
  0
LTYPE
  2
CENTER
 70
     0
  3
____ _ ____ _ ____ _ ____ _ ____ _ ____ _ ____
 72
    65
 73
     4
 40
2.0
 49
1.25
 49
-0.25
 49
0.25
 49
-0.25
  0
LTYPE
  2
HIDDEN
 70
     0
  3
_ _ _ _ _ _ _ _ _ _ _ _ _ _ _ _ _ _ _ _ _ _ _
 72
    65
 73
     2
 40
0.375
 49
0.25
 49
-0.125
  0
LTYPE
  2
PHANTOM2
 70
     0
  3
___ _ _ ___ _ _ ___ _ _ ___ _ _
 72
    65
 73
     6
 40
1.25
 49
0.625
 49
-0.125
 49
0.125
 49
-0.125
 49
0.125
 49
-0.125
  0
ENDTAB
  0
TABLE
  2
LAYER
 70
     5
  0
LAYER
  2
0
 70
     0
 62
     7
  6
CONTINUOUS
  0
LAYER
  2
1
 70
     0
 62
     1
  6
CENTER
  0
LAYER
  2
2
 70
     0
 62
     2
  6
HIDDEN
  0
LAYER
  2
4
 70
     0
 62
     4
  6
CONTINUOUS
  0
LAYER
  2
DEFPOINTS
 70
     0
 62
     7
  6
CONTINUOUS
  0
ENDTAB
  0
TABLE
  2
STYLE
 70
     3
  0
STYLE
  2
STANDARD
 70
     0
 40
0.0
 41
1.0
 50
0.0
 71
     0
 42
5.0
  3
simplex.shx
  4
bigfont.shx
  0
STYLE
  2
07500
 70
     0
 40
0.0
 41
0.75
 50
0.0
 71
     0
 42
0.2
  3
simplex.shx
  4
bigfont.shx
  0
STYLE
  2
STANDARD1
 70
     0
 40
0.0
 41
1.0
 50
0.0
 71
     0
 42
3.0
  3
txt
  4

  0
ENDTAB
  0
TABLE
  2
VIEW
 70
     1
  0
VIEW
  2
ALL
 70
     0
 40
270.0
 10
220.99159663865549
 20
135.0
 41
0.0
 11
0.0
 21
0.0
 31
1.0
 12
0.0
 22
0.0
 32
0.0
 42
0.0
 43
0.0
 44
0.0
 50
0.0
 71
     0
  0
ENDTAB
  0
TABLE
  2
UCS
 70
     0
  0
ENDTAB
  0
TABLE
  2
APPID
 70
    43
  0
APPID
  2
ACAD
 70
     0
  0
APPID
  2
DCO15
 70
     0
  0
APPID
  2
GENIUS_GENOREF_13
 70
     0
  0
APPID
  2
GENIUS_GENOENT_13
 70
     0
  0
APPID
  2
GENIUS_GENBH_13
 70
     0
  0
APPID
  2
GENIUS_GENOBJ_13
 70
     0
  0
APPID
  2
GENIUS_GENODEF_13
 70
     0
  0
APPID
  2
GENIUS_GENOLIS_13
 70
     0
  0
APPID
  2
GENIUS_GENOBJ-NBEHI-BHF_13
 70
     0
  0
APPID
  2
GENIUS_GENOBJ-NBEHI-BHB_13
 70
     0
  0
APPID
  2
GENIUS_GENOBJ-F-PART_13
 70
     0
  0
APPID
  2
GENIUS_GEFSTDP_13
 70
     0
  0
APPID
  2
GENIUS_GENOBJ-N-RSSYM_13
 70
     0
  0
APPID
  2
GENIUS_GENSYMENT_13
 70
     0
  0
APPID
  2
GENIUS_GENOBJ-N-TIT_13
 70
     0
  0
APPID
  2
GENIUS_GENTITLE_13
 70
     0
  0
APPID
  2
GENIUS_GENZVEED_13
 70
     0
  0
APPID
  2
GENIUS_GENOBJ-N-LEADER_13
 70
     0
  0
APPID
  2
GENIUS_GENOBJ-N-FIL_13
 70
     0
  0
APPID
  2
GENIUS_GENOBJ-N-SEC_13
 70
     0
  0
APPID
  2
GENIUS_GENOBJ-N-CRS_13
 70
     0
  0
APPID
  2
GENIUS_GENOBJ-N-ZOO_13
 70
     0
  0
APPID
  2
GENIUS_GENZOO_13
 70
     0
  0
APPID
  2
GENIUS_GENOBJ-F-TOL_13
 70
     0
  0
APPID
  2
GENIUS_GENFIL_13
 70
     0
  0
APPID
  2
GENIUS_GENOBJ-N-CHA_13
 70
     0
  0
APPID
  2
_CALL_MAC$
 70
     0
  0
APPID
  2
ASM_BASE
 70
     0
  0
APPID
  2
ASM_EXPLO_VER_2_00
 70
     0
  0
APPID
  2
ASM_CADM_VER_12_00
 70
     0
  0
APPID
  2
ASM_BASEFORO
 70
     0
  0
APPID
  2
ASM_BASETRAVI
 70
     0
  0
APPID
  2
ASM_BASETRAVI1
 70
     0
  0
APPID
  2
ASM_GRUPPI
 70
     0
  0
APPID
  2
ASM_CADM_ALBERO
 70
     0
  0
APPID
  2
ASM_GOLE
 70
     0
  0
APPID
  2
ACAD_MLEADERVER
 70
     0
  0
APPID
  2
ACAD_DSTYLE_DIMJAG
 70
     0
  0
APPID
  2
ACAD_DSTYLE_DIMTALN
 70
     0
  0
APPID
  2
ACAD_EXEMPT_FROM_CAD_STANDARDS
 70
     0
  0
APPID
  2
GRADIENTCOLOR1ACI
 70
     0
  0
APPID
  2
GRADIENTCOLOR2ACI
 70
     0
  0
APPID
  2
ACAD_NAV_VCDISPLAY
 70
     0
  0
ENDTAB
  0
TABLE
  2
DIMSTYLE
 70
     1
  0
DIMSTYLE
  2
STANDARD
 70
     0
  3

  4

  5

  6

  7

 40
1.0
 41
0.18
 42
0.0625
 43
0.38
 44
0.18
 45
0.0
 46
0.0
 47
0.0
 48
0.0
140
0.18
141
0.09
142
0.0
143
25.399999999999999
144
1.0
145
0.0
146
1.0
147
0.09
 71
     0
 72
     0
 73
     1
 74
     1
 75
     0
 76
     0
 77
     0
 78
     0
170
     0
171
     2
172
     0
173
     0
174
     0
175
     0
176
     0
177
     0
178
     0
  0
ENDTAB
  0
ENDSEC
  0
SECTION
  2
BLOCKS
  0
BLOCK
  8
0
  2
$MODEL_SPACE
 70
     0
 10
0.0
 20
0.0
 30
0.0
  3
$MODEL_SPACE
  1

  0
ENDBLK
  5
36
  8
0
  0
BLOCK
 67
     1
  8
0
  2
$PAPER_SPACE
 70
     0
 10
0.0
 20
0.0
 30
0.0
  3
$PAPER_SPACE
  1

  0
ENDBLK
  5
34
 67
     1
  8
0
  0
ENDSEC
  0
SECTION
  2
ENTITIES
  0
LINE
  5
2661
  8
0
 10
120.48254360666991
 20
167.53298630289311
 30
0.0
 11
120.48254360666991
 21
152.53298630289311
 31
0.0
  0
LINE
  5
2662
  8
0
 10
120.48254360666991
 20
117.53298630289309
 30
0.0
 11
120.48254360666991
 21
102.53298630289309
 31
0.0
  0
LINE
  5
2663
  8
0
 10
146.89921027333651
 20
167.53298630289311
 30
0.0
 11
120.48254360666991
 21
167.53298630289311
 31
0.0
  0
LINE
  5
2666
  8
0
 10
146.89921027333651
 20
102.53298630289309
 30
0.0
 11
120.48254360666991
 21
102.53298630289309
 31
0.0
  0
LINE
  5
2667
  8
0
 10
131.77404622879899
 20
152.53298630289311
 30
0.0
 11
131.77404622879899
 21
167.53298630289311
 31
0.0
  0
ARC
  5
2668
  8
0
 10
146.89921027333651
 20
163.19965296955979
 30
0.0
 40
4.3333333333333277
 50
0.0
 51
90.0
  0
LINE
  5
2669
  8
0
 10
151.23254360666991
 20
163.19965296955979
 30
0.0
 11
151.23254360666991
 21
106.86631963622639
 31
0.0
  0
ARC
  5
266A
  8
0
 10
146.89921027333651
 20
106.86631963622639
 30
0.0
 40
4.333333333333325
 50
270.0
 51
0.0
  0
LINE
  5
266B
  8
0
 10
131.77404622879899
 20
102.53298630289309
 30
0.0
 11
131.77404622879899
 21
117.53298630289309
 31
0.0
  0
LINE
  5
2672
  8
0
 10
132.73254360666991
 20
117.53298630289309
 30
0.0
 11
120.23254360666991
 21
117.53298630289309
 31
0.0
  0
LINE
  5
2673
  8
0
 10
120.23254360666991
 20
152.53298630289311
 30
0.0
 11
132.73254360666991
 21
152.53298630289311
 31
0.0
  0
LINE
  5
2674
  8
0
 10
132.73254360666991
 20
152.53298630289311
 30
0.0
 11
132.73254360666991
 21
117.53298630289309
 31
0.0
  0
LINE
  5
2675
  8
0
 10
144.36929495261799
 20
152.53298630289311
 30
0.0
 11
138.59579226072179
 21
152.53298630289311
 31
0.0
  0
LINE
  5
2676
  8
0
 10
138.59579226072179
 20
152.53298630289311
 30
0.0
 11
135.7090409147736
 21
157.53298630289311
 31
0.0
  0
LINE
  5
2677
  8
0
 10
135.7090409147736
 20
157.53298630289311
 30
0.0
 11
138.59579226072179
 21
162.53298630289311
 31
0.0
  0
LINE
  5
2678
  8
0
 10
138.59579226072179
 20
162.53298630289311
 30
0.0
 11
144.36929495261799
 21
162.53298630289311
 31
0.0
  0
LINE
  5
2679
  8
0
 10
144.36929495261799
 20
162.53298630289311
 30
0.0
 11
147.25604629856619
 21
157.53298630289311
 31
0.0
  0
LINE
  5
267A
  8
0
 10
147.25604629856619
 20
157.53298630289311
 30
0.0
 11
144.36929495261799
 21
152.53298630289311
 31
0.0
  0
LINE
  5
267B
  8
0
 10
138.59579226072171
 20
117.53298630289309
 30
0.0
 11
144.36929495261799
 21
117.53298630289309
 31
0.0
  0
LINE
  5
267C
  8
0
 10
144.36929495261799
 20
117.53298630289309
 30
0.0
 11
147.2560462985661
 21
112.53298630289309
 31
0.0
  0
LINE
  5
267D
  8
0
 10
147.2560462985661
 20
112.53298630289309
 30
0.0
 11
144.36929495261799
 21
107.53298630289299
 31
0.0
  0
LINE
  5
267E
  8
0
 10
144.36929495261799
 20
107.53298630289299
 30
0.0
 11
138.59579226072171
 21
107.53298630289299
 31
0.0
  0
LINE
  5
267F
  8
0
 10
138.59579226072171
 20
107.53298630289299
 30
0.0
 11
135.7090409147736
 21
112.53298630289309
 31
0.0
  0
LINE
  5
2680
  8
0
 10
135.7090409147736
 20
112.53298630289309
 30
0.0
 11
138.59579226072171
 21
117.53298630289309
 31
0.0
  0
CIRCLE
  5
2681
  8
0
 10
141.48254360666991
 20
157.53298630289311
 30
0.0
 40
3.25
  0
CIRCLE
  5
2682
  8
0
 10
141.48254360666979
 20
112.53298630289309
 30
0.0
 40
3.25
  0
LINE
  5
2687
  8
1
 10
126.48254360666991
 20
173.71371041578621
 30
0.0
 11
126.48254360666991
 21
96.352262190000005
 31
0.0
  0
LINE
  5
2688
  8
0
 10
131.48254360666991
 20
117.53298630289309
 30
0.0
 11
131.48254360666991
 21
152.53298630289311
 31
0.0
  0
LINE
  5
2689
  8
0
 10
116.98254360666991
 20
102.53298630289309
 30
0.0
 11
106.06587694000321
 21
102.53298630289309
 31
0.0
  0
ARC
  5
268A
  8
0
 10
106.06587694000321
 20
106.86631963622639
 30
0.0
 40
4.3333333333333348
 50
180.0
 51
270.0
  0
LINE
  5
268B
  8
0
 10
101.73254360666991
 20
106.86631963622639
 30
0.0
 11
101.73254360666991
 21
163.19965296955979
 31
0.0
  0
ARC
  5
268C
  8
0
 10
106.06587694000321
 20
163.19965296955979
 30
0.0
 40
4.333333333333325
 50
90.0
 51
180.0
  0
LINE
  5
268D
  8
0
 10
106.06587694000321
 20
167.53298630289311
 30
0.0
 11
116.98254360666991
 21
167.53298630289311
 31
0.0
  0
ARC
  5
268E
  8
0
 10
116.98254360666991
 20
164.28298630289311
 30
0.0
 40
3.2500000000000311
 50
46.18693853959843
 51
90.0
  0
ARC
  5
268F
  8
0
 10
116.98254360666991
 20
105.78298630289299
 30
0.0
 40
3.24999999999996
 50
270.0
 51
313.81306146040379
  0
POLYLINE
  5
2690
  8
0
 66
     1
 10
0.0
 20
0.0
 30
0.0
  0
VERTEX
  5
35D5
  8
0
 10
120.23254360666991
 20
105.78298630289309
 30
0.0
  0
VERTEX
  5
35D6
  8
0
 10
120.2318423926522
 20
105.7154777892565
 30
0.0
  0
VERTEX
  5
35D7
  8
0
 10
120.2261380586145
 20
105.5790377032062
 30
0.0
  0
VERTEX
  5
35D8
  8
0
 10
120.2145125890882
 20
105.4411142556507
 30
0.0
  0
VERTEX
  5
35D9
  8
0
 10
120.206420906156
 20
105.3717501689533
 30
0.0
  0
VERTEX
  5
35DA
  8
0
 10
120.1967842963992
 20
105.3021986278345
 30
0.0
  0
VERTEX
  5
35DB
  8
0
 10
120.1728149870725
 20
105.1627697928067
 30
0.0
  0
VERTEX
  5
35DC
  8
0
 10
120.14250574859339
 20
105.0232894807266
 30
0.0
  0
VERTEX
  5
35DD
  8
0
 10
120.105794474597
 20
104.88420712200799
 30
0.0
  0
VERTEX
  5
35DE
  8
0
 10
120.0626544892563
 20
104.7459631831062
 30
0.0
  0
VERTEX
  5
35DF
  8
0
 10
120.013091246727
 20
104.6089841728507
 30
0.0
  0
VERTEX
  5
35E0
  8
0
 10
119.98591029173861
 20
104.5410971955172
 30
0.0
  0
VERTEX
  5
35E1
  8
0
 10
119.95713997823761
 20
104.4736825084069
 30
0.0
  0
VERTEX
  5
35E2
  8
0
 10
119.8948661094464
 20
104.3404615579333
 30
0.0
  0
VERTEX
  5
35E3
  8
0
 10
119.82633386652169
 20
104.2096595860374
 30
0.0
  0
VERTEX
  5
35E4
  8
0
 10
119.7516118537331
 20
104.081586572346
 30
0.0
  0
VERTEX
  5
35E5
  8
0
 10
119.6707701821674
 20
103.9565312996728
 30
0.0
  0
VERTEX
  5
35E6
  8
0
 10
119.5838799409636
 20
103.8347693550448
 30
0.0
  0
VERTEX
  5
35E7
  8
0
 10
119.5381876512961
 20
103.77520555859689
 30
0.0
  0
VERTEX
  5
35E8
  8
0
 10
119.530427135132
 20
103.76536653559521
 30
0.0
  0
VERTEX
  5
35E9
  8
0
 10
119.51478176743279
 20
103.74576518156719
 30
0.0
  0
VERTEX
  5
35EA
  8
0
 10
119.49897060803001
 20
103.72626679191799
 30
0.0
  0
VERTEX
  5
35EB
  8
0
 10
119.4910028399017
 20
103.71655646493249
 30
0.0
  0
VERTEX
  5
35EC
  8
0
 10
119.4829935974705
 20
103.7068721818715
 30
0.0
  0
VERTEX
  5
35ED
  8
0
 10
119.4668506244173
 20
103.68758213148099
 30
0.0
  0
VERTEX
  5
35EE
  8
0
 10
119.45054152729131
 20
103.66839739158949
 30
0.0
  0
VERTEX
  5
35EF
  8
0
 10
119.4340660969725
 20
103.6493186906488
 30
0.0
  0
VERTEX
  5
35F0
  8
0
 10
119.417424080681
 20
103.630346742428
 30
0.0
  0
VERTEX
  5
35F1
  8
0
 10
119.40061518716431
 20
103.6114822546341
 30
0.0
  0
VERTEX
  5
35F2
  8
0
 10
119.3921480615079
 20
103.60209053022881
 30
0.0
  0
VERTEX
  5
35F3
  8
0
 10
119.3836390933176
 20
103.5927259384615
 30
0.0
  0
VERTEX
  5
35F4
  8
0
 10
119.3664954523703
 20
103.57407851908199
 30
0.0
  0
VERTEX
  5
35F5
  8
0
 10
119.3491839037695
 20
103.5555407470727
 30
0.0
  0
VERTEX
  5
35F6
  8
0
 10
119.3317040848941
 20
103.53711341077531
 30
0.0
  0
VERTEX
  5
35F7
  8
0
 10
119.31405564472971
 20
103.518797349563
 30
0.0
  0
VERTEX
  5
35F8
  8
0
 10
119.29623825963139
 20
103.5005934679811
 30
0.0
  0
VERTEX
  5
35F9
  8
0
 10
119.287266123452
 20
103.4915338987098
 30
0.0
  0
VERTEX
  5
35FA
  8
0
 10
119.2782516512941
 20
103.48250275071371
 30
0.0
  0
VERTEX
  5
35FB
  8
0
 10
119.26009560704379
 20
103.46452627830929
 30
0.0
  0
VERTEX
  5
35FC
  8
0
 10
119.2417700025502
 20
103.44666524358691
 30
0.0
  0
VERTEX
  5
35FD
  8
0
 10
119.23254360666991
 20
103.4377784229814
 30
0.0
  0
SEQEND
  5
35FE
  8
0
  0
POLYLINE
  5
2692
  8
0
 66
     1
 10
0.0
 20
0.0
 30
0.0
  0
VERTEX
  5
35FF
  8
0
 10
119.23254360666991
 20
166.6281941828048
 30
0.0
  0
VERTEX
  5
3600
  8
0
 10
119.2417700025502
 20
166.61930736219921
 30
0.0
  0
VERTEX
  5
3601
  8
0
 10
119.26009560704379
 20
166.60144632747691
 30
0.0
  0
VERTEX
  5
3602
  8
0
 10
119.2782516512941
 20
166.58346985507239
 30
0.0
  0
VERTEX
  5
3603
  8
0
 10
119.287266123452
 20
166.5744387070763
 30
0.0
  0
VERTEX
  5
3604
  8
0
 10
119.29623825963139
 20
166.565379137805
 30
0.0
  0
VERTEX
  5
3605
  8
0
 10
119.31405564472971
 20
166.5471752562232
 30
0.0
  0
VERTEX
  5
3606
  8
0
 10
119.3317040848941
 20
166.5288591950108
 30
0.0
  0
VERTEX
  5
3607
  8
0
 10
119.3491839037695
 20
166.5104318587135
 30
0.0
  0
VERTEX
  5
3608
  8
0
 10
119.3664954523703
 20
166.49189408670421
 30
0.0
  0
VERTEX
  5
3609
  8
0
 10
119.3836390933176
 20
166.47324666732459
 30
0.0
  0
VERTEX
  5
360A
  8
0
 10
119.3921480615079
 20
166.46388207555731
 30
0.0
  0
VERTEX
  5
360B
  8
0
 10
119.40061518716431
 20
166.45449035115209
 30
0.0
  0
VERTEX
  5
360C
  8
0
 10
119.417424080681
 20
166.4356258633581
 30
0.0
  0
VERTEX
  5
360D
  8
0
 10
119.4340660969725
 20
166.4166539151374
 30
0.0
  0
VERTEX
  5
360E
  8
0
 10
119.45054152729131
 20
166.39757521419671
 30
0.0
  0
VERTEX
  5
360F
  8
0
 10
119.4668506244173
 20
166.37839047430509
 30
0.0
  0
VERTEX
  5
3610
  8
0
 10
119.4829935974705
 20
166.3591004239147
 30
0.0
  0
VERTEX
  5
3611
  8
0
 10
119.4910028399017
 20
166.34941614085369
 30
0.0
  0
VERTEX
  5
3612
  8
0
 10
119.49897060803001
 20
166.33970581386819
 30
0.0
  0
VERTEX
  5
3613
  8
0
 10
119.51478176743279
 20
166.32020742421889
 30
0.0
  0
VERTEX
  5
3614
  8
0
 10
119.530427135132
 20
166.30060607019101
 30
0.0
  0
VERTEX
  5
3615
  8
0
 10
119.5381876512961
 20
166.29076704718921
 30
0.0
  0
VERTEX
  5
3616
  8
0
 10
119.5838799409636
 20
166.23120325074129
 30
0.0
  0
VERTEX
  5
3617
  8
0
 10
119.6707701821674
 20
166.10944130611341
 30
0.0
  0
VERTEX
  5
3618
  8
0
 10
119.7516118537331
 20
165.98438603344019
 30
0.0
  0
VERTEX
  5
3619
  8
0
 10
119.82633386652169
 20
165.85631301974871
 30
0.0
  0
VERTEX
  5
361A
  8
0
 10
119.8948661094464
 20
165.72551104785279
 30
0.0
  0
VERTEX
  5
361B
  8
0
 10
119.95713997823761
 20
165.59229009737919
 30
0.0
  0
VERTEX
  5
361C
  8
0
 10
119.98591029173861
 20
165.524875410269
 30
0.0
  0
VERTEX
  5
361D
  8
0
 10
120.013091246727
 20
165.4569884329355
 30
0.0
  0
VERTEX
  5
361E
  8
0
 10
120.0626544892563
 20
165.32000942267999
 30
0.0
  0
VERTEX
  5
361F
  8
0
 10
120.105794474597
 20
165.18176548377821
 30
0.0
  0
VERTEX
  5
3620
  8
0
 10
120.14250574859339
 20
165.0426831250596
 30
0.0
  0
VERTEX
  5
3621
  8
0
 10
120.1728149870725
 20
164.90320281297949
 30
0.0
  0
VERTEX
  5
3622
  8
0
 10
120.1967842963992
 20
164.76377397795159
 30
0.0
  0
VERTEX
  5
3623
  8
0
 10
120.206420906156
 20
164.69422243683289
 30
0.0
  0
VERTEX
  5
3624
  8
0
 10
120.2145125890882
 20
164.6248583501355
 30
0.0
  0
VERTEX
  5
3625
  8
0
 10
120.2261380586145
 20
164.48693490257989
 30
0.0
  0
VERTEX
  5
3626
  8
0
 10
120.2318423926522
 20
164.35049481652959
 30
0.0
  0
VERTEX
  5
3627
  8
0
 10
120.23254360666991
 20
164.28298630289311
 30
0.0
  0
SEQEND
  5
3628
  8
0
  0
LINE
  5
2693
  8
0
 10
120.23254360666991
 20
164.28298630289311
 30
0.0
 11
120.23254360666991
 21
105.78298630289309
 31
0.0
  0
LINE
  5
2697
  8
0
 10
122.48254360666991
 20
117.53298630289309
 30
0.0
 11
122.48254360666991
 21
152.53298630289311
 31
0.0
  0
LINE
  5
2699
  8
0
 10
114.36929495261801
 20
152.53298630289311
 30
0.0
 11
108.59579226072179
 21
152.53298630289311
 31
0.0
  0
LINE
  5
269A
  8
0
 10
108.59579226072179
 20
152.53298630289311
 30
0.0
 11
105.7090409147736
 21
157.53298630289311
 31
0.0
  0
LINE
  5
269B
  8
0
 10
105.7090409147736
 20
157.53298630289311
 30
0.0
 11
108.59579226072179
 21
162.53298630289311
 31
0.0
  0
LINE
  5
269C
  8
0
 10
108.59579226072179
 20
162.53298630289311
 30
0.0
 11
114.36929495261801
 21
162.53298630289311
 31
0.0
  0
LINE
  5
269D
  8
0
 10
114.36929495261801
 20
162.53298630289311
 30
0.0
 11
117.2560462985662
 21
157.53298630289311
 31
0.0
  0
LINE
  5
269E
  8
0
 10
117.2560462985662
 20
157.53298630289311
 30
0.0
 11
114.36929495261801
 21
152.53298630289311
 31
0.0
  0
LINE
  5
269F
  8
0
 10
108.59579226072169
 20
117.53298630289309
 30
0.0
 11
114.36929495261791
 21
117.53298630289309
 31
0.0
  0
LINE
  5
26A0
  8
0
 10
114.36929495261791
 20
117.53298630289309
 30
0.0
 11
117.2560462985661
 21
112.53298630289309
 31
0.0
  0
LINE
  5
26A1
  8
0
 10
117.2560462985661
 20
112.53298630289309
 30
0.0
 11
114.36929495261791
 21
107.53298630289309
 31
0.0
  0
LINE
  5
26A2
  8
0
 10
114.36929495261791
 20
107.53298630289309
 30
0.0
 11
108.59579226072169
 21
107.53298630289309
 31
0.0
  0
LINE
  5
26A3
  8
0
 10
108.59579226072169
 20
107.53298630289309
 30
0.0
 11
105.7090409147735
 21
112.53298630289309
 31
0.0
  0
LINE
  5
26A4
  8
0
 10
105.7090409147735
 20
112.53298630289309
 30
0.0
 11
108.59579226072169
 21
117.53298630289309
 31
0.0
  0
CIRCLE
  5
26A5
  8
0
 10
111.48254360666991
 20
157.53298630289311
 30
0.0
 40
3.25
  0
CIRCLE
  5
26A6
  8
0
 10
111.48254360666979
 20
112.53298630289309
 30
0.0
 40
3.25
  0
LINE
  5
26F9
  8
2
 10
138.23254360666979
 20
73.804952108199871
 30
0.0
 11
138.23254360666979
 21
68.804952108199871
 31
0.0
  0
LINE
  5
26FA
  8
2
 10
144.73254360666979
 20
68.804952108199871
 30
0.0
 11
144.73254360666979
 21
73.804952108199871
 31
0.0
  0
LINE
  5
26FB
  8
0
 10
126.48254360666991
 20
68.804952108199899
 30
0.0
 11
151.23254360666991
 21
68.804952108199871
 31
0.0
  0
LINE
  5
26FD
  8
0
 10
151.23254360666991
 20
68.804952108199871
 30
0.0
 11
151.23254360666991
 21
78.804952108199871
 31
0.0
  0
CIRCLE
  5
26FE
  8
0
 10
126.48254360666991
 20
74.804952108199871
 30
0.0
 40
2.5
  0
ARC
  5
26FF
  8
0
 10
131.77404622879899
 20
80.804952108199885
 30
0.0
 40
1.9999999999999989
 50
228.59037789072909
 51
270.0
  0
ARC
  5
2700
  8
0
 10
126.48254360666991
 20
74.804952108199871
 30
0.0
 40
6.0
 50
48.590377890729123
 51
270.0
  0
LINE
  5
2701
  8
0
 10
151.23254360666991
 20
78.804952108199871
 30
0.0
 11
131.77404622879911
 21
78.804952108199871
 31
0.0
  0
LINE
  5
2705
  8
2
 10
147.2560462985661
 20
78.804952108199871
 30
0.0
 11
147.2560462985661
 21
73.804952108199871
 31
0.0
  0
LINE
  5
2706
  8
2
 10
135.7090409147736
 20
73.804952108199871
 30
0.0
 11
147.2560462985661
 21
73.804952108199871
 31
0.0
  0
LINE
  5
2708
  8
2
 10
135.7090409147736
 20
78.804952108199871
 30
0.0
 11
135.7090409147736
 21
73.804952108199871
 31
0.0
  0
LINE
  5
270C
  8
2
 10
108.23254360666979
 20
73.804952108199871
 30
0.0
 11
108.23254360666979
 21
68.804952108199871
 31
0.0
  0
LINE
  5
270D
  8
2
 10
114.73254360666991
 20
68.804952108199871
 30
0.0
 11
114.73254360666991
 21
73.804952108199871
 31
0.0
  0
LINE
  5
270F
  8
0
 10
101.73254360666991
 20
68.804952108199871
 30
0.0
 11
101.73254360666991
 21
78.804952108199871
 31
0.0
  0
LINE
  5
2711
  8
0
 10
119.23254360666991
 20
78.804952108199871
 30
0.0
 11
101.73254360666991
 21
78.804952108199871
 31
0.0
  0
POLYLINE
  5
2712
  8
0
 66
     1
 10
0.0
 20
0.0
 30
0.0
  0
VERTEX
  5
3629
  8
0
 10
120.23254360666991
 20
77.804952108199871
 30
0.0
  0
VERTEX
  5
362A
  8
0
 10
120.2318423926522
 20
77.842394548480044
 30
0.0
  0
VERTEX
  5
362B
  8
0
 10
120.2261380586145
 20
77.917956820778215
 30
0.0
  0
VERTEX
  5
362C
  8
0
 10
120.2145125890882
 20
77.993994213478743
 30
0.0
  0
VERTEX
  5
362D
  8
0
 10
120.206420906156
 20
78.032026997929052
 30
0.0
  0
VERTEX
  5
362E
  8
0
 10
120.1967842963992
 20
78.069980205333479
 30
0.0
  0
VERTEX
  5
362F
  8
0
 10
120.1728149870725
 20
78.145377916850862
 30
0.0
  0
VERTEX
  5
3630
  8
0
 10
120.14250574859339
 20
78.219643439512595
 30
0.0
  0
VERTEX
  5
3631
  8
0
 10
120.105794474597
 20
78.292222999660169
 30
0.0
  0
VERTEX
  5
3632
  8
0
 10
120.0626544892563
 20
78.362550460610976
 30
0.0
  0
VERTEX
  5
3633
  8
0
 10
120.013091246727
 20
78.430048406062213
 30
0.0
  0
VERTEX
  5
3634
  8
0
 10
119.98591029173861
 20
78.462552775648192
 30
0.0
  0
VERTEX
  5
3635
  8
0
 10
119.95713997823761
 20
78.494125597468553
 30
0.0
  0
VERTEX
  5
3636
  8
0
 10
119.8948661094464
 20
78.554170969625432
 30
0.0
  0
VERTEX
  5
3637
  8
0
 10
119.82633386652169
 20
78.609571973294635
 30
0.0
  0
VERTEX
  5
3638
  8
0
 10
119.7516118537331
 20
78.659684905564404
 30
0.0
  0
VERTEX
  5
3639
  8
0
 10
119.6707701821674
 20
78.703816652237322
 30
0.0
  0
VERTEX
  5
363A
  8
0
 10
119.5838799409636
 20
78.741201423395921
 30
0.0
  0
VERTEX
  5
363B
  8
0
 10
119.5381876512961
 20
78.75709795731359
 30
0.0
  0
VERTEX
  5
363C
  8
0
 10
119.530427135132
 20
78.759554330840785
 30
0.0
  0
VERTEX
  5
363D
  8
0
 10
119.51478176743279
 20
78.764296478386711
 30
0.0
  0
VERTEX
  5
363E
  8
0
 10
119.49897060803001
 20
78.768807207759039
 30
0.0
  0
VERTEX
  5
363F
  8
0
 10
119.4910028399017
 20
78.770974273968989
 30
0.0
  0
VERTEX
  5
3640
  8
0
 10
119.4829935974705
 20
78.773081646075866
 30
0.0
  0
VERTEX
  5
3641
  8
0
 10
119.46685062441721
 20
78.777114759937874
 30
0.0
  0
VERTEX
  5
3642
  8
0
 10
119.45054152729131
 20
78.780901341820538
 30
0.0
  0
VERTEX
  5
3643
  8
0
 10
119.4340660969725
 20
78.784435995715214
 30
0.0
  0
VERTEX
  5
3644
  8
0
 10
119.417424080681
 20
78.787713122042703
 30
0.0
  0
VERTEX
  5
3645
  8
0
 10
119.40061518716431
 20
78.790726901867345
 30
0.0
  0
VERTEX
  5
3646
  8
0
 10
119.3921480615079
 20
78.792133154409669
 30
0.0
  0
VERTEX
  5
3647
  8
0
 10
119.3836390933176
 20
78.793471280454355
 30
0.0
  0
VERTEX
  5
3648
  8
0
 10
119.3664954523703
 20
78.795939950220884
 30
0.0
  0
VERTEX
  5
3649
  8
0
 10
119.3491839037695
 20
78.798126333143557
 30
0.0
  0
VERTEX
  5
364A
  8
0
 10
119.3317040848941
 20
78.800023562698641
 30
0.0
  0
VERTEX
  5
364B
  8
0
 10
119.31405564472971
 20
78.801624465422321
 30
0.0
  0
VERTEX
  5
364C
  8
0
 10
119.29623825963139
 20
78.802921542192792
 30
0.0
  0
VERTEX
  5
364D
  8
0
 10
119.287266123452
 20
78.803453708677807
 30
0.0
  0
VERTEX
  5
364E
  8
0
 10
119.278251651294
 20
78.80390694934971
 30
0.0
  0
VERTEX
  5
364F
  8
0
 10
119.2600956070437
 20
78.804572479778699
 30
0.0
  0
VERTEX
  5
3650
  8
0
 10
119.2417700025502
 20
78.804909544103566
 30
0.0
  0
VERTEX
  5
3651
  8
0
 10
119.23254360666991
 20
78.804952108199871
 30
0.0
  0
SEQEND
  5
3652
  8
0
  0
LINE
  5
2713
  8
0
 10
120.23254360666991
 20
68.804952108199871
 30
0.0
 11
120.23254360666991
 21
77.804952108199871
 31
0.0
  0
LINE
  5
2715
  8
0
 10
123.9501959799787
 20
68.804952108199871
 30
0.0
 11
124.29630817859319
 21
69.21743256433939
 31
0.0
  0
LINE
  5
2717
  8
0
 10
101.73254360666991
 20
68.804952108199871
 30
0.0
 11
123.9501959799787
 21
68.804952108199871
 31
0.0
  0
LINE
  5
2719
  8
0
 10
121.2863911839632
 20
77.804952108199871
 30
0.0
 11
120.23254360666991
 21
77.804952108199871
 31
0.0
  0
CIRCLE
  5
2721
  8
0
 10
126.48254360666991
 20
74.804952108199871
 30
0.0
 40
2.146446609406726
  0
LINE
  5
310F
  8
1
 10
141.48254360666991
 20
119.6983687366332
 30
0.0
 11
141.48254360666991
 21
105.3676038691529
 31
0.0
  0
LINE
  5
3110
  8
1
 10
134.3171611729297
 20
112.53298630289309
 30
0.0
 11
148.64792604041011
 21
112.53298630289309
 31
0.0
  0
LINE
  5
3111
  8
1
 10
141.48254360666979
 20
150.36760386915299
 30
0.0
 11
141.48254360666979
 21
164.69836873663331
 31
0.0
  0
LINE
  5
3112
  8
1
 10
148.64792604040991
 20
157.53298630289311
 30
0.0
 11
134.31716117292979
 21
157.53298630289311
 31
0.0
  0
LINE
  5
3113
  8
1
 10
111.48254360666979
 20
119.6983687366333
 30
0.0
 11
111.48254360666979
 21
105.367603869153
 31
0.0
  0
LINE
  5
3114
  8
1
 10
104.3171611729297
 20
112.53298630289309
 30
0.0
 11
118.6479260404101
 21
112.53298630289309
 31
0.0
  0
LINE
  5
3115
  8
1
 10
111.48254360666979
 20
150.36760386915299
 30
0.0
 11
111.48254360666979
 21
164.69836873663331
 31
0.0
  0
LINE
  5
3116
  8
1
 10
118.6479260404099
 20
157.53298630289311
 30
0.0
 11
104.3171611729298
 21
157.53298630289311
 31
0.0
  0
LINE
  5
31AC
  8
1
 10
134.4695240870569
 20
74.804952108199871
 30
0.0
 11
118.4955631262828
 21
74.804952108199871
 31
0.0
  0
LINE
  5
31AD
  8
1
 10
126.48254360666991
 20
85.330395830935515
 30
0.0
 11
126.48254360666991
 21
64.279508385464226
 31
0.0
  0
LINE
  5
31AE
  8
1
 10
111.48254360666979
 20
80.603243440477229
 30
0.0
 11
111.48254360666979
 21
67.006660775922512
 31
0.0
  0
LINE
  5
31AF
  8
1
 10
141.48254360666979
 20
80.603243440477229
 30
0.0
 11
141.48254360666979
 21
67.006660775922512
 31
0.0
  0
LINE
  5
31EF
  8
1
 10
93.760196404347425
 20
135.03298630289311
 30
0.0
 11
159.2048908089923
 21
135.03298630289311
 31
0.0
  0
LINE
  5
3326
  8
2
 10
144.36929495261799
 20
73.804952108199871
 30
0.0
 11
144.36929495261799
 21
78.804952108199871
 31
0.0
  0
LINE
  5
3328
  8
2
 10
138.59579226072171
 20
73.804952108199871
 30
0.0
 11
138.59579226072171
 21
78.804952108199871
 31
0.0
  0
LINE
  5
3329
  8
2
 10
105.7090409147736
 20
78.804952108199871
 30
0.0
 11
105.7090409147736
 21
73.804952108199871
 31
0.0
  0
LINE
  5
332A
  8
2
 10
117.2560462985661
 20
73.804952108199871
 30
0.0
 11
105.7090409147736
 21
73.804952108199871
 31
0.0
  0
LINE
  5
332C
  8
2
 10
117.2560462985661
 20
78.804952108199871
 30
0.0
 11
117.2560462985661
 21
73.804952108199871
 31
0.0
  0
LINE
  5
332D
  8
2
 10
108.59579226072169
 20
73.804952108199871
 30
0.0
 11
108.59579226072169
 21
78.804952108199871
 31
0.0
  0
LINE
  5
332E
  8
2
 10
114.36929495261801
 20
73.804952108199871
 30
0.0
 11
114.36929495261801
 21
78.804952108199871
 31
0.0
  0
TEXT
  5
3575
  8
0
 62
     3
 10
0.0
 20
0.0
 30
0.0
 40
10.0
  1
EFH5065EHP
  7
STANDARD1
  0
ENDSEC
  0
EOF
