  0
SECTION
  2
HEADER
  9
$ACADVER
  1
AC1009
  9
$INSBASE
 10
0.0
 20
0.0
 30
0.0
  9
$EXTMIN
 10
0.0
 20
-2.960436562073669
 30
0.0
  9
$EXTMAX
 10
251.84388349649461
 20
190.11585988511439
 30
0.0
  9
$LIMMIN
 10
0.0
 20
0.0
  9
$LIMMAX
 10
375.0
 20
278.0
  9
$ORTHOMODE
 70
     1
  9
$REGENMODE
 70
     1
  9
$FILLMODE
 70
     1
  9
$QTEXTMODE
 70
     0
  9
$MIRRTEXT
 70
     0
  9
$DRAGMODE
 70
     2
  9
$LTSCALE
 40
5.0
  9
$OSMODE
 70
  3071
  9
$ATTMODE
 70
     1
  9
$TEXTSIZE
 40
0.2
  9
$TRACEWID
 40
0.05
  9
$TEXTSTYLE
  7
STANDARD
  9
$CLAYER
  8
0
  9
$CELTYPE
  6
BYLAYER
  9
$CECOLOR
 62
   256
  9
$DIMSCALE
 40
1.0
  9
$DIMASZ
 40
3.0
  9
$DIMEXO
 40
1.0
  9
$DIMDLI
 40
6.0
  9
$DIMRND
 40
0.0
  9
$DIMDLE
 40
0.0
  9
$DIMEXE
 40
1.0
  9
$DIMTP
 40
495.0
  9
$DIMTM
 40
0.0
  9
$DIMTXT
 40
3.0
  9
$DIMCEN
 40
0.0
  9
$DIMTSZ
 40
0.0
  9
$DIMTOL
 70
     0
  9
$DIMLIM
 70
     0
  9
$DIMTIH
 70
     0
  9
$DIMTOH
 70
     0
  9
$DIMSE1
 70
     0
  9
$DIMSE2
 70
     0
  9
$DIMTAD
 70
     1
  9
$DIMZIN
 70
     0
  9
$DIMBLK
  1

  9
$DIMASO
 70
     0
  9
$DIMSHO
 70
     0
  9
$DIMPOST
  1

  9
$DIMAPOST
  1

  9
$DIMALT
 70
     0
  9
$DIMALTD
 70
     2
  9
$DIMALTF
 40
25.399999999999999
  9
$DIMLFAC
 40
1.0
  9
$DIMTOFL
 70
     1
  9
$DIMTVP
 40
0.0
  9
$DIMTIX
 70
     1
  9
$DIMSOXD
 70
     0
  9
$DIMSAH
 70
     0
  9
$DIMBLK1
  1

  9
$DIMBLK2
  1

  9
$DIMSTYLE
  2
STANDARD
  9
$DIMCLRD
 70
     0
  9
$DIMCLRE
 70
     0
  9
$DIMCLRT
 70
     4
  9
$DIMTFAC
 40
1.0
  9
$DIMGAP
 40
1.0
  9
$LUNITS
 70
     2
  9
$LUPREC
 70
     4
  9
$SKETCHINC
 40
0.1
  9
$FILLETRAD
 40
0.0
  9
$AUNITS
 70
     0
  9
$AUPREC
 70
     0
  9
$MENU
  1
C:\R13\WIN\SUPPORT\ACAD-I
  9
$ELEVATION
 40
0.0
  9
$PELEVATION
 40
0.0
  9
$THICKNESS
 40
0.0
  9
$LIMCHECK
 70
     0
  9
$BLIPMODE
 70
     0
  9
$CHAMFERA
 40
0.0
  9
$CHAMFERB
 40
0.0
  9
$SKPOLY
 70
     0
  9
$TDCREATE
 40
2450834.4199027782
  9
$TDUPDATE
 40
2456598.6568706371
  9
$TDINDWG
 40
0.0669824884
  9
$TDUSRTIMER
 40
0.0669824884
  9
$USRTIMER
 70
     1
  9
$ANGBASE
 50
0.0
  9
$ANGDIR
 70
     0
  9
$PDMODE
 70
     0
  9
$PDSIZE
 40
0.0
  9
$PLINEWID
 40
0.0
  9
$COORDS
 70
     1
  9
$SPLFRAME
 70
     0
  9
$SPLINETYPE
 70
     6
  9
$SPLINESEGS
 70
     8
  9
$ATTDIA
 70
     0
  9
$ATTREQ
 70
     1
  9
$HANDLING
 70
     1
  9
$HANDSEED
  5
2CE0
  9
$SURFTAB1
 70
     6
  9
$SURFTAB2
 70
     6
  9
$SURFTYPE
 70
     6
  9
$SURFU
 70
     6
  9
$SURFV
 70
     6
  9
$UCSNAME
  2

  9
$UCSORG
 10
0.0
 20
0.0
 30
0.0
  9
$UCSXDIR
 10
1.0
 20
0.0
 30
0.0
  9
$UCSYDIR
 10
0.0
 20
1.0
 30
0.0
  9
$PUCSNAME
  2

  9
$PUCSORG
 10
0.0
 20
0.0
 30
0.0
  9
$PUCSXDIR
 10
1.0
 20
0.0
 30
0.0
  9
$PUCSYDIR
 10
0.0
 20
1.0
 30
0.0
  9
$USERI1
 70
     4
  9
$USERI2
 70
     1
  9
$USERI3
 70
     1
  9
$USERI4
 70
     0
  9
$USERI5
 70
     0
  9
$USERR1
 40
1.0
  9
$USERR2
 40
3.0
  9
$USERR3
 40
3.0
  9
$USERR4
 40
3.0
  9
$USERR5
 40
10.0
  9
$WORLDVIEW
 70
     1
  9
$SHADEDGE
 70
     3
  9
$SHADEDIF
 70
    70
  9
$TILEMODE
 70
     1
  9
$MAXACTVP
 70
    16
  9
$PLIMCHECK
 70
     0
  9
$PEXTMIN
 10
1.0000000000000000E+020
 20
1.0000000000000000E+020
 30
1.0000000000000000E+020
  9
$PEXTMAX
 10
-1.0000000000000000E+020
 20
-1.0000000000000000E+020
 30
-1.0000000000000000E+020
  9
$PLIMMIN
 10
0.0
 20
0.0
  9
$PLIMMAX
 10
12.0
 20
9.0
  9
$UNITMODE
 70
     0
  9
$VISRETAIN
 70
     0
  9
$PLINEGEN
 70
     0
  9
$PSLTSCALE
 70
     0
  0
ENDSEC
  0
SECTION
  2
TABLES
  0
TABLE
  2
VPORT
 70
     1
  0
VPORT
  2
*ACTIVE
 70
     0
 10
0.0
 20
0.0
 11
1.0
 21
1.0
 12
187.49427839065231
 22
174.97168974450321
 13
0.0
 23
0.0
 14
10.0
 24
10.0
 15
10.0
 25
10.0
 16
0.0
 26
0.0
 36
1.0
 17
0.0
 27
0.0
 37
0.0
 40
359.12869706410731
 41
1.831871345029239
 42
50.0
 43
0.0
 44
0.0
 50
0.0
 51
0.0
 71
     0
 72
   100
 73
     1
 74
     0
 75
     0
 76
     0
 77
     0
 78
     0
  0
ENDTAB
  0
TABLE
  2
LTYPE
 70
     4
  0
LTYPE
  2
CONTINUOUS
 70
     0
  3
Solid Line
 72
    65
 73
     0
 40
0.0
  0
LTYPE
  2
CENTER
 70
     0
  3
____ _ ____ _ ____ _ ____ _ ____ _ ____ _ ____
 72
    65
 73
     4
 40
2.0
 49
1.25
 49
-0.25
 49
0.25
 49
-0.25
  0
LTYPE
  2
HIDDEN
 70
     0
  3
__ __ __ __ __ __ __ __ __ __ __ __ __ __ __ __
 72
    65
 73
     2
 40
0.375
 49
0.25
 49
-0.125
  0
LTYPE
  2
PHANTOM2
 70
     0
  3
___ _ _ ___ _ _ ___ _ _ ___ _ _
 72
    65
 73
     6
 40
1.25
 49
0.625
 49
-0.125
 49
0.125
 49
-0.125
 49
0.125
 49
-0.125
  0
ENDTAB
  0
TABLE
  2
LAYER
 70
     4
  0
LAYER
  2
0
 70
     0
 62
     7
  6
CONTINUOUS
  0
LAYER
  2
1
 70
     0
 62
     1
  6
CENTER
  0
LAYER
  2
3
 70
     0
 62
     3
  6
CONTINUOUS
  0
LAYER
  2
2
 70
     0
 62
     2
  6
HIDDEN
  0
ENDTAB
  0
TABLE
  2
STYLE
 70
     2
  0
STYLE
  2
STANDARD
 70
     0
 40
0.0
 41
1.0
 50
0.0
 71
     0
 42
0.2
  3
SIMPLEX
  4
BIGFONT
  0
STYLE
  2
STANDARD1
 70
     0
 40
0.0
 41
1.0
 50
0.0
 71
     0
 42
3.0
  3
txt
  4

  0
ENDTAB
  0
TABLE
  2
VIEW
 70
     0
  0
ENDTAB
  0
TABLE
  2
UCS
 70
     0
  0
ENDTAB
  0
TABLE
  2
APPID
 70
    38
  0
APPID
  2
ACAD
 70
     0
  0
APPID
  2
GENIUS_GENOBJ_13
 70
     0
  0
APPID
  2
GENIUS_GENODEF_13
 70
     0
  0
APPID
  2
GENIUS_GENOENT_13
 70
     0
  0
APPID
  2
GENIUS_GENOLIS_13
 70
     0
  0
APPID
  2
GENIUS_GENOREF_13
 70
     0
  0
APPID
  2
GENIUS_GENOBJ-N-TIT_13
 70
     0
  0
APPID
  2
GENIUS_GENTITLE_13
 70
     0
  0
APPID
  2
GENIUS_GENZVEED_13
 70
     0
  0
APPID
  2
GENIUS_GENOBJ-N-FIL_13
 70
     0
  0
APPID
  2
GENIUS_GENOBJ-N-CRS_13
 70
     0
  0
APPID
  2
GENIUS_GEFINERT_13
 70
     0
  0
APPID
  2
GENIUS_GENOBJ-F-INER_13
 70
     0
  0
APPID
  2
GENIUS_GENOBJ-N-ZOO_13
 70
     0
  0
APPID
  2
GENIUS_GENZOO_13
 70
     0
  0
APPID
  2
GENIUS_GENOBJ-F-TOL_13
 70
     0
  0
APPID
  2
GENIUS_GENOBJ-N-RSSYM_13
 70
     0
  0
APPID
  2
GENIUS_GENSYMENT_13
 70
     0
  0
APPID
  2
GENIUS_GENBH_13
 70
     0
  0
APPID
  2
GENIUS_GENOBJ-NBEHI-BHF_13
 70
     0
  0
APPID
  2
GENIUS_GENOBJ-NBEHI-BHB_13
 70
     0
  0
APPID
  2
GENIUS_GENOBJ-F-PART_13
 70
     0
  0
APPID
  2
GENIUS_GEFSTDP_13
 70
     0
  0
APPID
  2
GENIUS_GENOBJ-N-LEADER_13
 70
     0
  0
APPID
  2
GENIUS_GENOBJ-N-REV_13
 70
     0
  0
APPID
  2
GENIUS_GENCFG_13
 70
     0
  0
APPID
  2
GENIUS_GENCFG0_13
 70
     0
  0
APPID
  2
GENIUS_GENCFG1_13
 70
     0
  0
APPID
  2
GENIUS_GENCFG2_13
 70
     0
  0
APPID
  2
GENIUS_GENCFG3_13
 70
     0
  0
APPID
  2
GENIUS_GEVCFG0_13
 70
     0
  0
APPID
  2
GENIUS_GENCFG4_13
 70
     0
  0
APPID
  2
GENIUS_GENOBJ-N-REC_13
 70
     0
  0
APPID
  2
GENIUS_GENFIL_13
 70
     0
  0
APPID
  2
GENIUS_GENOBJ-N-CHA_13
 70
     0
  0
APPID
  2
GENIUS_GENREC_13
 70
     0
  0
APPID
  2
ACAD_MLEADERVER
 70
     0
  0
APPID
  2
ACAD_NAV_VCDISPLAY
 70
     0
  0
ENDTAB
  0
TABLE
  2
DIMSTYLE
 70
     1
  0
DIMSTYLE
  2
STANDARD
 70
     0
  3

  4

  5

  6

  7

 40
1.0
 41
0.18
 42
0.0625
 43
0.38
 44
0.18
 45
0.0
 46
0.0
 47
0.0
 48
0.0
140
0.18
141
0.09
142
0.0
143
25.399999999999999
144
1.0
145
0.0
146
1.0
147
0.09
 71
     0
 72
     0
 73
     1
 74
     1
 75
     0
 76
     0
 77
     0
 78
     0
170
     0
171
     2
172
     0
173
     0
174
     0
175
     0
176
     0
177
     0
178
     0
  0
ENDTAB
  0
ENDSEC
  0
SECTION
  2
BLOCKS
  0
BLOCK
  8
0
  2
$MODEL_SPACE
 70
     0
 10
0.0
 20
0.0
 30
0.0
  3
$MODEL_SPACE
  1

  0
ENDBLK
  5
2A76
  8
0
  0
BLOCK
 67
     1
  8
0
  2
$PAPER_SPACE
 70
     0
 10
0.0
 20
0.0
 30
0.0
  3
$PAPER_SPACE
  1

  0
ENDBLK
  5
2A74
 67
     1
  8
0
  0
BLOCK
  8
0
  2
STDGX5
 70
     0
 10
0.0
 20
0.0
 30
0.0
  3
STDGX5
  1

  0
ENDBLK
  5
4F
  8
0
  0
ENDSEC
  0
SECTION
  2
ENTITIES
  0
INSERT
  5
DE
  8
0
  2
STDGX5
 10
0.0
 20
0.0
 30
0.0
  0
INSERT
  5
DF
  8
0
  2
STDGX5
 10
0.0
 20
0.0
 30
0.0
  0
INSERT
  5
15C
  8
0
  2
STDGX5
 10
275.0
 20
0.0
 30
0.0
  0
INSERT
  5
15D
  8
0
  2
STDGX5
 10
275.0
 20
0.0
 30
0.0
  0
INSERT
  5
314
  8
0
  2
STDGX5
 10
0.0
 20
0.0
 30
0.0
  0
INSERT
  5
315
  8
0
  2
STDGX5
 10
0.0
 20
0.0
 30
0.0
  0
INSERT
  5
316
  8
0
  2
STDGX5
 10
275.0
 20
0.0
 30
0.0
  0
INSERT
  5
317
  8
0
  2
STDGX5
 10
275.0
 20
0.0
 30
0.0
  0
INSERT
  5
4EF
  8
0
  2
STDGX5
 10
0.0
 20
0.0
 30
0.0
  0
INSERT
  5
4F0
  8
0
  2
STDGX5
 10
0.0
 20
0.0
 30
0.0
  0
INSERT
  5
4F1
  8
0
  2
STDGX5
 10
275.0
 20
0.0
 30
0.0
  0
INSERT
  5
4F2
  8
0
  2
STDGX5
 10
275.0
 20
0.0
 30
0.0
  0
LINE
  5
2152
  8
0
 10
98.790462888030461
 20
75.365598992578654
 30
0.0
 11
148.29046288802971
 21
75.365598992578654
 31
0.0
  0
LINE
  5
2153
  8
0
 10
101.7904628880304
 20
86.365598992578654
 30
0.0
 11
145.29046288803031
 21
86.365598992578654
 31
0.0
  0
ARC
  5
2154
  8
0
 10
134.5404628880309
 20
93.365598992577873
 30
0.0
 40
1.0
 50
359.99999999999619
 51
89.999999999996177
1001
GENIUS_GENODEF_13
1002
{
1000
HIER
1070
     0
1002
}
1002
{
1000
MANEDIT
1070
     0
1002
}
1002
{
1000
NOSEL
1070
     0
1002
}
1002
{
1000
BEHIND
1070
     0
1002
}
1002
{
1000
REACTOR
1002
}
1001
GENIUS_GENOBJ-N-FIL_13
1002
{
1000
OWNER
1000
GEN
1002
}
  0
LINE
  5
2155
  8
1
 10
206.34121400970099
 20
162.6158598851143
 30
0.0
 11
243.3465539832882
 21
162.6158598851143
 31
0.0
  0
LINE
  5
2156
  8
1
 10
215.4129304237922
 20
177.8658598851143
 30
0.0
 11
203.274868569197
 21
177.8658598851143
 31
0.0
  0
LINE
  5
2158
  8
0
 10
213.84388349649461
 20
86.365598992578654
 30
0.0
 11
220.34388349649461
 21
82.612822992578685
 31
0.0
  0
LINE
  5
2159
  8
0
 10
209.37978249649461
 20
86.365598992578654
 30
0.0
 11
221.84388349649461
 21
93.56175199257865
 31
0.0
  0
LINE
  5
215A
  8
0
 10
200.84388349649461
 20
75.365598992578654
 30
0.0
 11
217.84388349649461
 21
75.365598992578654
 31
0.0
1001
GENIUS_GENOREF_13
1005
0
1005
0
  0
LINE
  5
215B
  8
0
 10
209.37978249649461
 20
150.6158598851145
 30
0.0
 11
240.30798549649461
 21
150.61585988511439
 31
0.0
  0
LINE
  5
215C
  8
0
 10
209.37978249649461
 20
144.6158598851143
 30
0.0
 11
240.30798549649461
 21
144.61585988511439
 31
0.0
  0
LINE
  5
215D
  8
0
 10
203.84388349649461
 20
137.86585988511439
 30
0.0
 11
220.34388349649461
 21
137.86585988511439
 31
0.0
  0
LINE
  5
215E
  8
0
 10
209.37978249649461
 20
180.61585988511439
 30
0.0
 11
240.30798549649461
 21
180.6158598851143
 31
0.0
  0
LINE
  5
215F
  8
0
 10
209.37978249649461
 20
174.61585988511439
 30
0.0
 11
240.30798549649461
 21
174.61585988511439
 31
0.0
  0
LINE
  5
2160
  8
0
 10
209.37978249649461
 20
168.61585988511439
 30
0.0
 11
240.30798549649461
 21
168.61585988511439
 31
0.0
  0
LINE
  5
2161
  8
0
 10
209.37978249649461
 20
162.61585988511439
 30
0.0
 11
240.30798549649461
 21
162.61585988511439
 31
0.0
  0
LINE
  5
2162
  8
0
 10
209.37978249649461
 20
156.61585988511439
 30
0.0
 11
240.30798549649461
 21
156.61585988511439
 31
0.0
  0
LINE
  5
2163
  8
0
 10
209.37978249649461
 20
186.6158598851143
 30
0.0
 11
230.09388349649461
 21
186.6158598851143
 31
0.0
  0
LINE
  5
2164
  8
0
 10
203.84388349649461
 20
187.3658598851143
 30
0.0
 11
220.34388349649461
 21
187.3658598851143
 31
0.0
  0
LINE
  5
2165
  8
0
 10
213.84388349649461
 20
150.61585988511439
 30
0.0
 11
213.84388349649461
 21
156.61585988511439
 31
0.0
  0
LINE
  5
2166
  8
0
 10
200.84388349649461
 20
140.86585988511439
 30
0.0
 11
200.84388349649461
 21
184.3658598851143
 31
0.0
  0
ARC
  5
2167
  8
0
 10
203.84388349649461
 20
140.86585988511439
 30
0.0
 40
3.0
 50
180.0
 51
270.0
  0
LINE
  5
2168
  8
0
 10
213.84388349649461
 20
137.86585988511439
 30
0.0
 11
213.84388349649461
 21
144.61585988511439
 31
0.0
  0
LINE
  5
216A
  8
0
 10
209.37978249649461
 20
144.6158598851143
 30
0.0
 11
209.37978249649461
 21
150.6158598851145
 31
0.0
  0
LINE
  5
216B
  8
1
 10
209.3438994964946
 20
171.7968289578167
 30
0.0
 11
209.3438994964946
 21
183.93489081241191
 31
0.0
  0
LINE
  5
216C
  8
0
 10
213.84388349649461
 20
174.61585988511439
 30
0.0
 11
213.84388349649461
 21
180.61585988511439
 31
0.0
  0
LINE
  5
216D
  8
3
 10
203.8893569886886
 20
161.31463194277009
 30
0.0
 11
203.87583571835211
 21
161.35068866366731
 31
0.0
  0
LINE
  5
216E
  8
3
 10
203.87583571835211
 20
158.98446635478589
 30
0.0
 11
203.8848498985765
 21
158.98897344489811
 31
0.0
  0
LINE
  5
216F
  8
3
 10
203.8848498985765
 20
162.1980216047524
 30
0.0
 11
203.86682153812791
 21
162.2521066860983
 31
0.0
  0
LINE
  5
2170
  8
3
 10
203.87583571835211
 20
162.86507094135141
 30
0.0
 11
203.8848498985765
 21
162.92366311280941
 31
0.0
  0
LINE
  5
2171
  8
3
 10
203.8893569886886
 20
159.22334213073009
 30
0.0
 11
203.87583571835211
 21
159.27742721207591
 31
0.0
  0
LINE
  5
2172
  8
3
 10
203.86682153812791
 20
159.93996945856281
 30
0.0
 11
203.89386407880079
 21
160.03912544103019
 31
0.0
  0
LINE
  5
2173
  8
3
 10
204.06062641295051
 20
158.17769722471019
 30
0.0
 11
203.83977899745491
 21
158.07854124224269
 31
0.0
  0
LINE
  5
2174
  8
3
 10
203.85330026779141
 20
161.87351111667729
 30
0.0
 11
203.89837116891289
 21
161.87801820678939
 31
0.0
  0
LINE
  5
2175
  8
1
 10
197.84388349649461
 20
162.6158598851143
 30
0.0
 11
203.84837687838061
 21
162.6158598851143
 31
0.0
  0
LINE
  5
2176
  8
3
 10
203.87583571835211
 20
161.35068866366731
 30
0.0
 11
203.87132862824001
 21
161.38674538456451
 31
0.0
  0
LINE
  5
2177
  8
3
 10
203.86682153812791
 20
162.80647876989329
 30
0.0
 11
203.87583571835211
 21
162.86507094135141
 31
0.0
  0
LINE
  5
2178
  8
3
 10
203.87132862824001
 20
158.97995926467371
 30
0.0
 11
203.87583571835211
 21
158.98446635478589
 31
0.0
  0
LINE
  5
2179
  8
3
 10
203.8487931776792
 20
161.73829841331261
 30
0.0
 11
203.85330026779141
 21
161.7698480440977
 31
0.0
  0
LINE
  5
217A
  8
3
 10
203.8487931776792
 20
161.59857861983579
 30
0.0
 11
203.8487931776792
 21
161.63463534073301
 31
0.0
  0
LINE
  5
217B
  8
3
 10
203.8487931776792
 20
161.66618497151819
 30
0.0
 11
203.8487931776792
 21
161.70224169241541
 31
0.0
  0
LINE
  5
217C
  8
3
 10
203.8487931776792
 20
161.63463534073301
 30
0.0
 11
203.8487931776792
 21
161.66618497151819
 31
0.0
  0
LINE
  5
217D
  8
3
 10
203.8623144480157
 20
161.42280210546181
 30
0.0
 11
203.85780735790351
 21
161.45885882635901
 31
0.0
  0
LINE
  5
217E
  8
3
 10
203.85330026779141
 20
161.52646517804129
 30
0.0
 11
203.85330026779141
 21
161.5625218989386
 31
0.0
  0
LINE
  5
217F
  8
3
 10
203.85780735790351
 20
161.4949155472562
 30
0.0
 11
203.85330026779141
 21
161.52646517804129
 31
0.0
  0
LINE
  5
2180
  8
3
 10
203.85780735790351
 20
161.45885882635901
 30
0.0
 11
203.85780735790351
 21
161.4949155472562
 31
0.0
  0
LINE
  5
2181
  8
3
 10
203.85330026779141
 20
161.5625218989386
 30
0.0
 11
203.8487931776792
 21
161.59857861983579
 31
0.0
  0
LINE
  5
2182
  8
3
 10
203.84428608756701
 20
162.55858881372481
 30
0.0
 11
203.8487931776792
 21
162.621688075295
 31
0.0
  0
LINE
  5
2183
  8
3
 10
203.85330026779141
 20
162.680280246753
 30
0.0
 11
203.85780735790351
 21
162.74337950832319
 31
0.0
  0
LINE
  5
2184
  8
3
 10
203.8487931776792
 20
162.621688075295
 30
0.0
 11
203.85330026779141
 21
162.680280246753
 31
0.0
  0
LINE
  5
2185
  8
3
 10
203.85780735790351
 20
162.3152059476684
 30
0.0
 11
203.8487931776792
 21
162.37379811912649
 31
0.0
  0
LINE
  5
2186
  8
3
 10
203.8487931776792
 20
162.43689738069671
 30
0.0
 11
203.84428608756701
 21
162.49548955215471
 31
0.0
  0
LINE
  5
2187
  8
3
 10
203.8487931776792
 20
162.37379811912649
 30
0.0
 11
203.8487931776792
 21
162.43689738069671
 31
0.0
  0
LINE
  5
2188
  8
3
 10
203.84428608756701
 20
162.49548955215471
 30
0.0
 11
203.84428608756701
 21
162.55858881372481
 31
0.0
  0
LINE
  5
2189
  8
3
 10
203.83977899745491
 20
158.07854124224269
 30
0.0
 11
203.83977899745491
 21
158.71854803816871
 31
0.0
  0
LINE
  5
218A
  8
3
 10
203.83977899745491
 20
158.71854803816871
 30
0.0
 11
203.83977899745491
 21
158.94390254377649
 31
0.0
  0
LINE
  5
218B
  8
3
 10
203.85780735790351
 20
158.9709450844494
 30
0.0
 11
203.8623144480157
 21
158.97545217456161
 31
0.0
  0
LINE
  5
218C
  8
3
 10
203.85330026779141
 20
158.9664379943373
 30
0.0
 11
203.85780735790351
 21
158.9709450844494
 31
0.0
  0
LINE
  5
218D
  8
3
 10
203.8487931776792
 20
158.95742381411301
 30
0.0
 11
203.85330026779141
 21
158.9664379943373
 31
0.0
  0
LINE
  5
218E
  8
3
 10
203.83977899745491
 20
158.9529167240008
 30
0.0
 11
203.8487931776792
 21
158.95742381411301
 31
0.0
  0
LINE
  5
218F
  8
3
 10
203.83977899745491
 20
158.94390254377649
 30
0.0
 11
203.83977899745491
 21
158.9529167240008
 31
0.0
  0
LINE
  5
2190
  8
3
 10
203.84428608756701
 20
159.4351753660014
 30
0.0
 11
203.83977899745491
 21
159.48926044734731
 31
0.0
  0
LINE
  5
2191
  8
3
 10
203.85330026779141
 20
159.38559737476771
 30
0.0
 11
203.84428608756701
 21
159.4351753660014
 31
0.0
  0
LINE
  5
2192
  8
3
 10
203.8623144480157
 20
159.33151229342181
 30
0.0
 11
203.85330026779141
 21
159.38559737476771
 31
0.0
  0
LINE
  5
2193
  8
3
 10
203.8352719073427
 20
159.53883843858091
 30
0.0
 11
203.8307648172306
 21
159.58841642981471
 31
0.0
  0
LINE
  5
2194
  8
3
 10
203.8307648172306
 20
159.6379944210484
 30
0.0
 11
203.8307648172306
 21
159.69207950239419
 31
0.0
  0
LINE
  5
2195
  8
3
 10
203.8307648172306
 20
159.58841642981471
 30
0.0
 11
203.8307648172306
 21
159.6379944210484
 31
0.0
  0
LINE
  5
2196
  8
3
 10
203.8307648172306
 20
159.69207950239419
 30
0.0
 11
203.8352719073427
 21
159.741657493628
 31
0.0
  0
LINE
  5
2197
  8
3
 10
203.83977899745491
 20
159.48926044734731
 30
0.0
 11
203.8352719073427
 21
159.53883843858091
 31
0.0
  0
LINE
  5
2198
  8
3
 10
203.83977899745491
 20
159.7912354848616
 30
0.0
 11
203.84428608756701
 21
159.84081347609541
 31
0.0
  0
LINE
  5
2199
  8
3
 10
203.84428608756701
 20
159.84081347609541
 30
0.0
 11
203.85330026779141
 21
159.8903914673291
 31
0.0
  0
LINE
  5
219A
  8
3
 10
203.8352719073427
 20
159.741657493628
 30
0.0
 11
203.83977899745491
 21
159.7912354848616
 31
0.0
  0
LINE
  5
219B
  8
3
 10
203.8487931776792
 20
161.70224169241541
 30
0.0
 11
203.8487931776792
 21
161.73829841331261
 31
0.0
  0
LINE
  5
219C
  8
3
 10
203.85330026779141
 20
161.7698480440977
 30
0.0
 11
203.85330026779141
 21
161.80590476499501
 31
0.0
  0
LINE
  5
219D
  8
3
 10
203.85330026779141
 20
161.80590476499501
 30
0.0
 11
203.85330026779141
 21
161.87351111667729
 31
0.0
  0
LINE
  5
219E
  8
3
 10
203.87132862824001
 20
161.38674538456451
 30
0.0
 11
203.8623144480157
 21
161.42280210546181
 31
0.0
  0
LINE
  5
219F
  8
3
 10
203.86682153812791
 20
162.2521066860983
 30
0.0
 11
203.85780735790351
 21
162.3152059476684
 31
0.0
  0
LINE
  5
21A0
  8
3
 10
203.85780735790351
 20
162.74337950832319
 30
0.0
 11
203.86682153812791
 21
162.80647876989329
 31
0.0
  0
LINE
  5
21A1
  8
3
 10
203.8623144480157
 20
158.97545217456161
 30
0.0
 11
203.87132862824001
 21
158.97995926467371
 31
0.0
  0
LINE
  5
21A2
  8
3
 10
203.87583571835211
 20
159.27742721207591
 30
0.0
 11
203.8623144480157
 21
159.33151229342181
 31
0.0
  0
LINE
  5
21A3
  8
3
 10
203.85330026779141
 20
159.8903914673291
 30
0.0
 11
203.86682153812791
 21
159.93996945856281
 31
0.0
  0
LINE
  5
21A4
  8
3
 10
204.70964738910089
 20
167.00257966430971
 30
0.0
 11
204.78176083089531
 21
167.0251151148704
 31
0.0
  0
LINE
  5
21A5
  8
3
 10
205.50740233895229
 20
167.0206080247583
 30
0.0
 11
205.57951578074679
 21
166.99807257419749
 31
0.0
  0
LINE
  5
21A6
  8
0
 10
213.84388349649461
 20
162.61585988511439
 30
0.0
 11
213.84388349649461
 21
168.61585988511439
 31
0.0
  0
LINE
  5
21A7
  8
3
 10
204.10119022395989
 20
166.51581393219701
 30
0.0
 11
204.1192185844086
 21
166.5383493827577
 31
0.0
  0
LINE
  5
21A8
  8
3
 10
204.08766895362351
 20
166.48877139152401
 30
0.0
 11
204.10119022395989
 21
166.51581393219701
 31
0.0
  0
LINE
  5
21A9
  8
3
 10
204.15076821519361
 20
166.5879273739915
 30
0.0
 11
204.17330366575439
 21
166.6104628245522
 31
0.0
  0
LINE
  5
21AA
  8
3
 10
204.1327398547449
 20
166.56088483331851
 30
0.0
 11
204.15076821519361
 21
166.5879273739915
 31
0.0
  0
LINE
  5
21AB
  8
3
 10
204.1192185844086
 20
166.5383493827577
 30
0.0
 11
204.1327398547449
 21
166.56088483331851
 31
0.0
  0
LINE
  5
21AC
  8
3
 10
206.19698712611199
 20
166.50229266186051
 30
0.0
 11
206.2105083964484
 21
166.48877139152401
 31
0.0
  0
LINE
  5
21AD
  8
3
 10
206.18797294588771
 20
166.5203210223091
 30
0.0
 11
206.19698712611199
 21
166.50229266186051
 31
0.0
  0
LINE
  5
21AE
  8
3
 10
206.1789587656634
 20
166.53384229264549
 30
0.0
 11
206.18797294588771
 21
166.5203210223091
 31
0.0
  0
LINE
  5
21AF
  8
3
 10
206.16994458543911
 20
166.54736356298201
 30
0.0
 11
206.1789587656634
 21
166.53384229264549
 31
0.0
  0
LINE
  5
21B0
  8
3
 10
206.1474091348783
 20
166.56989901354279
 30
0.0
 11
206.16093040521471
 21
166.56088483331851
 31
0.0
  0
LINE
  5
21B1
  8
3
 10
206.13839495465399
 20
166.58342028387921
 30
0.0
 11
206.1474091348783
 21
166.56989901354279
 31
0.0
  0
LINE
  5
21B2
  8
3
 10
206.12938077442971
 20
166.59694155421579
 30
0.0
 11
206.13839495465399
 21
166.58342028387921
 31
0.0
  0
LINE
  5
21B3
  8
3
 10
206.11585950409329
 20
166.6104628245522
 30
0.0
 11
206.12938077442971
 21
166.59694155421579
 31
0.0
  0
LINE
  5
21B4
  8
3
 10
206.16093040521471
 20
166.56088483331851
 30
0.0
 11
206.16994458543911
 21
166.54736356298201
 31
0.0
  0
LINE
  5
21B5
  8
3
 10
204.36260145046489
 20
166.79976060926271
 30
0.0
 11
204.41217944169861
 21
166.82680314993561
 31
0.0
  0
LINE
  5
21B6
  8
3
 10
204.34006599990411
 20
166.78173224881411
 30
0.0
 11
204.36260145046489
 21
166.79976060926271
 31
0.0
  0
LINE
  5
21B7
  8
3
 10
204.31753054934339
 20
166.76370388836551
 30
0.0
 11
204.34006599990411
 21
166.78173224881411
 31
0.0
  0
LINE
  5
21B8
  8
3
 10
204.29499509878261
 20
166.74567552791689
 30
0.0
 11
204.31753054934339
 21
166.76370388836551
 31
0.0
  0
LINE
  5
21B9
  8
3
 10
204.2724596482218
 20
166.72314007735611
 30
0.0
 11
204.29499509878261
 21
166.74567552791689
 31
0.0
  0
LINE
  5
21BA
  8
3
 10
204.24992419766099
 20
166.7006046267953
 30
0.0
 11
204.2724596482218
 21
166.72314007735611
 31
0.0
  0
LINE
  5
21BB
  8
3
 10
204.23189583721251
 20
166.67806917623449
 30
0.0
 11
204.24992419766099
 21
166.7006046267953
 31
0.0
  0
LINE
  5
21BC
  8
3
 10
204.20936038665161
 20
166.65553372567371
 30
0.0
 11
204.23189583721251
 21
166.67806917623449
 31
0.0
  0
LINE
  5
21BD
  8
3
 10
204.19133202620301
 20
166.6329982751129
 30
0.0
 11
204.20936038665161
 21
166.65553372567371
 31
0.0
  0
LINE
  5
21BE
  8
3
 10
204.57443468573609
 20
166.93948040273949
 30
0.0
 11
204.64204103741861
 21
166.97553712363671
 31
0.0
  0
LINE
  5
21BF
  8
3
 10
204.64204103741861
 20
166.97553712363671
 30
0.0
 11
204.70964738910089
 21
167.00257966430971
 31
0.0
  0
LINE
  5
21C0
  8
3
 10
204.54288505495111
 20
166.92145204229089
 30
0.0
 11
204.55189923517551
 21
166.92595913240299
 31
0.0
  0
LINE
  5
21C1
  8
3
 10
204.5293637846147
 20
166.91243786206661
 30
0.0
 11
204.54288505495111
 21
166.92145204229089
 31
0.0
  0
LINE
  5
21C2
  8
3
 10
204.52034960439039
 20
166.9079307719544
 30
0.0
 11
204.5293637846147
 21
166.91243786206661
 31
0.0
  0
LINE
  5
21C3
  8
3
 10
204.55189923517551
 20
166.92595913240299
 30
0.0
 11
204.57443468573609
 21
166.93948040273949
 31
0.0
  0
LINE
  5
21C4
  8
3
 10
204.49781415382961
 20
166.89440950161799
 30
0.0
 11
204.50682833405389
 21
166.9034236818423
 31
0.0
  0
LINE
  5
21C5
  8
3
 10
204.48429288349311
 20
166.8899024115058
 30
0.0
 11
204.49781415382961
 21
166.89440950161799
 31
0.0
  0
LINE
  5
21C6
  8
3
 10
204.4707716131567
 20
166.8853953213937
 30
0.0
 11
204.48429288349311
 21
166.8899024115058
 31
0.0
  0
LINE
  5
21C7
  8
3
 10
204.4617574329323
 20
166.8763811411693
 30
0.0
 11
204.4707716131567
 21
166.8853953213937
 31
0.0
  0
LINE
  5
21C8
  8
3
 10
204.45274325270799
 20
166.8718740510572
 30
0.0
 11
204.4617574329323
 21
166.8763811411693
 31
0.0
  0
LINE
  5
21C9
  8
3
 10
204.44372907248371
 20
166.86285987083289
 30
0.0
 11
204.45274325270799
 21
166.8718740510572
 31
0.0
  0
LINE
  5
21CA
  8
3
 10
204.43020780214721
 20
166.85384569060861
 30
0.0
 11
204.44372907248371
 21
166.86285987083289
 31
0.0
  0
LINE
  5
21CB
  8
3
 10
204.42570071203511
 20
166.84933860049651
 30
0.0
 11
204.43020780214721
 21
166.85384569060861
 31
0.0
  0
LINE
  5
21CC
  8
3
 10
204.41668653181071
 20
166.84032442027211
 30
0.0
 11
204.42570071203511
 21
166.84933860049651
 31
0.0
  0
LINE
  5
21CD
  8
3
 10
204.41217944169861
 20
166.82680314993561
 30
0.0
 11
204.41668653181071
 21
166.84032442027211
 31
0.0
  0
LINE
  5
21CE
  8
3
 10
204.50682833405389
 20
166.9034236818423
 30
0.0
 11
204.52034960439039
 21
166.9079307719544
 31
0.0
  0
LINE
  5
21CF
  8
3
 10
205.57951578074679
 20
166.99807257419749
 30
0.0
 11
205.7192355742236
 21
166.93948040273949
 31
0.0
  0
LINE
  5
21D0
  8
3
 10
205.8093773764667
 20
166.8763811411693
 30
0.0
 11
205.82289864680311
 21
166.86736696094511
 31
0.0
  0
LINE
  5
21D1
  8
3
 10
205.7958561061302
 20
166.8853953213937
 30
0.0
 11
205.8093773764667
 21
166.8763811411693
 31
0.0
  0
LINE
  5
21D2
  8
3
 10
205.786841925906
 20
166.89440950161799
 30
0.0
 11
205.7958561061302
 21
166.8853953213937
 31
0.0
  0
LINE
  5
21D3
  8
3
 10
205.77332065556939
 20
166.9034236818423
 30
0.0
 11
205.786841925906
 21
166.89440950161799
 31
0.0
  0
LINE
  5
21D4
  8
3
 10
205.73275684455999
 20
166.93046622251521
 30
0.0
 11
205.7462781148966
 21
166.92145204229089
 31
0.0
  0
LINE
  5
21D5
  8
3
 10
205.7192355742236
 20
166.93948040273949
 30
0.0
 11
205.73275684455999
 21
166.93046622251521
 31
0.0
  0
LINE
  5
21D6
  8
3
 10
205.7462781148966
 20
166.92145204229089
 30
0.0
 11
205.75979938523301
 21
166.91243786206661
 31
0.0
  0
LINE
  5
21D7
  8
3
 10
205.75979938523301
 20
166.91243786206661
 30
0.0
 11
205.77332065556939
 21
166.9034236818423
 31
0.0
  0
LINE
  5
21D8
  8
3
 10
205.89501208859761
 20
166.82229605982349
 30
0.0
 11
205.9265617193827
 21
166.80426769937489
 31
0.0
  0
LINE
  5
21D9
  8
3
 10
205.88149081826111
 20
166.82680314993561
 30
0.0
 11
205.89501208859761
 21
166.82229605982349
 31
0.0
  0
LINE
  5
21DA
  8
3
 10
205.87247663803689
 20
166.8358173301599
 30
0.0
 11
205.88149081826111
 21
166.82680314993561
 31
0.0
  0
LINE
  5
21DB
  8
3
 10
205.85895536770039
 20
166.84483151038421
 30
0.0
 11
205.87247663803689
 21
166.8358173301599
 31
0.0
  0
LINE
  5
21DC
  8
3
 10
205.84543409736389
 20
166.85384569060861
 30
0.0
 11
205.85895536770039
 21
166.84483151038421
 31
0.0
  0
LINE
  5
21DD
  8
3
 10
205.83641991713961
 20
166.85835278072071
 30
0.0
 11
205.84543409736389
 21
166.85384569060861
 31
0.0
  0
LINE
  5
21DE
  8
3
 10
206.0888169634203
 20
166.64651954544939
 30
0.0
 11
206.09783114364461
 21
166.6329982751129
 31
0.0
  0
LINE
  5
21DF
  8
3
 10
206.07980278319599
 20
166.66004081578589
 30
0.0
 11
206.0888169634203
 21
166.64651954544939
 31
0.0
  0
LINE
  5
21E0
  8
3
 10
206.0707886029717
 20
166.67356208612239
 30
0.0
 11
206.07980278319599
 21
166.66004081578589
 31
0.0
  0
LINE
  5
21E1
  8
3
 10
205.9265617193827
 20
166.80426769937489
 30
0.0
 11
206.0707886029717
 21
166.67356208612239
 31
0.0
  0
LINE
  5
21E2
  8
3
 10
206.09783114364461
 20
166.6329982751129
 30
0.0
 11
206.1068453238689
 21
166.62398409488861
 31
0.0
  0
LINE
  5
21E3
  8
3
 10
205.82289864680311
 20
166.86736696094511
 30
0.0
 11
205.83641991713961
 21
166.85835278072071
 31
0.0
  0
LINE
  5
21E4
  8
3
 10
204.17330366575439
 20
166.6104628245522
 30
0.0
 11
204.19133202620301
 21
166.6329982751129
 31
0.0
  0
LINE
  5
21E5
  8
3
 10
206.1068453238689
 20
166.62398409488861
 30
0.0
 11
206.11585950409329
 21
166.6104628245522
 31
0.0
  0
LINE
  5
21E6
  8
3
 10
204.06964059317491
 20
162.01773800026621
 30
0.0
 11
204.0290767821655
 21
162.0312592706027
 31
0.0
  0
LINE
  5
21E7
  8
3
 10
204.05611932283841
 20
161.8870323870137
 30
0.0
 11
204.08316186351121
 21
161.8870323870137
 31
0.0
  0
LINE
  5
21E8
  8
3
 10
204.0290767821655
 20
161.8870323870137
 30
0.0
 11
204.05611932283841
 21
161.8870323870137
 31
0.0
  0
LINE
  5
21E9
  8
3
 10
204.00203424149251
 20
161.8870323870137
 30
0.0
 11
204.0290767821655
 21
161.8870323870137
 31
0.0
  0
LINE
  5
21EA
  8
3
 10
203.9749917008196
 20
161.8870323870137
 30
0.0
 11
204.00203424149251
 21
161.8870323870137
 31
0.0
  0
LINE
  5
21EB
  8
3
 10
203.93893497992229
 20
161.88252529690149
 30
0.0
 11
203.9749917008196
 21
161.8870323870137
 31
0.0
  0
LINE
  5
21EC
  8
3
 10
203.89837116891289
 20
161.87801820678939
 30
0.0
 11
203.93893497992229
 21
161.88252529690149
 31
0.0
  0
LINE
  5
21ED
  8
3
 10
204.3986581713622
 20
161.98618836948111
 30
0.0
 11
204.35358727024061
 21
161.98618836948111
 31
0.0
  0
LINE
  5
21EE
  8
3
 10
204.3265447295677
 20
161.8870323870137
 30
0.0
 11
204.3986581713622
 21
161.89153947712589
 31
0.0
  0
LINE
  5
21EF
  8
3
 10
204.22738874710029
 20
161.9952025497054
 30
0.0
 11
204.18682493609089
 21
161.99970963981761
 31
0.0
  0
LINE
  5
21F0
  8
3
 10
204.1778107558666
 20
161.8870323870137
 30
0.0
 11
204.21837456687601
 21
161.8870323870137
 31
0.0
  0
LINE
  5
21F1
  8
3
 10
204.14626112508151
 20
162.00421672992979
 30
0.0
 11
204.1056973140721
 21
162.00872382004189
 31
0.0
  0
LINE
  5
21F2
  8
3
 10
204.18682493609089
 20
161.99970963981761
 30
0.0
 11
204.14626112508151
 21
162.00421672992979
 31
0.0
  0
LINE
  5
21F3
  8
3
 10
204.1417540349693
 20
161.8870323870137
 30
0.0
 11
204.1778107558666
 21
161.8870323870137
 31
0.0
  0
LINE
  5
21F4
  8
3
 10
204.11020440418429
 20
161.8870323870137
 30
0.0
 11
204.1417540349693
 21
161.8870323870137
 31
0.0
  0
LINE
  5
21F5
  8
3
 10
204.2724596482218
 20
161.9906954595933
 30
0.0
 11
204.22738874710029
 21
161.9952025497054
 31
0.0
  0
LINE
  5
21F6
  8
3
 10
204.3130234592312
 20
161.9906954595933
 30
0.0
 11
204.2724596482218
 21
161.9906954595933
 31
0.0
  0
LINE
  5
21F7
  8
3
 10
204.35358727024061
 20
161.98618836948111
 30
0.0
 11
204.3130234592312
 21
161.9906954595933
 31
0.0
  0
LINE
  5
21F8
  8
3
 10
204.26795255810961
 20
161.8870323870137
 30
0.0
 11
204.3265447295677
 21
161.8870323870137
 31
0.0
  0
LINE
  5
21F9
  8
3
 10
204.21837456687601
 20
161.8870323870137
 30
0.0
 11
204.26795255810961
 21
161.8870323870137
 31
0.0
  0
LINE
  5
21FA
  8
3
 10
204.59697013629699
 20
161.74731259353689
 30
0.0
 11
204.6059843165213
 21
161.66167788140589
 31
0.0
  0
LINE
  5
21FB
  8
3
 10
204.5879559560727
 20
161.8284402155557
 30
0.0
 11
204.59697013629699
 21
161.74731259353689
 31
0.0
  0
LINE
  5
21FC
  8
3
 10
204.57443468573609
 20
161.9906954595933
 30
0.0
 11
204.58344886596049
 21
161.90956783757451
 31
0.0
  0
LINE
  5
21FD
  8
3
 10
204.58344886596049
 20
161.89604656723799
 30
0.0
 11
204.58344886596049
 21
161.90956783757451
 31
0.0
  0
LINE
  5
21FE
  8
3
 10
204.4936080946452
 20
161.97563837800519
 30
0.0
 11
204.43922198237149
 21
161.98168127936901
 31
0.0
  0
LINE
  5
21FF
  8
3
 10
204.43922198237149
 20
161.98168127936901
 30
0.0
 11
204.3986581713622
 21
161.98618836948111
 31
0.0
  0
LINE
  5
2200
  8
3
 10
204.3986581713622
 20
161.89153947712589
 30
0.0
 11
204.58344886596049
 21
161.89604656723799
 31
0.0
  0
LINE
  5
2201
  8
3
 10
204.58344886596049
 20
161.90956783757451
 30
0.0
 11
204.5879559560727
 21
161.8284402155557
 31
0.0
  0
ARC
  5
2202
  8
3
 10
204.48476067093921
 20
161.87515103441169
 30
0.0
 40
0.1008760780793214
 50
11.95483737982957
 51
84.968359139189033
  0
LINE
  5
2203
  8
3
 10
204.84936718257759
 20
162.01773800026621
 30
0.0
 11
204.84486009246561
 21
162.01773800026621
 31
0.0
  0
LINE
  5
2204
  8
3
 10
204.85387427268981
 20
162.01773800026621
 30
0.0
 11
204.84936718257759
 21
162.01773800026621
 31
0.0
  0
LINE
  5
2205
  8
3
 10
204.85838136280199
 20
162.01773800026621
 30
0.0
 11
204.85387427268981
 21
162.01773800026621
 31
0.0
  0
LINE
  5
2206
  8
3
 10
204.86288845291409
 20
162.01773800026621
 30
0.0
 11
204.85838136280199
 21
162.01773800026621
 31
0.0
  0
LINE
  5
2207
  8
3
 10
204.86288845291409
 20
162.01323091015411
 30
0.0
 11
204.86288845291409
 21
162.01773800026621
 31
0.0
  0
LINE
  5
2208
  8
3
 10
204.86739554302619
 20
162.01323091015411
 30
0.0
 11
204.86288845291409
 21
162.01323091015411
 31
0.0
  0
LINE
  5
2209
  8
3
 10
204.8719026331384
 20
162.01323091015411
 30
0.0
 11
204.86739554302619
 21
162.01323091015411
 31
0.0
  0
LINE
  5
220A
  8
3
 10
204.87640972325059
 20
162.01323091015411
 30
0.0
 11
204.8719026331384
 21
162.01323091015411
 31
0.0
  0
LINE
  5
220B
  8
3
 10
204.8809168133626
 20
162.01323091015411
 30
0.0
 11
204.87640972325059
 21
162.01323091015411
 31
0.0
  0
LINE
  5
220C
  8
3
 10
204.8854239034749
 20
162.01323091015411
 30
0.0
 11
204.8809168133626
 21
162.01323091015411
 31
0.0
  0
LINE
  5
220D
  8
3
 10
204.889930993587
 20
162.01323091015411
 30
0.0
 11
204.8854239034749
 21
162.01323091015411
 31
0.0
  0
LINE
  5
220E
  8
3
 10
204.8944380836993
 20
162.00872382004189
 30
0.0
 11
204.889930993587
 21
162.01323091015411
 31
0.0
  0
LINE
  5
220F
  8
3
 10
204.94852316504509
 20
162.01323091015411
 30
0.0
 11
204.8944380836993
 21
162.00872382004189
 31
0.0
  0
LINE
  5
2210
  8
3
 10
204.62851976708211
 20
161.4904084571441
 30
0.0
 11
204.63753394730631
 21
161.4904084571441
 31
0.0
  0
LINE
  5
2211
  8
3
 10
204.6059843165213
 20
161.66167788140589
 30
0.0
 11
204.62851976708211
 21
161.4949155472562
 31
0.0
  0
LINE
  5
2212
  8
3
 10
204.62851976708211
 20
161.4949155472562
 30
0.0
 11
204.62851976708211
 21
161.4904084571441
 31
0.0
  0
LINE
  5
2213
  8
3
 10
204.79077501111971
 20
161.4904084571441
 30
0.0
 11
204.81781755179259
 21
161.4949155472562
 31
0.0
  0
LINE
  5
2214
  8
3
 10
204.77725374078321
 20
161.485901367032
 30
0.0
 11
204.79077501111971
 21
161.4904084571441
 31
0.0
  0
LINE
  5
2215
  8
3
 10
204.81781755179259
 20
161.4949155472562
 30
0.0
 11
204.889930993587
 21
161.57604316927501
 31
0.0
  0
LINE
  5
2216
  8
3
 10
204.72767574954949
 20
161.48139427691979
 30
0.0
 11
204.74570410999809
 21
161.48139427691979
 31
0.0
  0
LINE
  5
2217
  8
3
 10
204.71415447921299
 20
161.48139427691979
 30
0.0
 11
204.72767574954949
 21
161.48139427691979
 31
0.0
  0
LINE
  5
2218
  8
3
 10
204.74570410999809
 20
161.48139427691979
 30
0.0
 11
204.76373247044671
 21
161.485901367032
 31
0.0
  0
LINE
  5
2219
  8
3
 10
204.76373247044671
 20
161.485901367032
 30
0.0
 11
204.77725374078321
 21
161.485901367032
 31
0.0
  0
LINE
  5
221A
  8
3
 10
204.6826048484279
 20
161.48139427691979
 30
0.0
 11
204.69612611876451
 21
161.48139427691979
 31
0.0
  0
LINE
  5
221B
  8
3
 10
204.66908357809149
 20
161.48139427691979
 30
0.0
 11
204.6826048484279
 21
161.48139427691979
 31
0.0
  0
LINE
  5
221C
  8
3
 10
204.64654812753071
 20
161.485901367032
 30
0.0
 11
204.65556230775499
 21
161.485901367032
 31
0.0
  0
LINE
  5
221D
  8
3
 10
204.63753394730631
 20
161.4904084571441
 30
0.0
 11
204.64654812753071
 21
161.485901367032
 31
0.0
  0
LINE
  5
221E
  8
3
 10
204.65556230775499
 20
161.485901367032
 30
0.0
 11
204.66908357809149
 21
161.48139427691979
 31
0.0
  0
LINE
  5
221F
  8
3
 10
204.69612611876451
 20
161.48139427691979
 30
0.0
 11
204.71415447921299
 21
161.48139427691979
 31
0.0
  0
LINE
  5
2220
  8
3
 10
204.889930993587
 20
161.57604316927501
 30
0.0
 11
204.92598771448431
 21
161.603085709948
 31
0.0
  0
LINE
  5
2221
  8
3
 10
204.1056973140721
 20
162.00872382004189
 30
0.0
 11
204.06964059317491
 21
162.01773800026621
 31
0.0
  0
LINE
  5
2222
  8
3
 10
204.08316186351121
 20
161.8870323870137
 30
0.0
 11
204.11020440418429
 21
161.8870323870137
 31
0.0
  0
LINE
  5
2223
  8
3
 10
203.9163995293616
 20
161.23350432075131
 30
0.0
 11
203.8893569886886
 21
161.31463194277009
 31
0.0
  0
LINE
  5
2224
  8
3
 10
205.2279627519986
 20
160.8549087513303
 30
0.0
 11
205.20542730143791
 21
160.83237330076949
 31
0.0
  0
LINE
  5
2225
  8
3
 10
205.5344448796252
 20
160.84589457110599
 30
0.0
 11
205.5344448796252
 21
160.86843002166671
 31
0.0
  0
LINE
  5
2226
  8
3
 10
205.236976932223
 20
160.86392293155461
 30
0.0
 11
205.2279627519986
 21
160.8549087513303
 31
0.0
  0
LINE
  5
2227
  8
3
 10
205.2504982025595
 20
160.86843002166671
 30
0.0
 11
205.236976932223
 21
160.86392293155461
 31
0.0
  0
LINE
  5
2228
  8
3
 10
205.264019472896
 20
160.877444201891
 30
0.0
 11
205.2504982025595
 21
160.86843002166671
 31
0.0
  0
LINE
  5
2229
  8
3
 10
205.27303365312031
 20
160.88645838211531
 30
0.0
 11
205.264019472896
 21
160.877444201891
 31
0.0
  0
LINE
  5
222A
  8
3
 10
205.28655492345669
 20
160.89547256233959
 30
0.0
 11
205.27303365312031
 21
160.88645838211531
 31
0.0
  0
LINE
  5
222B
  8
3
 10
205.30007619379319
 20
160.9044867425639
 30
0.0
 11
205.28655492345669
 21
160.89547256233959
 31
0.0
  0
LINE
  5
222C
  8
3
 10
205.3090903740175
 20
160.91350092278819
 30
0.0
 11
205.30007619379319
 21
160.9044867425639
 31
0.0
  0
LINE
  5
222D
  8
3
 10
205.322611644354
 20
160.92251510301261
 30
0.0
 11
205.3090903740175
 21
160.91350092278819
 31
0.0
  0
LINE
  5
222E
  8
3
 10
205.33162582457831
 20
160.9315292832369
 30
0.0
 11
205.322611644354
 21
160.92251510301261
 31
0.0
  0
LINE
  5
222F
  8
3
 10
205.5344448796252
 20
160.86843002166671
 30
0.0
 11
205.5299377895131
 21
160.89096547222749
 31
0.0
  0
LINE
  5
2230
  8
3
 10
205.35416127513901
 20
160.94505055357331
 30
0.0
 11
205.34514709491481
 21
160.94054346346121
 31
0.0
  0
LINE
  5
2231
  8
3
 10
205.36317545536329
 20
160.95406473379759
 30
0.0
 11
205.35416127513901
 21
160.94505055357331
 31
0.0
  0
LINE
  5
2232
  8
3
 10
205.37218963558769
 20
160.96307891402199
 30
0.0
 11
205.36317545536329
 21
160.95406473379759
 31
0.0
  0
LINE
  5
2233
  8
3
 10
205.3857109059241
 20
160.97209309424619
 30
0.0
 11
205.37218963558769
 21
160.96307891402199
 31
0.0
  0
LINE
  5
2234
  8
3
 10
205.4037392663727
 20
160.9811072744705
 30
0.0
 11
205.3857109059241
 21
160.97209309424619
 31
0.0
  0
LINE
  5
2235
  8
3
 10
205.41275344659701
 20
160.9811072744705
 30
0.0
 11
205.4037392663727
 21
160.9811072744705
 31
0.0
  0
LINE
  5
2236
  8
3
 10
205.42176762682129
 20
160.9856143645828
 30
0.0
 11
205.41275344659701
 21
160.9811072744705
 31
0.0
  0
LINE
  5
2237
  8
3
 10
205.43528889715779
 20
160.9856143645828
 30
0.0
 11
205.42176762682129
 21
160.9856143645828
 31
0.0
  0
LINE
  5
2238
  8
3
 10
205.4443030773821
 20
160.9856143645828
 30
0.0
 11
205.43528889715779
 21
160.9856143645828
 31
0.0
  0
LINE
  5
2239
  8
3
 10
205.45331725760639
 20
160.9811072744705
 30
0.0
 11
205.4443030773821
 21
160.9856143645828
 31
0.0
  0
LINE
  5
223A
  8
3
 10
205.46233143783081
 20
160.9811072744705
 30
0.0
 11
205.45331725760639
 21
160.9811072744705
 31
0.0
  0
LINE
  5
223B
  8
3
 10
205.4713456180551
 20
160.9766001843584
 30
0.0
 11
205.46233143783081
 21
160.9811072744705
 31
0.0
  0
LINE
  5
223C
  8
3
 10
205.48035979827941
 20
160.9766001843584
 30
0.0
 11
205.4713456180551
 21
160.9766001843584
 31
0.0
  0
LINE
  5
223D
  8
3
 10
205.48937397850369
 20
160.97209309424619
 30
0.0
 11
205.48035979827941
 21
160.9766001843584
 31
0.0
  0
LINE
  5
223E
  8
3
 10
205.49838815872801
 20
160.96758600413409
 30
0.0
 11
205.48937397850369
 21
160.97209309424619
 31
0.0
  0
LINE
  5
223F
  8
3
 10
205.50740233895229
 20
160.96307891402199
 30
0.0
 11
205.49838815872801
 21
160.96758600413409
 31
0.0
  0
LINE
  5
2240
  8
3
 10
205.5119094290645
 20
160.95406473379759
 30
0.0
 11
205.50740233895229
 21
160.96307891402199
 31
0.0
  0
LINE
  5
2241
  8
3
 10
205.5164165191766
 20
160.94955764368549
 30
0.0
 11
205.5119094290645
 21
160.95406473379759
 31
0.0
  0
LINE
  5
2242
  8
3
 10
205.52543069940091
 20
160.94054346346121
 30
0.0
 11
205.5164165191766
 21
160.94955764368549
 31
0.0
  0
LINE
  5
2243
  8
3
 10
205.34514709491481
 20
160.94054346346121
 30
0.0
 11
205.33162582457831
 21
160.9315292832369
 31
0.0
  0
LINE
  5
2244
  8
3
 10
205.5299377895131
 20
160.89096547222749
 30
0.0
 11
205.52543069940091
 21
160.94054346346121
 31
0.0
  0
LINE
  5
2245
  8
3
 10
205.20542730143791
 20
160.83237330076949
 30
0.0
 11
205.151342220092
 21
160.80983785020871
 31
0.0
  0
LINE
  5
2246
  8
3
 10
205.07922877829751
 20
160.53039826325511
 30
0.0
 11
205.119792589307
 21
160.51236990280651
 31
0.0
  0
LINE
  5
2247
  8
3
 10
205.03866496728821
 20
160.54391953359149
 30
0.0
 11
205.07922877829751
 21
160.53039826325511
 31
0.0
  0
LINE
  5
2248
  8
3
 10
204.99359406616651
 20
160.55744080392799
 30
0.0
 11
205.03866496728821
 21
160.54391953359149
 31
0.0
  0
LINE
  5
2249
  8
3
 10
205.04317205740031
 20
160.76476694908709
 30
0.0
 11
204.98908697605441
 21
160.75124567875071
 31
0.0
  0
LINE
  5
224A
  8
3
 10
205.09725713874619
 20
160.7873023996479
 30
0.0
 11
205.04317205740031
 21
160.76476694908709
 31
0.0
  0
LINE
  5
224B
  8
3
 10
205.151342220092
 20
160.80983785020871
 30
0.0
 11
205.09725713874619
 21
160.7873023996479
 31
0.0
  0
LINE
  5
224C
  8
3
 10
205.5299377895131
 20
160.5754691643767
 30
0.0
 11
205.5299377895131
 21
160.61152588527389
 31
0.0
  0
LINE
  5
224D
  8
3
 10
205.5299377895131
 20
160.6430755160589
 30
0.0
 11
205.5299377895131
 21
160.67462514684399
 31
0.0
  0
LINE
  5
224E
  8
3
 10
205.5299377895131
 20
160.61152588527389
 30
0.0
 11
205.5299377895131
 21
160.6430755160589
 31
0.0
  0
LINE
  5
224F
  8
3
 10
205.5344448796252
 20
160.53490535336721
 30
0.0
 11
205.5299377895131
 21
160.5754691643767
 31
0.0
  0
LINE
  5
2250
  8
3
 10
205.54345905984951
 20
160.53039826325511
 30
0.0
 11
205.5479661499617
 21
160.5213840830308
 31
0.0
  0
LINE
  5
2251
  8
3
 10
205.54345905984951
 20
160.53490535336721
 30
0.0
 11
205.54345905984951
 21
160.53039826325511
 31
0.0
  0
LINE
  5
2252
  8
3
 10
205.5479661499617
 20
160.53490535336721
 30
0.0
 11
205.54345905984951
 21
160.53490535336721
 31
0.0
  0
LINE
  5
2253
  8
3
 10
205.5344448796252
 20
160.82335912054521
 30
0.0
 11
205.5344448796252
 21
160.84589457110599
 31
0.0
  0
LINE
  5
2254
  8
3
 10
205.5344448796252
 20
160.8008236699844
 30
0.0
 11
205.5344448796252
 21
160.82335912054521
 31
0.0
  0
LINE
  5
2255
  8
3
 10
205.5344448796252
 20
160.77828821942359
 30
0.0
 11
205.5344448796252
 21
160.8008236699844
 31
0.0
  0
LINE
  5
2256
  8
3
 10
205.5344448796252
 20
160.75124567875071
 30
0.0
 11
205.5344448796252
 21
160.77828821942359
 31
0.0
  0
LINE
  5
2257
  8
3
 10
205.5344448796252
 20
160.7287102281899
 30
0.0
 11
205.5344448796252
 21
160.75124567875071
 31
0.0
  0
LINE
  5
2258
  8
3
 10
205.5299377895131
 20
160.70166768751699
 30
0.0
 11
205.5344448796252
 21
160.7287102281899
 31
0.0
  0
LINE
  5
2259
  8
3
 10
205.5299377895131
 20
160.67462514684399
 30
0.0
 11
205.5299377895131
 21
160.70166768751699
 31
0.0
  0
LINE
  5
225A
  8
3
 10
206.33219982947659
 20
160.8729371117789
 30
0.0
 11
206.33219982947659
 21
160.84138748099369
 31
0.0
  0
LINE
  5
225B
  8
3
 10
206.33219982947659
 20
160.9044867425639
 30
0.0
 11
206.33219982947659
 21
160.8729371117789
 31
0.0
  0
LINE
  5
225C
  8
3
 10
206.33219982947659
 20
160.936036373349
 30
0.0
 11
206.33219982947659
 21
160.9044867425639
 31
0.0
  0
LINE
  5
225D
  8
3
 10
206.3051572888038
 20
161.12984124817169
 30
0.0
 11
206.33219982947659
 21
161.02617817559209
 31
0.0
  0
LINE
  5
225E
  8
3
 10
206.2916360184673
 20
161.17941923940541
 30
0.0
 11
206.3051572888038
 21
161.12984124817169
 31
0.0
  0
LINE
  5
225F
  8
3
 10
206.26910056790641
 20
161.2289972306391
 30
0.0
 11
206.2916360184673
 21
161.17941923940541
 31
0.0
  0
LINE
  5
2260
  8
3
 10
206.33219982947659
 20
160.99913563491921
 30
0.0
 11
206.33219982947659
 21
160.96758600413409
 31
0.0
  0
LINE
  5
2261
  8
3
 10
206.33219982947659
 20
161.02617817559209
 30
0.0
 11
206.33219982947659
 21
160.99913563491921
 31
0.0
  0
LINE
  5
2262
  8
3
 10
206.33219982947659
 20
160.96758600413409
 30
0.0
 11
206.33219982947659
 21
160.936036373349
 31
0.0
  0
LINE
  5
2263
  8
3
 10
206.33219982947659
 20
160.62955424572249
 30
0.0
 11
206.33219982947659
 21
160.59800461493739
 31
0.0
  0
LINE
  5
2264
  8
3
 10
206.33219982947659
 20
160.66110387650761
 30
0.0
 11
206.33219982947659
 21
160.62955424572249
 31
0.0
  0
LINE
  5
2265
  8
3
 10
206.33219982947659
 20
160.68814641718049
 30
0.0
 11
206.33219982947659
 21
160.66110387650761
 31
0.0
  0
LINE
  5
2266
  8
3
 10
206.33219982947659
 20
160.59800461493739
 30
0.0
 11
206.33219982947659
 21
160.53490535336721
 31
0.0
  0
LINE
  5
2267
  8
3
 10
206.33219982947659
 20
160.75124567875071
 30
0.0
 11
206.33219982947659
 21
160.71969604796561
 31
0.0
  0
LINE
  5
2268
  8
3
 10
206.33219982947659
 20
160.7827953095358
 30
0.0
 11
206.33219982947659
 21
160.75124567875071
 31
0.0
  0
LINE
  5
2269
  8
3
 10
206.33219982947659
 20
160.80983785020871
 30
0.0
 11
206.33219982947659
 21
160.7827953095358
 31
0.0
  0
LINE
  5
226A
  8
3
 10
206.33219982947659
 20
160.84138748099369
 30
0.0
 11
206.33219982947659
 21
160.80983785020871
 31
0.0
  0
LINE
  5
226B
  8
3
 10
206.33219982947659
 20
160.71969604796561
 30
0.0
 11
206.33219982947659
 21
160.68814641718049
 31
0.0
  0
LINE
  5
226C
  8
3
 10
206.33219982947659
 20
160.53490535336721
 30
0.0
 11
205.5479661499617
 21
160.53490535336721
 31
0.0
  0
LINE
  5
226D
  8
3
 10
205.1693705805406
 20
162.01773800026621
 30
0.0
 11
205.13782094975551
 21
162.01773800026621
 31
0.0
  0
LINE
  5
226E
  8
3
 10
205.13782094975551
 20
161.7112558726397
 30
0.0
 11
205.18289185087721
 21
161.72477714297611
 31
0.0
  0
LINE
  5
226F
  8
3
 10
205.00260824639099
 20
162.01773800026621
 30
0.0
 11
204.975565705718
 21
162.01323091015411
 31
0.0
  0
LINE
  5
2270
  8
3
 10
205.0296507870639
 20
162.01773800026621
 30
0.0
 11
205.00260824639099
 21
162.01773800026621
 31
0.0
  0
LINE
  5
2271
  8
3
 10
205.05669332773689
 20
162.01773800026621
 30
0.0
 11
205.0296507870639
 21
162.01773800026621
 31
0.0
  0
LINE
  5
2272
  8
3
 10
205.08373586840969
 20
162.01773800026621
 30
0.0
 11
205.05669332773689
 21
162.01773800026621
 31
0.0
  0
LINE
  5
2273
  8
3
 10
205.11077840908271
 20
162.01773800026621
 30
0.0
 11
205.08373586840969
 21
162.01773800026621
 31
0.0
  0
LINE
  5
2274
  8
3
 10
205.13782094975551
 20
162.01773800026621
 30
0.0
 11
205.11077840908271
 21
162.01773800026621
 31
0.0
  0
LINE
  5
2275
  8
3
 10
205.0882429585219
 20
161.6932275121911
 30
0.0
 11
205.13782094975551
 21
161.7112558726397
 31
0.0
  0
LINE
  5
2276
  8
3
 10
205.0476791475125
 20
161.67519915174239
 30
0.0
 11
205.0882429585219
 21
161.6932275121911
 31
0.0
  0
LINE
  5
2277
  8
3
 10
205.00260824639099
 20
161.65266370118169
 30
0.0
 11
205.0476791475125
 21
161.67519915174239
 31
0.0
  0
LINE
  5
2278
  8
3
 10
204.96204443538161
 20
161.63012825062091
 30
0.0
 11
205.00260824639099
 21
161.65266370118169
 31
0.0
  0
LINE
  5
2279
  8
3
 10
205.70571430388711
 20
161.72477714297611
 30
0.0
 11
205.71472848411139
 21
161.72027005286401
 31
0.0
  0
LINE
  5
227A
  8
3
 10
205.77782774568161
 20
161.94562455847171
 30
0.0
 11
205.73275684455999
 21
161.94111746835961
 31
0.0
  0
LINE
  5
227B
  8
3
 10
205.20092021132581
 20
162.02224509037839
 30
0.0
 11
205.1693705805406
 21
162.01773800026621
 31
0.0
  0
LINE
  5
227C
  8
3
 10
205.23246984211079
 20
162.02224509037839
 30
0.0
 11
205.20092021132581
 21
162.02224509037839
 31
0.0
  0
LINE
  5
227D
  8
3
 10
205.26852656300809
 20
162.02224509037839
 30
0.0
 11
205.23246984211079
 21
162.02224509037839
 31
0.0
  0
LINE
  5
227E
  8
3
 10
205.30458328390529
 20
162.0267521804906
 30
0.0
 11
205.26852656300809
 21
162.02224509037839
 31
0.0
  0
LINE
  5
227F
  8
3
 10
205.34514709491481
 20
162.0267521804906
 30
0.0
 11
205.30458328390529
 21
162.0267521804906
 31
0.0
  0
LINE
  5
2280
  8
3
 10
205.3902179960362
 20
162.0267521804906
 30
0.0
 11
205.34514709491481
 21
162.0267521804906
 31
0.0
  0
LINE
  5
2281
  8
3
 10
205.5930370510832
 20
161.93210328813529
 30
0.0
 11
205.58402287085889
 21
162.00872382004189
 31
0.0
  0
LINE
  5
2282
  8
3
 10
205.6831788533263
 20
161.94111746835961
 30
0.0
 11
205.5930370510832
 21
161.93210328813529
 31
0.0
  0
LINE
  5
2283
  8
3
 10
205.73275684455999
 20
161.94111746835961
 30
0.0
 11
205.6831788533263
 21
161.94111746835961
 31
0.0
  0
LINE
  5
2284
  8
3
 10
205.69219303355069
 20
161.72928423308829
 30
0.0
 11
205.70571430388711
 21
161.72477714297611
 31
0.0
  0
LINE
  5
2285
  8
3
 10
205.6786717632142
 20
161.72928423308829
 30
0.0
 11
205.69219303355069
 21
161.72928423308829
 31
0.0
  0
LINE
  5
2286
  8
3
 10
205.66515049287759
 20
161.73379132320039
 30
0.0
 11
205.6786717632142
 21
161.72928423308829
 31
0.0
  0
LINE
  5
2287
  8
3
 10
205.6516292225412
 20
161.73829841331261
 30
0.0
 11
205.66515049287759
 21
161.73379132320039
 31
0.0
  0
LINE
  5
2288
  8
3
 10
205.63810795220479
 20
161.74280550342479
 30
0.0
 11
205.6516292225412
 21
161.73829841331261
 31
0.0
  0
LINE
  5
2289
  8
3
 10
205.62458668186829
 20
161.74731259353689
 30
0.0
 11
205.63810795220479
 21
161.74280550342479
 31
0.0
  0
LINE
  5
228A
  8
3
 10
205.52543069940091
 20
161.7653409539856
 30
0.0
 11
205.62458668186829
 21
161.74731259353689
 31
0.0
  0
LINE
  5
228B
  8
3
 10
205.4758527081672
 20
161.7653409539856
 30
0.0
 11
205.52543069940091
 21
161.7653409539856
 31
0.0
  0
LINE
  5
228C
  8
3
 10
205.42627471693359
 20
161.7653409539856
 30
0.0
 11
205.4758527081672
 21
161.7653409539856
 31
0.0
  0
LINE
  5
228D
  8
3
 10
205.37669672569979
 20
161.76083386387339
 30
0.0
 11
205.42627471693359
 21
161.7653409539856
 31
0.0
  0
LINE
  5
228E
  8
3
 10
205.3271187344661
 20
161.7563267737612
 30
0.0
 11
205.37669672569979
 21
161.76083386387339
 31
0.0
  0
LINE
  5
228F
  8
3
 10
205.27754074323229
 20
161.74731259353689
 30
0.0
 11
205.3271187344661
 21
161.7563267737612
 31
0.0
  0
LINE
  5
2290
  8
3
 10
205.2279627519986
 20
161.73829841331261
 30
0.0
 11
205.27754074323229
 21
161.74731259353689
 31
0.0
  0
LINE
  5
2291
  8
3
 10
205.18289185087721
 20
161.72477714297611
 30
0.0
 11
205.2279627519986
 21
161.73829841331261
 31
0.0
  0
LINE
  5
2292
  8
3
 10
205.8274057369153
 20
161.94111746835961
 30
0.0
 11
205.77782774568161
 21
161.94562455847171
 31
0.0
  0
LINE
  5
2293
  8
3
 10
205.82289864680311
 20
161.6842133319667
 30
0.0
 11
205.8274057369153
 21
161.6842133319667
 31
0.0
  0
LINE
  5
2294
  8
3
 10
205.81839155669101
 20
161.6842133319667
 30
0.0
 11
205.82289864680311
 21
161.6842133319667
 31
0.0
  0
LINE
  5
2295
  8
3
 10
205.7958561061302
 20
161.6977346023032
 30
0.0
 11
205.81839155669101
 21
161.6842133319667
 31
0.0
  0
LINE
  5
2296
  8
3
 10
205.77782774568161
 20
161.70674878252751
 30
0.0
 11
205.786841925906
 21
161.70224169241541
 31
0.0
  0
LINE
  5
2297
  8
3
 10
205.786841925906
 20
161.70224169241541
 30
0.0
 11
205.7958561061302
 21
161.6977346023032
 31
0.0
  0
LINE
  5
2298
  8
3
 10
205.72824975444789
 20
161.72027005286401
 30
0.0
 11
205.7417710247843
 21
161.7157629627518
 31
0.0
  0
LINE
  5
2299
  8
3
 10
205.71472848411139
 20
161.72027005286401
 30
0.0
 11
205.72824975444789
 21
161.72027005286401
 31
0.0
  0
LINE
  5
229A
  8
3
 10
205.76430647534519
 20
161.7112558726397
 30
0.0
 11
205.77782774568161
 21
161.70674878252751
 31
0.0
  0
LINE
  5
229B
  8
3
 10
205.7552922951208
 20
161.7157629627518
 30
0.0
 11
205.76430647534519
 21
161.7112558726397
 31
0.0
  0
LINE
  5
229C
  8
3
 10
205.7417710247843
 20
161.7157629627518
 30
0.0
 11
205.7552922951208
 21
161.7157629627518
 31
0.0
  0
LINE
  5
229D
  8
3
 10
205.91754753915839
 20
161.6391424308452
 30
0.0
 11
205.9581113501678
 21
161.6120998901722
 31
0.0
  0
LINE
  5
229E
  8
3
 10
205.9220546292706
 20
161.94111746835961
 30
0.0
 11
205.87247663803689
 21
161.94111746835961
 31
0.0
  0
LINE
  5
229F
  8
3
 10
205.87247663803689
 20
161.67519915174239
 30
0.0
 11
205.87247663803689
 21
161.67069206163029
 31
0.0
  0
LINE
  5
22A0
  8
3
 10
205.8679695479247
 20
161.67519915174239
 30
0.0
 11
205.87247663803689
 21
161.67519915174239
 31
0.0
  0
LINE
  5
22A1
  8
3
 10
205.86346245781249
 20
161.6797062418546
 30
0.0
 11
205.8679695479247
 21
161.67519915174239
 31
0.0
  0
LINE
  5
22A2
  8
3
 10
205.85895536770039
 20
161.6797062418546
 30
0.0
 11
205.86346245781249
 21
161.6797062418546
 31
0.0
  0
LINE
  5
22A3
  8
3
 10
205.85444827758829
 20
161.6797062418546
 30
0.0
 11
205.85895536770039
 21
161.6797062418546
 31
0.0
  0
LINE
  5
22A4
  8
3
 10
205.84994118747599
 20
161.6797062418546
 30
0.0
 11
205.85444827758829
 21
161.6797062418546
 31
0.0
  0
LINE
  5
22A5
  8
3
 10
205.84543409736389
 20
161.6797062418546
 30
0.0
 11
205.84994118747599
 21
161.6797062418546
 31
0.0
  0
LINE
  5
22A6
  8
3
 10
205.84092700725171
 20
161.6842133319667
 30
0.0
 11
205.84543409736389
 21
161.6797062418546
 31
0.0
  0
LINE
  5
22A7
  8
3
 10
205.83641991713961
 20
161.6842133319667
 30
0.0
 11
205.84092700725171
 21
161.6842133319667
 31
0.0
  0
LINE
  5
22A8
  8
3
 10
205.83191282702739
 20
161.6842133319667
 30
0.0
 11
205.83641991713961
 21
161.6842133319667
 31
0.0
  0
LINE
  5
22A9
  8
3
 10
205.88149081826111
 20
161.66618497151819
 30
0.0
 11
205.91754753915839
 21
161.6391424308452
 31
0.0
  0
LINE
  5
22AA
  8
3
 10
205.87247663803689
 20
161.67069206163029
 30
0.0
 11
205.88149081826111
 21
161.66618497151819
 31
0.0
  0
LINE
  5
22AB
  8
3
 10
206.34121400970099
 20
161.95013164858389
 30
0.0
 11
206.2916360184673
 21
161.94562455847171
 31
0.0
  0
LINE
  5
22AC
  8
3
 10
205.96712553039211
 20
161.94111746835961
 30
0.0
 11
205.9220546292706
 21
161.94111746835961
 31
0.0
  0
LINE
  5
22AD
  8
3
 10
206.0121964315137
 20
161.93661037824739
 30
0.0
 11
205.96712553039211
 21
161.94111746835961
 31
0.0
  0
LINE
  5
22AE
  8
3
 10
206.06177442274739
 20
161.93661037824739
 30
0.0
 11
206.0121964315137
 21
161.93661037824739
 31
0.0
  0
LINE
  5
22AF
  8
3
 10
206.1068453238689
 20
161.93661037824739
 30
0.0
 11
206.06177442274739
 21
161.93661037824739
 31
0.0
  0
LINE
  5
22B0
  8
3
 10
206.1519162249904
 20
161.93661037824739
 30
0.0
 11
206.1068453238689
 21
161.93661037824739
 31
0.0
  0
LINE
  5
22B1
  8
3
 10
206.20149421622421
 20
161.94111746835961
 30
0.0
 11
206.1519162249904
 21
161.93661037824739
 31
0.0
  0
LINE
  5
22B2
  8
3
 10
206.24656511734571
 20
161.94111746835961
 30
0.0
 11
206.20149421622421
 21
161.94111746835961
 31
0.0
  0
LINE
  5
22B3
  8
3
 10
206.2916360184673
 20
161.94562455847171
 30
0.0
 11
206.24656511734571
 21
161.94111746835961
 31
0.0
  0
LINE
  5
22B4
  8
3
 10
206.22402966678499
 20
161.31913903288219
 30
0.0
 11
206.24656511734571
 21
161.27406813176071
 31
0.0
  0
LINE
  5
22B5
  8
3
 10
206.19698712611199
 20
161.3597028438916
 30
0.0
 11
206.22402966678499
 21
161.31913903288219
 31
0.0
  0
LINE
  5
22B6
  8
3
 10
206.16543749532701
 20
161.400266654901
 30
0.0
 11
206.19698712611199
 21
161.3597028438916
 31
0.0
  0
LINE
  5
22B7
  8
3
 10
206.1338878645418
 20
161.44083046591041
 30
0.0
 11
206.16543749532701
 21
161.400266654901
 31
0.0
  0
LINE
  5
22B8
  8
3
 10
206.10233823375671
 20
161.47688718680769
 30
0.0
 11
206.1338878645418
 21
161.44083046591041
 31
0.0
  0
LINE
  5
22B9
  8
3
 10
206.0347318820744
 20
161.5490006286021
 30
0.0
 11
206.0707886029717
 21
161.51294390770479
 31
0.0
  0
LINE
  5
22BA
  8
3
 10
205.9941680710651
 20
161.58055025938719
 30
0.0
 11
206.0347318820744
 21
161.5490006286021
 31
0.0
  0
LINE
  5
22BB
  8
3
 10
206.0707886029717
 20
161.51294390770479
 30
0.0
 11
206.10233823375671
 21
161.47688718680769
 31
0.0
  0
LINE
  5
22BC
  8
3
 10
205.9581113501678
 20
161.6120998901722
 30
0.0
 11
205.9941680710651
 21
161.58055025938719
 31
0.0
  0
LINE
  5
22BD
  8
3
 10
205.87247663803689
 20
161.94111746835961
 30
0.0
 11
205.8274057369153
 21
161.94111746835961
 31
0.0
  0
LINE
  5
22BE
  8
3
 10
205.8274057369153
 20
161.6842133319667
 30
0.0
 11
205.83191282702739
 21
161.6842133319667
 31
0.0
  0
LINE
  5
22BF
  8
3
 10
206.24656511734571
 20
161.27406813176071
 30
0.0
 11
206.26910056790641
 21
161.2289972306391
 31
0.0
  0
LINE
  5
22C0
  8
3
 10
204.975565705718
 20
162.01323091015411
 30
0.0
 11
204.94852316504509
 21
162.01323091015411
 31
0.0
  0
LINE
  5
22C1
  8
3
 10
204.92598771448431
 20
161.603085709948
 30
0.0
 11
204.96204443538161
 21
161.63012825062091
 31
0.0
  0
LINE
  5
22C2
  8
3
 10
204.94852316504509
 20
160.5664549841523
 30
0.0
 11
204.99359406616651
 21
160.55744080392799
 31
0.0
  0
LINE
  5
22C3
  8
3
 10
204.98908697605441
 20
160.75124567875071
 30
0.0
 11
204.93500189470859
 21
160.73772440841421
 31
0.0
  0
LINE
  5
22C4
  8
3
 10
204.3265447295677
 20
160.4943415423578
 30
0.0
 11
204.3806298109136
 21
160.51687699291861
 31
0.0
  0
LINE
  5
22C5
  8
3
 10
205.119792589307
 20
160.51236990280651
 30
0.0
 11
205.16035640031629
 21
160.49884863246999
 31
0.0
  0
LINE
  5
22C6
  8
3
 10
205.5389519697373
 20
160.4898344522457
 30
0.0
 11
205.5344448796252
 21
160.53490535336721
 31
0.0
  0
LINE
  5
22C7
  8
3
 10
205.5479661499617
 20
160.5213840830308
 30
0.0
 11
205.57951578074679
 21
160.50335572258211
 31
0.0
  0
LINE
  5
22C8
  8
3
 10
206.2060013063363
 20
159.00249471523449
 30
0.0
 11
206.1744516755513
 21
158.92587418332789
 31
0.0
  0
LINE
  5
22C9
  8
3
 10
203.9930200612682
 20
162.0447805409392
 30
0.0
 11
203.92541370958591
 21
162.08083726183639
 31
0.0
  0
LINE
  5
22CA
  8
3
 10
203.90287825902499
 20
162.1394294332944
 30
0.0
 11
203.8848498985765
 21
162.1980216047524
 31
0.0
  0
LINE
  5
22CB
  8
3
 10
203.92541370958591
 20
162.08083726183639
 30
0.0
 11
203.90287825902499
 21
162.1394294332944
 31
0.0
  0
LINE
  5
22CC
  8
3
 10
204.5924630461848
 20
162.64422352585581
 30
0.0
 11
204.58344886596049
 21
162.563095903837
 31
0.0
  0
LINE
  5
22CD
  8
3
 10
204.59697013629699
 20
162.72985823798669
 30
0.0
 11
204.5924630461848
 21
162.64422352585581
 31
0.0
  0
LINE
  5
22CE
  8
3
 10
204.56992759562399
 20
162.2340783256497
 30
0.0
 11
204.56992759562399
 21
162.15295070363089
 31
0.0
  0
LINE
  5
22CF
  8
3
 10
204.57443468573609
 20
162.39633356968719
 30
0.0
 11
204.57443468573609
 21
162.3152059476684
 31
0.0
  0
LINE
  5
22D0
  8
3
 10
204.57443468573609
 20
162.3152059476684
 30
0.0
 11
204.56992759562399
 21
162.2340783256497
 31
0.0
  0
LINE
  5
22D1
  8
3
 10
204.57894177584839
 20
162.47746119170611
 30
0.0
 11
204.57443468573609
 21
162.39633356968719
 31
0.0
  0
LINE
  5
22D2
  8
3
 10
204.58344886596049
 20
162.563095903837
 30
0.0
 11
204.57894177584839
 21
162.47746119170611
 31
0.0
  0
LINE
  5
22D3
  8
3
 10
204.56992759562399
 20
162.15295070363089
 30
0.0
 11
204.57443468573609
 21
162.071823081612
 31
0.0
  0
LINE
  5
22D4
  8
3
 10
203.9299207996981
 20
163.12648216785641
 30
0.0
 11
203.93893497992229
 21
163.15352470852929
 31
0.0
  0
LINE
  5
22D5
  8
3
 10
203.9163995293616
 20
163.0994396271835
 30
0.0
 11
203.9299207996981
 21
163.12648216785641
 31
0.0
  0
LINE
  5
22D6
  8
3
 10
203.9073853491372
 20
163.07239708651051
 30
0.0
 11
203.9163995293616
 21
163.0994396271835
 31
0.0
  0
LINE
  5
22D7
  8
3
 10
203.90287825902499
 20
163.04084745572541
 30
0.0
 11
203.9073853491372
 21
163.07239708651051
 31
0.0
  0
LINE
  5
22D8
  8
3
 10
203.8848498985765
 20
162.92366311280941
 30
0.0
 11
203.90287825902499
 21
163.04084745572541
 31
0.0
  0
LINE
  5
22D9
  8
3
 10
203.94794916014669
 20
163.1805672492022
 30
0.0
 11
203.9614704304831
 21
163.20760978987511
 31
0.0
  0
LINE
  5
22DA
  8
3
 10
204.0516122327262
 20
163.3788792141371
 30
0.0
 11
204.06964059317491
 21
163.4014146646978
 31
0.0
  0
LINE
  5
22DB
  8
3
 10
204.03809096238979
 20
163.35183667346411
 30
0.0
 11
204.0516122327262
 21
163.3788792141371
 31
0.0
  0
LINE
  5
22DC
  8
3
 10
204.02456969205329
 20
163.32930122290341
 30
0.0
 11
204.03809096238979
 21
163.35183667346411
 31
0.0
  0
LINE
  5
22DD
  8
3
 10
204.01104842171679
 20
163.3067657723426
 30
0.0
 11
204.02456969205329
 21
163.32930122290341
 31
0.0
  0
LINE
  5
22DE
  8
3
 10
203.9975271513803
 20
163.27972323166961
 30
0.0
 11
204.01104842171679
 21
163.3067657723426
 31
0.0
  0
LINE
  5
22DF
  8
3
 10
203.98400588104391
 20
163.25718778110891
 30
0.0
 11
203.9975271513803
 21
163.27972323166961
 31
0.0
  0
LINE
  5
22E0
  8
3
 10
203.97048461070739
 20
163.23014524043589
 30
0.0
 11
203.98400588104391
 21
163.25718778110891
 31
0.0
  0
LINE
  5
22E1
  8
3
 10
203.9614704304831
 20
163.20760978987511
 30
0.0
 11
203.97048461070739
 21
163.23014524043589
 31
0.0
  0
LINE
  5
22E2
  8
3
 10
203.93893497992229
 20
163.15352470852929
 30
0.0
 11
203.94794916014669
 21
163.1805672492022
 31
0.0
  0
LINE
  5
22E3
  8
3
 10
204.10119022395989
 20
163.44648556581939
 30
0.0
 11
204.13724694485711
 21
163.5005706471652
 31
0.0
  0
LINE
  5
22E4
  8
3
 10
204.13724694485711
 20
163.5005706471652
 30
0.0
 11
204.17330366575439
 21
163.55014863839889
 31
0.0
  0
LINE
  5
22E5
  8
3
 10
204.63753394730631
 20
162.85154967101491
 30
0.0
 11
204.6240126769699
 21
162.83802840067841
 31
0.0
  0
LINE
  5
22E6
  8
3
 10
204.6240126769699
 20
162.83802840067841
 30
0.0
 11
204.6104914066334
 21
162.8109858600055
 31
0.0
  0
LINE
  5
22E7
  8
3
 10
204.8403530023534
 20
163.0498616359497
 30
0.0
 11
204.8268317320169
 21
163.0498616359497
 31
0.0
  0
LINE
  5
22E8
  8
3
 10
204.79528210123181
 20
163.03634036561331
 30
0.0
 11
204.77725374078321
 21
163.02281909527679
 31
0.0
  0
LINE
  5
22E9
  8
3
 10
204.8088033715683
 20
163.0453545458376
 30
0.0
 11
204.79528210123181
 21
163.03634036561331
 31
0.0
  0
LINE
  5
22EA
  8
3
 10
204.8268317320169
 20
163.0498616359497
 30
0.0
 11
204.8088033715683
 21
163.0453545458376
 31
0.0
  0
LINE
  5
22EB
  8
3
 10
204.72767574954949
 20
162.96873401393091
 30
0.0
 11
204.70964738910089
 21
162.9507056534824
 31
0.0
  0
LINE
  5
22EC
  8
3
 10
204.74570410999809
 20
162.99126946449169
 30
0.0
 11
204.72767574954949
 21
162.96873401393091
 31
0.0
  0
LINE
  5
22ED
  8
3
 10
204.75922538033461
 20
163.00479073482819
 30
0.0
 11
204.74570410999809
 21
162.99126946449169
 31
0.0
  0
LINE
  5
22EE
  8
3
 10
204.77725374078321
 20
163.02281909527679
 30
0.0
 11
204.75922538033461
 21
163.00479073482819
 31
0.0
  0
LINE
  5
22EF
  8
3
 10
204.64654812753071
 20
162.8695780314635
 30
0.0
 11
204.63753394730631
 21
162.85154967101491
 31
0.0
  0
LINE
  5
22F0
  8
3
 10
204.6600693978672
 20
162.89211348202431
 30
0.0
 11
204.64654812753071
 21
162.8695780314635
 31
0.0
  0
LINE
  5
22F1
  8
3
 10
204.6780977583158
 20
162.91014184247291
 30
0.0
 11
204.6600693978672
 21
162.89211348202431
 31
0.0
  0
LINE
  5
22F2
  8
3
 10
204.69161902865221
 20
162.93267729303369
 30
0.0
 11
204.6780977583158
 21
162.91014184247291
 31
0.0
  0
LINE
  5
22F3
  8
3
 10
204.70964738910089
 20
162.9507056534824
 30
0.0
 11
204.69161902865221
 21
162.93267729303369
 31
0.0
  0
LINE
  5
22F4
  8
3
 10
204.06964059317491
 20
163.4014146646978
 30
0.0
 11
204.10119022395989
 21
163.44648556581939
 31
0.0
  0
LINE
  5
22F5
  8
3
 10
204.6104914066334
 20
162.8109858600055
 30
0.0
 11
204.59697013629699
 21
162.72985823798669
 31
0.0
  0
LINE
  5
22F6
  8
3
 10
205.58402287085889
 20
162.53605336316409
 30
0.0
 11
205.58402287085889
 21
162.6081668049585
 31
0.0
  0
LINE
  5
22F7
  8
3
 10
205.57500869063469
 20
162.680280246753
 30
0.0
 11
205.56599451041029
 21
162.74788659843529
 31
0.0
  0
LINE
  5
22F8
  8
3
 10
205.58402287085889
 20
162.6081668049585
 30
0.0
 11
205.57500869063469
 21
162.680280246753
 31
0.0
  0
LINE
  5
22F9
  8
3
 10
205.57951578074679
 20
162.15745779374299
 30
0.0
 11
205.57951578074679
 21
162.2340783256497
 31
0.0
  0
LINE
  5
22FA
  8
3
 10
205.58402287085889
 20
162.3106988575563
 30
0.0
 11
205.58402287085889
 21
162.3873193894629
 31
0.0
  0
LINE
  5
22FB
  8
3
 10
205.57951578074679
 20
162.2340783256497
 30
0.0
 11
205.58402287085889
 21
162.3106988575563
 31
0.0
  0
LINE
  5
22FC
  8
3
 10
205.58402287085889
 20
162.3873193894629
 30
0.0
 11
205.58402287085889
 21
162.46393992136959
 31
0.0
  0
LINE
  5
22FD
  8
3
 10
205.58402287085889
 20
162.46393992136959
 30
0.0
 11
205.58402287085889
 21
162.53605336316409
 31
0.0
  0
LINE
  5
22FE
  8
3
 10
205.57951578074679
 20
162.08534435194849
 30
0.0
 11
205.57951578074679
 21
162.15745779374299
 31
0.0
  0
LINE
  5
22FF
  8
3
 10
205.3902179960362
 20
163.02732618538889
 30
0.0
 11
205.3902179960362
 21
163.0183120051646
 31
0.0
  0
LINE
  5
2300
  8
3
 10
205.3902179960362
 20
163.0318332755011
 30
0.0
 11
205.3902179960362
 21
163.02732618538889
 31
0.0
  0
LINE
  5
2301
  8
3
 10
205.39472508614841
 20
163.0318332755011
 30
0.0
 11
205.3902179960362
 21
163.0318332755011
 31
0.0
  0
LINE
  5
2302
  8
3
 10
205.39472508614841
 20
163.03634036561331
 30
0.0
 11
205.39472508614841
 21
163.0318332755011
 31
0.0
  0
LINE
  5
2303
  8
3
 10
205.3992321762606
 20
163.03634036561331
 30
0.0
 11
205.39472508614841
 21
163.03634036561331
 31
0.0
  0
LINE
  5
2304
  8
3
 10
205.3992321762606
 20
163.04084745572541
 30
0.0
 11
205.3992321762606
 21
163.03634036561331
 31
0.0
  0
LINE
  5
2305
  8
3
 10
205.4037392663727
 20
163.04084745572541
 30
0.0
 11
205.3992321762606
 21
163.04084745572541
 31
0.0
  0
LINE
  5
2306
  8
3
 10
205.40824635648491
 20
163.04084745572541
 30
0.0
 11
205.4037392663727
 21
163.04084745572541
 31
0.0
  0
LINE
  5
2307
  8
3
 10
205.41275344659701
 20
163.04084745572541
 30
0.0
 11
205.40824635648491
 21
163.04084745572541
 31
0.0
  0
LINE
  5
2308
  8
3
 10
205.41726053670919
 20
163.04084745572541
 30
0.0
 11
205.41275344659701
 21
163.04084745572541
 31
0.0
  0
LINE
  5
2309
  8
3
 10
205.49838815872801
 20
162.93718438314579
 30
0.0
 11
205.41726053670919
 21
163.04084745572541
 31
0.0
  0
LINE
  5
230A
  8
3
 10
205.52543069940091
 20
162.87408512157569
 30
0.0
 11
205.49838815872801
 21
162.93718438314579
 31
0.0
  0
LINE
  5
230B
  8
3
 10
205.5479661499617
 20
162.8109858600055
 30
0.0
 11
205.52543069940091
 21
162.87408512157569
 31
0.0
  0
LINE
  5
230C
  8
3
 10
206.0933240535324
 20
163.49155646694089
 30
0.0
 11
206.12938077442971
 21
163.4374713855951
 31
0.0
  0
LINE
  5
230D
  8
3
 10
206.05276024252311
 20
163.54113445817461
 30
0.0
 11
206.0933240535324
 21
163.49155646694089
 31
0.0
  0
LINE
  5
230E
  8
3
 10
206.32769273936449
 20
162.86056385123919
 30
0.0
 11
206.32769273936449
 21
162.85605676112709
 31
0.0
  0
LINE
  5
230F
  8
3
 10
206.33219982947659
 20
162.88760639191219
 30
0.0
 11
206.32769273936449
 21
162.8830993018
 31
0.0
  0
LINE
  5
2310
  8
3
 10
206.3006501986917
 20
163.02281909527679
 30
0.0
 11
206.33219982947659
 21
162.88760639191219
 31
0.0
  0
LINE
  5
2311
  8
3
 10
206.32769273936449
 20
162.8695780314635
 30
0.0
 11
206.32769273936449
 21
162.86056385123919
 31
0.0
  0
LINE
  5
2312
  8
3
 10
206.32769273936449
 20
162.87408512157569
 30
0.0
 11
206.32769273936449
 21
162.8695780314635
 31
0.0
  0
LINE
  5
2313
  8
3
 10
206.32769273936449
 20
162.8785922116879
 30
0.0
 11
206.32769273936449
 21
162.87408512157569
 31
0.0
  0
LINE
  5
2314
  8
3
 10
206.32769273936449
 20
162.8830993018
 30
0.0
 11
206.32769273936449
 21
162.8785922116879
 31
0.0
  0
LINE
  5
2315
  8
3
 10
206.28262183824299
 20
163.085918356847
 30
0.0
 11
206.3006501986917
 21
163.02281909527679
 31
0.0
  0
LINE
  5
2316
  8
3
 10
206.26459347779439
 20
163.1490176184171
 30
0.0
 11
206.28262183824299
 21
163.085918356847
 31
0.0
  0
LINE
  5
2317
  8
3
 10
206.19248003599989
 20
163.32930122290341
 30
0.0
 11
206.21952257667269
 21
163.27070905144529
 31
0.0
  0
LINE
  5
2318
  8
3
 10
206.16093040521471
 20
163.3833863042492
 30
0.0
 11
206.19248003599989
 21
163.32930122290341
 31
0.0
  0
LINE
  5
2319
  8
3
 10
206.12938077442971
 20
163.4374713855951
 30
0.0
 11
206.16093040521471
 21
163.3833863042492
 31
0.0
  0
LINE
  5
231A
  8
3
 10
206.21952257667269
 20
163.27070905144529
 30
0.0
 11
206.24205802723361
 21
163.21211687998729
 31
0.0
  0
LINE
  5
231B
  8
3
 10
206.24205802723361
 20
163.21211687998729
 30
0.0
 11
206.26459347779439
 21
163.1490176184171
 31
0.0
  0
LINE
  5
231C
  8
3
 10
206.32769273936449
 20
162.85154967101491
 30
0.0
 11
206.33219982947659
 21
162.84704258090281
 31
0.0
  0
LINE
  5
231D
  8
3
 10
206.32769273936449
 20
162.85605676112709
 30
0.0
 11
206.32769273936449
 21
162.85154967101491
 31
0.0
  0
LINE
  5
231E
  8
3
 10
206.33219982947659
 20
162.83802840067841
 30
0.0
 11
206.33670691958881
 21
162.83802840067841
 31
0.0
  0
LINE
  5
231F
  8
3
 10
206.33219982947659
 20
162.8425354907906
 30
0.0
 11
206.33219982947659
 21
162.83802840067841
 31
0.0
  0
LINE
  5
2320
  8
3
 10
206.33219982947659
 20
162.84704258090281
 30
0.0
 11
206.33219982947659
 21
162.8425354907906
 31
0.0
  0
LINE
  5
2321
  8
3
 10
206.33670691958881
 20
162.83802840067841
 30
0.0
 11
206.33670691958881
 21
162.83352131056631
 31
0.0
  0
LINE
  5
2322
  8
3
 10
206.34121400970099
 20
162.8154929501176
 30
0.0
 11
206.34121400970099
 21
162.8154929501176
 31
0.0
  0
LINE
  5
2323
  8
3
 10
206.33670691958881
 20
162.824507130342
 30
0.0
 11
206.34121400970099
 21
162.8154929501176
 31
0.0
  0
LINE
  5
2324
  8
3
 10
206.33670691958881
 20
162.8290142204541
 30
0.0
 11
206.33670691958881
 21
162.824507130342
 31
0.0
  0
LINE
  5
2325
  8
3
 10
206.33670691958881
 20
162.83352131056631
 30
0.0
 11
206.33670691958881
 21
162.8290142204541
 31
0.0
  0
LINE
  5
2326
  8
3
 10
205.56599451041029
 20
162.74788659843529
 30
0.0
 11
205.5479661499617
 21
162.8109858600055
 31
0.0
  0
LINE
  5
2327
  8
3
 10
203.93893497992229
 20
163.6447975307542
 30
0.0
 11
203.8893569886886
 21
163.59521953952051
 31
0.0
  0
LINE
  5
2328
  8
3
 10
203.96597752059529
 20
163.66733298131501
 30
0.0
 11
203.93893497992229
 21
163.6447975307542
 31
0.0
  0
LINE
  5
2329
  8
3
 10
203.9930200612682
 20
163.68986843187571
 30
0.0
 11
203.96597752059529
 21
163.66733298131501
 31
0.0
  0
LINE
  5
232A
  8
3
 10
204.01555551182889
 20
163.71240388243649
 30
0.0
 11
203.9930200612682
 21
163.68986843187571
 31
0.0
  0
LINE
  5
232B
  8
3
 10
204.04259805250189
 20
163.7349393329973
 30
0.0
 11
204.01555551182889
 21
163.71240388243649
 31
0.0
  0
LINE
  5
232C
  8
3
 10
204.06964059317491
 20
163.75747478355811
 30
0.0
 11
204.04259805250189
 21
163.7349393329973
 31
0.0
  0
LINE
  5
232D
  8
3
 10
204.40767235158651
 20
163.96029383860511
 30
0.0
 11
204.3806298109136
 21
163.95127965838071
 31
0.0
  0
LINE
  5
232E
  8
3
 10
204.39415108124999
 20
163.7529676934459
 30
0.0
 11
204.43922198237149
 21
163.7890244143432
 31
0.0
  0
LINE
  5
232F
  8
3
 10
204.3806298109136
 20
163.95127965838071
 30
0.0
 11
204.34006599990411
 21
163.9242371177078
 31
0.0
  0
LINE
  5
2330
  8
3
 10
204.1192185844086
 20
163.79803859456749
 30
0.0
 11
204.09217604373569
 21
163.77550314400671
 31
0.0
  0
LINE
  5
2331
  8
3
 10
204.14626112508151
 20
163.81606695501611
 30
0.0
 11
204.1192185844086
 21
163.79803859456749
 31
0.0
  0
LINE
  5
2332
  8
3
 10
204.1778107558666
 20
163.83860240557681
 30
0.0
 11
204.14626112508151
 21
163.81606695501611
 31
0.0
  0
LINE
  5
2333
  8
3
 10
204.20485329653951
 20
163.85663076602549
 30
0.0
 11
204.1778107558666
 21
163.83860240557681
 31
0.0
  0
LINE
  5
2334
  8
3
 10
204.2364029273246
 20
163.87465912647411
 30
0.0
 11
204.20485329653951
 21
163.85663076602549
 31
0.0
  0
LINE
  5
2335
  8
3
 10
204.26795255810961
 20
163.89268748692271
 30
0.0
 11
204.2364029273246
 21
163.87465912647411
 31
0.0
  0
LINE
  5
2336
  8
3
 10
204.30400927900689
 20
163.91071584737131
 30
0.0
 11
204.26795255810961
 21
163.89268748692271
 31
0.0
  0
LINE
  5
2337
  8
3
 10
204.34006599990411
 20
163.9242371177078
 30
0.0
 11
204.30400927900689
 21
163.91071584737131
 31
0.0
  0
LINE
  5
2338
  8
3
 10
204.2138674767638
 20
163.59521953952051
 30
0.0
 11
204.2544312877732
 21
163.64029044064199
 31
0.0
  0
LINE
  5
2339
  8
3
 10
204.3445730900163
 20
163.7214180626608
 30
0.0
 11
204.39415108124999
 21
163.7529676934459
 31
0.0
  0
LINE
  5
233A
  8
3
 10
204.29950218889479
 20
163.6808542516514
 30
0.0
 11
204.3445730900163
 21
163.7214180626608
 31
0.0
  0
LINE
  5
233B
  8
3
 10
204.2544312877732
 20
163.64029044064199
 30
0.0
 11
204.29950218889479
 21
163.6808542516514
 31
0.0
  0
LINE
  5
233C
  8
3
 10
204.65105521764281
 20
164.04592855073599
 30
0.0
 11
204.6195055868578
 21
164.03691437051171
 31
0.0
  0
LINE
  5
233D
  8
3
 10
204.59697013629699
 20
163.87465912647411
 30
0.0
 11
204.65105521764281
 21
163.8971945770349
 31
0.0
  0
LINE
  5
233E
  8
3
 10
204.6195055868578
 20
164.03691437051171
 30
0.0
 11
204.5924630461848
 21
164.02790019028731
 31
0.0
  0
LINE
  5
233F
  8
3
 10
204.5654205055119
 20
164.018886010063
 30
0.0
 11
204.53837796483899
 21
164.0098718298388
 31
0.0
  0
LINE
  5
2340
  8
3
 10
204.48429288349311
 20
163.99184346939009
 30
0.0
 11
204.4572503428202
 21
163.98282928916581
 31
0.0
  0
LINE
  5
2341
  8
3
 10
204.51133542416599
 20
164.0008576496144
 30
0.0
 11
204.48429288349311
 21
163.99184346939009
 31
0.0
  0
LINE
  5
2342
  8
3
 10
204.43020780214721
 20
163.96930801882939
 30
0.0
 11
204.40767235158651
 21
163.96029383860511
 31
0.0
  0
LINE
  5
2343
  8
3
 10
204.4572503428202
 20
163.98282928916581
 30
0.0
 11
204.43020780214721
 21
163.96930801882939
 31
0.0
  0
LINE
  5
2344
  8
3
 10
204.43922198237149
 20
163.7890244143432
 30
0.0
 11
204.4933070637174
 21
163.8205740451283
 31
0.0
  0
LINE
  5
2345
  8
3
 10
204.53837796483899
 20
164.0098718298388
 30
0.0
 11
204.51133542416599
 21
164.0008576496144
 31
0.0
  0
LINE
  5
2346
  8
3
 10
204.4933070637174
 20
163.8205740451283
 30
0.0
 11
204.54288505495111
 21
163.84761658580121
 31
0.0
  0
LINE
  5
2347
  8
3
 10
204.5924630461848
 20
164.02790019028731
 30
0.0
 11
204.5654205055119
 21
164.018886010063
 31
0.0
  0
LINE
  5
2348
  8
3
 10
204.54288505495111
 20
163.84761658580121
 30
0.0
 11
204.59697013629699
 21
163.87465912647411
 31
0.0
  0
LINE
  5
2349
  8
3
 10
204.70964738910089
 20
163.9197300275957
 30
0.0
 11
204.7682395605589
 21
163.9377583880443
 31
0.0
  0
LINE
  5
234A
  8
3
 10
204.65105521764281
 20
163.8971945770349
 30
0.0
 11
204.70964738910089
 21
163.9197300275957
 31
0.0
  0
LINE
  5
234B
  8
3
 10
204.8719026331384
 20
164.0864923617454
 30
0.0
 11
204.7682395605589
 21
164.07747818152109
 31
0.0
  0
LINE
  5
234C
  8
3
 10
204.73668992977369
 20
164.0729710914089
 30
0.0
 11
204.70964738910089
 21
164.06395691118459
 31
0.0
  0
LINE
  5
234D
  8
3
 10
204.7682395605589
 20
164.07747818152109
 30
0.0
 11
204.73668992977369
 21
164.0729710914089
 31
0.0
  0
LINE
  5
234E
  8
3
 10
204.6780977583158
 20
164.05494273096031
 30
0.0
 11
204.65105521764281
 21
164.04592855073599
 31
0.0
  0
LINE
  5
234F
  8
3
 10
204.70964738910089
 20
164.06395691118459
 30
0.0
 11
204.6780977583158
 21
164.05494273096031
 31
0.0
  0
LINE
  5
2350
  8
3
 10
204.7682395605589
 20
163.9377583880443
 30
0.0
 11
204.889930993587
 21
163.96930801882939
 31
0.0
  0
LINE
  5
2351
  8
3
 10
204.889930993587
 20
163.96930801882939
 30
0.0
 11
204.93049480459641
 21
163.97832219905371
 31
0.0
  0
LINE
  5
2352
  8
3
 10
204.09217604373569
 20
163.77550314400671
 30
0.0
 11
204.06964059317491
 21
163.75747478355811
 31
0.0
  0
LINE
  5
2353
  8
3
 10
204.04710514261399
 20
165.04199546552229
 30
0.0
 11
204.0290767821655
 21
165.0510096457466
 31
0.0
  0
LINE
  5
2354
  8
3
 10
204.01555551182889
 20
165.06002382597089
 30
0.0
 11
204.00203424149251
 21
165.07354509630741
 31
0.0
  0
LINE
  5
2355
  8
3
 10
204.0290767821655
 20
165.0510096457466
 30
0.0
 11
204.01555551182889
 21
165.06002382597089
 31
0.0
  0
LINE
  5
2356
  8
3
 10
203.93442788981019
 20
164.62283608509179
 30
0.0
 11
203.93893497992229
 21
164.627343175204
 31
0.0
  0
LINE
  5
2357
  8
3
 10
203.93442788981019
 20
164.61832899497969
 30
0.0
 11
203.93442788981019
 21
164.62283608509179
 31
0.0
  0
LINE
  5
2358
  8
3
 10
203.93442788981019
 20
164.61382190486751
 30
0.0
 11
203.93442788981019
 21
164.61832899497969
 31
0.0
  0
LINE
  5
2359
  8
3
 10
203.93442788981019
 20
164.60931481475541
 30
0.0
 11
203.93442788981019
 21
164.61382190486751
 31
0.0
  0
LINE
  5
235A
  8
3
 10
203.9299207996981
 20
164.60931481475541
 30
0.0
 11
203.93442788981019
 21
164.60931481475541
 31
0.0
  0
LINE
  5
235B
  8
3
 10
203.9299207996981
 20
164.60480772464319
 30
0.0
 11
203.9299207996981
 21
164.60931481475541
 31
0.0
  0
LINE
  5
235C
  8
3
 10
203.9299207996981
 20
164.6003006345311
 30
0.0
 11
203.9299207996981
 21
164.60480772464319
 31
0.0
  0
LINE
  5
235D
  8
3
 10
203.9299207996981
 20
164.59579354441891
 30
0.0
 11
203.9299207996981
 21
164.6003006345311
 31
0.0
  0
LINE
  5
235E
  8
3
 10
203.9209066194737
 20
164.59579354441891
 30
0.0
 11
203.9299207996981
 21
164.59579354441891
 31
0.0
  0
LINE
  5
235F
  8
3
 10
203.9163995293616
 20
164.59579354441891
 30
0.0
 11
203.9209066194737
 21
164.59579354441891
 31
0.0
  0
LINE
  5
2360
  8
3
 10
203.91189243924941
 20
164.59128645430681
 30
0.0
 11
203.9163995293616
 21
164.59579354441891
 31
0.0
  0
LINE
  5
2361
  8
3
 10
203.9073853491372
 20
164.59128645430681
 30
0.0
 11
203.91189243924941
 21
164.59128645430681
 31
0.0
  0
LINE
  5
2362
  8
3
 10
203.90287825902499
 20
164.5867793641946
 30
0.0
 11
203.9073853491372
 21
164.59128645430681
 31
0.0
  0
LINE
  5
2363
  8
3
 10
203.89837116891289
 20
164.5867793641946
 30
0.0
 11
203.90287825902499
 21
164.5867793641946
 31
0.0
  0
LINE
  5
2364
  8
3
 10
203.89386407880079
 20
164.5867793641946
 30
0.0
 11
203.89837116891289
 21
164.5867793641946
 31
0.0
  0
LINE
  5
2365
  8
3
 10
203.8893569886886
 20
164.58227227408241
 30
0.0
 11
203.89386407880079
 21
164.5867793641946
 31
0.0
  0
LINE
  5
2366
  8
3
 10
203.8893569886886
 20
164.57776518397031
 30
0.0
 11
203.8893569886886
 21
164.58227227408241
 31
0.0
  0
LINE
  5
2367
  8
3
 10
204.0651335030627
 20
165.02847419518579
 30
0.0
 11
204.04710514261399
 21
165.04199546552229
 31
0.0
  0
LINE
  5
2368
  8
3
 10
204.29499509878261
 20
164.7805842390172
 30
0.0
 11
204.46626452304449
 21
164.83016223025089
 31
0.0
  0
LINE
  5
2369
  8
3
 10
204.43922198237149
 20
164.96988202372779
 30
0.0
 11
204.39415108124999
 21
164.97438911383989
 31
0.0
  0
LINE
  5
236A
  8
3
 10
204.1192185844086
 20
164.71297788733489
 30
0.0
 11
204.29499509878261
 21
164.7805842390172
 31
0.0
  0
LINE
  5
236B
  8
3
 10
204.18231784597879
 20
165.00143165451291
 30
0.0
 11
204.1417540349693
 21
165.0104458347372
 31
0.0
  0
LINE
  5
236C
  8
3
 10
204.22288165698811
 20
164.9969245644007
 30
0.0
 11
204.18231784597879
 21
165.00143165451291
 31
0.0
  0
LINE
  5
236D
  8
3
 10
204.26795255810961
 20
164.98791038417639
 30
0.0
 11
204.22288165698811
 21
164.9969245644007
 31
0.0
  0
LINE
  5
236E
  8
3
 10
204.3085163691191
 20
164.9834032940642
 30
0.0
 11
204.26795255810961
 21
164.98791038417639
 31
0.0
  0
LINE
  5
236F
  8
3
 10
204.35358727024061
 20
164.9788962039521
 30
0.0
 11
204.3085163691191
 21
164.9834032940642
 31
0.0
  0
LINE
  5
2370
  8
3
 10
204.39415108124999
 20
164.97438911383989
 30
0.0
 11
204.35358727024061
 21
164.9788962039521
 31
0.0
  0
LINE
  5
2371
  8
3
 10
204.6645764879793
 20
164.92931821271841
 30
0.0
 11
204.62851976708211
 21
164.9383323929427
 31
0.0
  0
LINE
  5
2372
  8
3
 10
204.46626452304449
 20
164.83016223025089
 30
0.0
 11
204.63753394730631
 21
164.8707260412603
 31
0.0
  0
LINE
  5
2373
  8
3
 10
204.62851976708211
 20
164.9383323929427
 30
0.0
 11
204.5924630461848
 21
164.9428394830548
 31
0.0
  0
LINE
  5
2374
  8
3
 10
204.55640632528761
 20
164.95185366327919
 30
0.0
 11
204.52034960439039
 21
164.95636075339129
 31
0.0
  0
LINE
  5
2375
  8
3
 10
204.47978579338101
 20
164.96086784350351
 30
0.0
 11
204.43922198237149
 21
164.96988202372779
 31
0.0
  0
LINE
  5
2376
  8
3
 10
204.52034960439039
 20
164.95636075339129
 30
0.0
 11
204.47978579338101
 21
164.96086784350351
 31
0.0
  0
LINE
  5
2377
  8
3
 10
204.5924630461848
 20
164.9428394830548
 30
0.0
 11
204.55640632528761
 21
164.95185366327919
 31
0.0
  0
LINE
  5
2378
  8
3
 10
204.68711193854011
 20
165.06903800619509
 30
0.0
 11
204.69161902865221
 21
165.00593874462501
 31
0.0
  0
LINE
  5
2379
  8
3
 10
204.69612611876451
 20
164.91579694238189
 30
0.0
 11
204.6645764879793
 21
164.92931821271841
 31
0.0
  0
LINE
  5
237A
  8
3
 10
204.69161902865221
 20
165.00593874462501
 30
0.0
 11
204.69612611876451
 21
164.91579694238189
 31
0.0
  0
LINE
  5
237B
  8
3
 10
204.63753394730631
 20
164.8707260412603
 30
0.0
 11
204.8088033715683
 21
164.89776858193329
 31
0.0
  0
LINE
  5
237C
  8
3
 10
203.93893497992229
 20
164.627343175204
 30
0.0
 11
204.1192185844086
 21
164.71297788733489
 31
0.0
  0
LINE
  5
237D
  8
3
 10
204.1417540349693
 20
165.0104458347372
 30
0.0
 11
204.0651335030627
 21
165.02847419518579
 31
0.0
  0
LINE
  5
237E
  8
3
 10
203.8893569886886
 20
163.59521953952051
 30
0.0
 11
203.8893569886886
 21
164.57776518397031
 31
0.0
  0
LINE
  5
237F
  8
3
 10
205.20993439155009
 20
164.09550654196971
 30
0.0
 11
205.07472168818549
 21
164.0909994518575
 31
0.0
  0
LINE
  5
2380
  8
3
 10
205.13782094975551
 20
163.98282928916581
 30
0.0
 11
205.178384760765
 21
163.98282928916581
 31
0.0
  0
LINE
  5
2381
  8
3
 10
205.07472168818549
 20
164.0909994518575
 30
0.0
 11
204.96204443538161
 21
164.0864923617454
 31
0.0
  0
LINE
  5
2382
  8
3
 10
205.09725713874619
 20
163.98282928916581
 30
0.0
 11
205.13782094975551
 21
163.98282928916581
 31
0.0
  0
LINE
  5
2383
  8
3
 10
205.0521862376246
 20
163.98282928916581
 30
0.0
 11
205.09725713874619
 21
163.98282928916581
 31
0.0
  0
LINE
  5
2384
  8
3
 10
205.01162242661519
 20
163.98282928916581
 30
0.0
 11
205.0521862376246
 21
163.98282928916581
 31
0.0
  0
LINE
  5
2385
  8
3
 10
204.9710586156059
 20
163.97832219905371
 30
0.0
 11
205.01162242661519
 21
163.98282928916581
 31
0.0
  0
LINE
  5
2386
  8
3
 10
205.72824975444789
 20
163.8205740451283
 30
0.0
 11
205.7462781148966
 21
163.8115598649039
 31
0.0
  0
LINE
  5
2387
  8
3
 10
205.7102213939994
 20
163.82958822535261
 30
0.0
 11
205.72824975444789
 21
163.8205740451283
 31
0.0
  0
LINE
  5
2388
  8
3
 10
205.69219303355069
 20
163.83860240557681
 30
0.0
 11
205.7102213939994
 21
163.82958822535261
 31
0.0
  0
LINE
  5
2389
  8
3
 10
205.67416467310201
 20
163.84761658580121
 30
0.0
 11
205.69219303355069
 21
163.83860240557681
 31
0.0
  0
LINE
  5
238A
  8
3
 10
205.65613631265339
 20
163.85663076602549
 30
0.0
 11
205.67416467310201
 21
163.84761658580121
 31
0.0
  0
LINE
  5
238B
  8
3
 10
205.63810795220479
 20
163.8656449462498
 30
0.0
 11
205.65613631265339
 21
163.85663076602549
 31
0.0
  0
LINE
  5
238C
  8
3
 10
205.62007959175619
 20
163.87465912647411
 30
0.0
 11
205.63810795220479
 21
163.8656449462498
 31
0.0
  0
LINE
  5
238D
  8
3
 10
205.60205123130751
 20
163.8836733066984
 30
0.0
 11
205.62007959175619
 21
163.87465912647411
 31
0.0
  0
LINE
  5
238E
  8
3
 10
205.58402287085889
 20
163.89268748692271
 30
0.0
 11
205.60205123130751
 21
163.8836733066984
 31
0.0
  0
LINE
  5
238F
  8
3
 10
205.56599451041029
 20
163.90170166714699
 30
0.0
 11
205.58402287085889
 21
163.89268748692271
 31
0.0
  0
LINE
  5
2390
  8
3
 10
205.5479661499617
 20
163.91071584737131
 30
0.0
 11
205.56599451041029
 21
163.90170166714699
 31
0.0
  0
LINE
  5
2391
  8
3
 10
205.5344448796252
 20
163.9197300275957
 30
0.0
 11
205.5479661499617
 21
163.91071584737131
 31
0.0
  0
LINE
  5
2392
  8
3
 10
205.45331725760639
 20
163.9422654781564
 30
0.0
 11
205.5344448796252
 21
163.9197300275957
 31
0.0
  0
LINE
  5
2393
  8
3
 10
205.76430647534519
 20
163.80254568467959
 30
0.0
 11
205.78233483579379
 21
163.7935315044553
 31
0.0
  0
LINE
  5
2394
  8
3
 10
205.7462781148966
 20
163.8115598649039
 30
0.0
 11
205.76430647534519
 21
163.80254568467959
 31
0.0
  0
LINE
  5
2395
  8
3
 10
205.78233483579379
 20
163.7935315044553
 30
0.0
 11
205.81839155669101
 21
163.77099605389461
 31
0.0
  0
LINE
  5
2396
  8
3
 10
205.35866836525119
 20
164.09550654196971
 30
0.0
 11
205.20993439155009
 21
164.09550654196971
 31
0.0
  0
LINE
  5
2397
  8
3
 10
205.52543069940091
 20
164.09550654196971
 30
0.0
 11
205.35866836525119
 21
164.09550654196971
 31
0.0
  0
LINE
  5
2398
  8
3
 10
205.69670012366279
 20
164.10001363208181
 30
0.0
 11
205.52543069940091
 21
164.09550654196971
 31
0.0
  0
LINE
  5
2399
  8
3
 10
205.41726053670919
 20
163.95127965838071
 30
0.0
 11
205.45331725760639
 21
163.9422654781564
 31
0.0
  0
LINE
  5
239A
  8
3
 10
205.37669672569979
 20
163.96029383860511
 30
0.0
 11
205.41726053670919
 21
163.95127965838071
 31
0.0
  0
LINE
  5
239B
  8
3
 10
205.33613291469049
 20
163.96480092871721
 30
0.0
 11
205.37669672569979
 21
163.96029383860511
 31
0.0
  0
LINE
  5
239C
  8
3
 10
205.295569103681
 20
163.97381510894149
 30
0.0
 11
205.33613291469049
 21
163.96480092871721
 31
0.0
  0
LINE
  5
239D
  8
3
 10
205.2550052926716
 20
163.97832219905371
 30
0.0
 11
205.295569103681
 21
163.97381510894149
 31
0.0
  0
LINE
  5
239E
  8
3
 10
205.2189485717744
 20
163.97832219905371
 30
0.0
 11
205.2550052926716
 21
163.97832219905371
 31
0.0
  0
LINE
  5
239F
  8
3
 10
205.178384760765
 20
163.98282928916581
 30
0.0
 11
205.2189485717744
 21
163.97832219905371
 31
0.0
  0
LINE
  5
23A0
  8
3
 10
205.87247663803689
 20
163.73043224288509
 30
0.0
 11
205.9220546292706
 21
163.68536134176361
 31
0.0
  0
LINE
  5
23A1
  8
3
 10
206.0662815128596
 20
164.104520722194
 30
0.0
 11
205.88149081826111
 21
164.10001363208181
 31
0.0
  0
LINE
  5
23A2
  8
3
 10
205.96712553039211
 20
163.64029044064199
 30
0.0
 11
206.0121964315137
 21
163.5907124494083
 31
0.0
  0
LINE
  5
23A3
  8
3
 10
205.9220546292706
 20
163.68536134176361
 30
0.0
 11
205.96712553039211
 21
163.64029044064199
 31
0.0
  0
LINE
  5
23A4
  8
3
 10
206.25557929756999
 20
164.104520722194
 30
0.0
 11
206.0662815128596
 21
164.104520722194
 31
0.0
  0
LINE
  5
23A5
  8
3
 10
206.4403699921684
 20
164.10902781230621
 30
0.0
 11
206.25557929756999
 21
164.104520722194
 31
0.0
  0
LINE
  5
23A6
  8
3
 10
206.62516068676669
 20
164.10902781230621
 30
0.0
 11
206.4403699921684
 21
164.10902781230621
 31
0.0
  0
LINE
  5
23A7
  8
3
 10
205.81839155669101
 20
163.77099605389461
 30
0.0
 11
205.87247663803689
 21
163.73043224288509
 31
0.0
  0
LINE
  5
23A8
  8
3
 10
205.88149081826111
 20
164.10001363208181
 30
0.0
 11
205.69670012366279
 21
164.10001363208181
 31
0.0
  0
LINE
  5
23A9
  8
3
 10
205.15584931020419
 20
164.9248111226062
 30
0.0
 11
205.33162582457831
 21
164.92931821271841
 31
0.0
  0
LINE
  5
23AA
  8
3
 10
204.9800727958301
 20
164.91579694238189
 30
0.0
 11
205.15584931020419
 21
164.9248111226062
 31
0.0
  0
LINE
  5
23AB
  8
3
 10
205.5209236092887
 20
164.9248111226062
 30
0.0
 11
205.7102213939994
 21
164.92030403249399
 31
0.0
  0
LINE
  5
23AC
  8
3
 10
205.33162582457831
 20
164.92931821271841
 30
0.0
 11
205.5209236092887
 21
164.9248111226062
 31
0.0
  0
LINE
  5
23AD
  8
3
 10
205.91304044904629
 20
164.9112898522697
 30
0.0
 11
206.12938077442971
 21
164.9067827621576
 31
0.0
  0
LINE
  5
23AE
  8
3
 10
206.12938077442971
 20
164.9067827621576
 30
0.0
 11
206.2420580272335
 21
164.9045292171015
 31
0.0
  0
LINE
  5
23AF
  8
3
 10
206.40431327127121
 20
165.03298128529789
 30
0.0
 11
205.62458668186829
 21
165.04199546552229
 31
0.0
  0
LINE
  5
23B0
  8
3
 10
205.7102213939994
 20
164.92030403249399
 30
0.0
 11
205.91304044904629
 21
164.9112898522697
 31
0.0
  0
LINE
  5
23B1
  8
3
 10
204.8088033715683
 20
164.89776858193329
 30
0.0
 11
204.9800727958301
 21
164.91579694238189
 31
0.0
  0
LINE
  5
23B2
  8
3
 10
204.96204443538161
 20
164.0864923617454
 30
0.0
 11
204.8719026331384
 21
164.0864923617454
 31
0.0
  0
LINE
  5
23B3
  8
3
 10
204.93049480459641
 20
163.97832219905371
 30
0.0
 11
204.9710586156059
 21
163.97832219905371
 31
0.0
  0
LINE
  5
23B4
  8
3
 10
204.17330366575439
 20
163.55014863839889
 30
0.0
 11
204.2138674767638
 21
163.59521953952051
 31
0.0
  0
LINE
  5
23B5
  8
3
 10
206.0121964315137
 20
163.5907124494083
 30
0.0
 11
206.05276024252311
 21
163.54113445817461
 31
0.0
  0
LINE
  5
23B6
  8
3
 10
206.7964301110286
 20
164.10902781230621
 30
0.0
 11
206.62516068676669
 21
164.10902781230621
 31
0.0
  0
LINE
  5
23B7
  8
3
 10
203.9163995293616
 20
165.1997436194477
 30
0.0
 11
203.91189243924941
 21
165.2177719798963
 31
0.0
  0
LINE
  5
23B8
  8
3
 10
203.91189243924941
 20
165.2177719798963
 30
0.0
 11
203.90287825902499
 21
165.23580034034489
 31
0.0
  0
LINE
  5
23B9
  8
3
 10
203.89837116891289
 20
165.26734997112999
 30
0.0
 11
203.89386407880079
 21
165.3484775931488
 31
0.0
  0
LINE
  5
23BA
  8
3
 10
203.8893569886886
 20
165.42960521516761
 30
0.0
 11
203.8893569886886
 21
165.5107328371864
 31
0.0
  0
LINE
  5
23BB
  8
3
 10
203.89386407880079
 20
165.3484775931488
 30
0.0
 11
203.8893569886886
 21
165.42960521516761
 31
0.0
  0
LINE
  5
23BC
  8
3
 10
203.8893569886886
 20
165.74960861313059
 30
0.0
 11
203.89386407880079
 21
165.8307362351494
 31
0.0
  0
LINE
  5
23BD
  8
3
 10
203.8848498985765
 20
165.66848099111181
 30
0.0
 11
203.8893569886886
 21
165.74960861313059
 31
0.0
  0
LINE
  5
23BE
  8
3
 10
203.8848498985765
 20
165.59186045920509
 30
0.0
 11
203.8848498985765
 21
165.66848099111181
 31
0.0
  0
LINE
  5
23BF
  8
3
 10
203.8893569886886
 20
165.5107328371864
 30
0.0
 11
203.8848498985765
 21
165.59186045920509
 31
0.0
  0
LINE
  5
23C0
  8
3
 10
203.90287825902499
 20
165.23580034034489
 30
0.0
 11
203.89837116891289
 21
165.26734997112999
 31
0.0
  0
LINE
  5
23C1
  8
3
 10
203.92541370958591
 20
165.18171525899899
 30
0.0
 11
203.9163995293616
 21
165.1997436194477
 31
0.0
  0
LINE
  5
23C2
  8
3
 10
203.93442788981019
 20
165.1636868985504
 30
0.0
 11
203.92541370958591
 21
165.18171525899899
 31
0.0
  0
LINE
  5
23C3
  8
3
 10
203.94344207003451
 20
165.1456585381018
 30
0.0
 11
203.93442788981019
 21
165.1636868985504
 31
0.0
  0
LINE
  5
23C4
  8
3
 10
203.95245625025879
 20
165.1321372677653
 30
0.0
 11
203.94344207003451
 21
165.1456585381018
 31
0.0
  0
LINE
  5
23C5
  8
3
 10
203.9614704304831
 20
165.11410890731671
 30
0.0
 11
203.95245625025879
 21
165.1321372677653
 31
0.0
  0
LINE
  5
23C6
  8
3
 10
203.9749917008196
 20
165.10058763698029
 30
0.0
 11
203.9614704304831
 21
165.11410890731671
 31
0.0
  0
LINE
  5
23C7
  8
3
 10
203.98851297115601
 20
165.0870663666438
 30
0.0
 11
203.9749917008196
 21
165.10058763698029
 31
0.0
  0
LINE
  5
23C8
  8
3
 10
204.91246644414781
 20
165.1636868985504
 30
0.0
 11
204.90795935403571
 21
165.22678616012061
 31
0.0
  0
LINE
  5
23C9
  8
3
 10
204.6780977583158
 20
165.2177719798963
 30
0.0
 11
204.6826048484279
 21
165.14115144798961
 31
0.0
  0
LINE
  5
23CA
  8
3
 10
204.90795935403571
 20
165.4205910349433
 30
0.0
 11
204.90795935403571
 21
165.48819738662559
 31
0.0
  0
LINE
  5
23CB
  8
3
 10
204.90795935403571
 20
165.35749177337311
 30
0.0
 11
204.90795935403571
 21
165.4205910349433
 31
0.0
  0
LINE
  5
23CC
  8
3
 10
204.90795935403571
 20
165.28988542169071
 30
0.0
 11
204.90795935403571
 21
165.35749177337311
 31
0.0
  0
LINE
  5
23CD
  8
3
 10
204.66908357809149
 20
165.39354849427031
 30
0.0
 11
204.67359066820359
 21
165.30340669202721
 31
0.0
  0
LINE
  5
23CE
  8
3
 10
204.66908357809149
 20
165.48369029651349
 30
0.0
 11
204.66908357809149
 21
165.39354849427031
 31
0.0
  0
LINE
  5
23CF
  8
3
 10
204.91246644414781
 20
165.7586227933549
 30
0.0
 11
204.91246644414781
 21
165.82622914503719
 31
0.0
  0
LINE
  5
23D0
  8
3
 10
204.90795935403571
 20
165.6910164416725
 30
0.0
 11
204.91246644414781
 21
165.7586227933549
 31
0.0
  0
LINE
  5
23D1
  8
3
 10
204.90795935403571
 20
165.6234100899903
 30
0.0
 11
204.90795935403571
 21
165.6910164416725
 31
0.0
  0
LINE
  5
23D2
  8
3
 10
204.90795935403571
 20
165.5558037383079
 30
0.0
 11
204.90795935403571
 21
165.6234100899903
 31
0.0
  0
LINE
  5
23D3
  8
3
 10
204.67359066820359
 20
165.67298808122399
 30
0.0
 11
204.66908357809149
 21
165.57833918886871
 31
0.0
  0
LINE
  5
23D4
  8
3
 10
204.6826048484279
 20
165.763129883467
 30
0.0
 11
204.67359066820359
 21
165.67298808122399
 31
0.0
  0
LINE
  5
23D5
  8
3
 10
204.90795935403571
 20
165.48819738662559
 30
0.0
 11
204.90795935403571
 21
165.5558037383079
 31
0.0
  0
LINE
  5
23D6
  8
3
 10
204.66908357809149
 20
165.57833918886871
 30
0.0
 11
204.66908357809149
 21
165.48369029651349
 31
0.0
  0
LINE
  5
23D7
  8
3
 10
204.90795935403571
 20
165.22678616012061
 30
0.0
 11
204.90795935403571
 21
165.28988542169071
 31
0.0
  0
LINE
  5
23D8
  8
3
 10
204.67359066820359
 20
165.30340669202721
 30
0.0
 11
204.6780977583158
 21
165.2177719798963
 31
0.0
  0
LINE
  5
23D9
  8
3
 10
204.91697353425999
 20
165.10058763698029
 30
0.0
 11
204.91246644414781
 21
165.1636868985504
 31
0.0
  0
LINE
  5
23DA
  8
3
 10
203.9209066194737
 20
166.06510492098141
 30
0.0
 11
203.93893497992229
 21
166.14172545288801
 31
0.0
  0
LINE
  5
23DB
  8
3
 10
203.95696334037089
 20
166.21834598479469
 30
0.0
 11
203.98400588104391
 21
166.29045942658919
 31
0.0
  0
LINE
  5
23DC
  8
3
 10
203.93893497992229
 20
166.14172545288801
 30
0.0
 11
203.95696334037089
 21
166.21834598479469
 31
0.0
  0
LINE
  5
23DD
  8
3
 10
203.98400588104391
 20
166.29045942658919
 30
0.0
 11
204.01104842171679
 21
166.35806577827151
 31
0.0
  0
LINE
  5
23DE
  8
3
 10
203.89837116891289
 20
165.91186385716821
 30
0.0
 11
203.9073853491372
 21
165.98848438907481
 31
0.0
  0
LINE
  5
23DF
  8
3
 10
203.9073853491372
 20
165.98848438907481
 30
0.0
 11
203.9209066194737
 21
166.06510492098141
 31
0.0
  0
LINE
  5
23E0
  8
3
 10
204.91246644414781
 20
166.02454110997209
 30
0.0
 11
204.90795935403571
 21
166.15073963311241
 31
0.0
  0
LINE
  5
23E1
  8
3
 10
204.78626792100749
 20
166.09214746165429
 30
0.0
 11
204.75021120011019
 21
166.02003401985991
 31
0.0
  0
LINE
  5
23E2
  8
3
 10
204.8358459122413
 20
166.15975381333669
 30
0.0
 11
204.831338822129
 21
166.15073963311241
 31
0.0
  0
LINE
  5
23E3
  8
3
 10
204.8403530023534
 20
166.15975381333669
 30
0.0
 11
204.8358459122413
 21
166.15975381333669
 31
0.0
  0
LINE
  5
23E4
  8
3
 10
204.84936718257759
 20
166.16426090344879
 30
0.0
 11
204.8403530023534
 21
166.15975381333669
 31
0.0
  0
LINE
  5
23E5
  8
3
 10
204.85387427268981
 20
166.168767993561
 30
0.0
 11
204.84936718257759
 21
166.16426090344879
 31
0.0
  0
LINE
  5
23E6
  8
3
 10
204.85838136280199
 20
166.168767993561
 30
0.0
 11
204.85387427268981
 21
166.168767993561
 31
0.0
  0
LINE
  5
23E7
  8
3
 10
204.86288845291409
 20
166.1732750836731
 30
0.0
 11
204.85838136280199
 21
166.168767993561
 31
0.0
  0
LINE
  5
23E8
  8
3
 10
204.8719026331384
 20
166.1732750836731
 30
0.0
 11
204.86288845291409
 21
166.1732750836731
 31
0.0
  0
LINE
  5
23E9
  8
3
 10
204.87640972325059
 20
166.17778217378529
 30
0.0
 11
204.8719026331384
 21
166.1732750836731
 31
0.0
  0
LINE
  5
23EA
  8
3
 10
204.8809168133626
 20
166.17778217378529
 30
0.0
 11
204.87640972325059
 21
166.17778217378529
 31
0.0
  0
LINE
  5
23EB
  8
3
 10
204.8854239034749
 20
166.17778217378529
 30
0.0
 11
204.8809168133626
 21
166.17778217378529
 31
0.0
  0
LINE
  5
23EC
  8
3
 10
204.8944380836993
 20
166.1732750836731
 30
0.0
 11
204.8854239034749
 21
166.17778217378529
 31
0.0
  0
LINE
  5
23ED
  8
3
 10
204.89894517381131
 20
166.1732750836731
 30
0.0
 11
204.8944380836993
 21
166.1732750836731
 31
0.0
  0
LINE
  5
23EE
  8
3
 10
204.89894517381131
 20
166.168767993561
 30
0.0
 11
204.89894517381131
 21
166.1732750836731
 31
0.0
  0
LINE
  5
23EF
  8
3
 10
204.90345226392361
 20
166.15975381333669
 30
0.0
 11
204.89894517381131
 21
166.168767993561
 31
0.0
  0
LINE
  5
23F0
  8
3
 10
204.90795935403571
 20
166.15073963311241
 30
0.0
 11
204.90345226392361
 21
166.15975381333669
 31
0.0
  0
LINE
  5
23F1
  8
3
 10
204.831338822129
 20
166.15073963311241
 30
0.0
 11
204.78626792100749
 21
166.09214746165429
 31
0.0
  0
LINE
  5
23F2
  8
3
 10
204.91246644414781
 20
165.9569347582898
 30
0.0
 11
204.91246644414781
 21
166.02454110997209
 31
0.0
  0
LINE
  5
23F3
  8
3
 10
204.91246644414781
 20
165.89383549671959
 30
0.0
 11
204.91246644414781
 21
165.9569347582898
 31
0.0
  0
LINE
  5
23F4
  8
3
 10
204.75021120011019
 20
166.02003401985991
 30
0.0
 11
204.71866156932521
 21
165.93890639784109
 31
0.0
  0
LINE
  5
23F5
  8
3
 10
204.71866156932521
 20
165.93890639784109
 30
0.0
 11
204.70063320887661
 21
165.8532716857101
 31
0.0
  0
LINE
  5
23F6
  8
3
 10
203.89386407880079
 20
165.8307362351494
 30
0.0
 11
203.89837116891289
 21
165.91186385716821
 31
0.0
  0
LINE
  5
23F7
  8
3
 10
204.91246644414781
 20
165.82622914503719
 30
0.0
 11
204.91246644414781
 21
165.89383549671959
 31
0.0
  0
LINE
  5
23F8
  8
3
 10
204.70063320887661
 20
165.8532716857101
 30
0.0
 11
204.6826048484279
 21
165.763129883467
 31
0.0
  0
LINE
  5
23F9
  8
3
 10
205.18289185087721
 20
165.10960181720449
 30
0.0
 11
205.14683512997991
 21
165.10960181720449
 31
0.0
  0
LINE
  5
23FA
  8
3
 10
205.01162242661519
 20
165.10960181720449
 30
0.0
 11
204.9800727958301
 21
165.10960181720449
 31
0.0
  0
LINE
  5
23FB
  8
3
 10
205.04317205740031
 20
165.10960181720449
 30
0.0
 11
205.01162242661519
 21
165.10960181720449
 31
0.0
  0
LINE
  5
23FC
  8
3
 10
205.07922877829751
 20
165.10960181720449
 30
0.0
 11
205.04317205740031
 21
165.10960181720449
 31
0.0
  0
LINE
  5
23FD
  8
3
 10
205.11528549919481
 20
165.10960181720449
 30
0.0
 11
205.07922877829751
 21
165.10960181720449
 31
0.0
  0
LINE
  5
23FE
  8
3
 10
205.14683512997991
 20
165.10960181720449
 30
0.0
 11
205.11528549919481
 21
165.10960181720449
 31
0.0
  0
LINE
  5
23FF
  8
3
 10
205.60205123130751
 20
165.17720816888689
 30
0.0
 11
205.60205123130751
 21
165.24932161068139
 31
0.0
  0
LINE
  5
2400
  8
3
 10
205.60205123130751
 20
165.24932161068139
 30
0.0
 11
205.60205123130751
 21
165.32143505247581
 31
0.0
  0
LINE
  5
2401
  8
3
 10
205.6065583214197
 20
165.39354849427031
 30
0.0
 11
205.6065583214197
 21
165.46566193606481
 31
0.0
  0
LINE
  5
2402
  8
3
 10
205.60205123130751
 20
165.32143505247581
 30
0.0
 11
205.6065583214197
 21
165.39354849427031
 31
0.0
  0
LINE
  5
2403
  8
3
 10
205.61557250164401
 20
165.75411570324269
 30
0.0
 11
205.6065583214197
 21
165.82622914503719
 31
0.0
  0
LINE
  5
2404
  8
3
 10
205.61557250164401
 20
165.6865093515604
 30
0.0
 11
205.61557250164401
 21
165.75411570324269
 31
0.0
  0
LINE
  5
2405
  8
3
 10
205.61557250164401
 20
165.6143959097659
 30
0.0
 11
205.61557250164401
 21
165.6865093515604
 31
0.0
  0
LINE
  5
2406
  8
3
 10
205.61106541153191
 20
165.5377753778593
 30
0.0
 11
205.61557250164401
 21
165.6143959097659
 31
0.0
  0
LINE
  5
2407
  8
3
 10
205.6065583214197
 20
165.46566193606481
 30
0.0
 11
205.61106541153191
 21
165.5377753778593
 31
0.0
  0
LINE
  5
2408
  8
3
 10
205.21444148166219
 20
165.10960181720449
 30
0.0
 11
205.18289185087721
 21
165.10960181720449
 31
0.0
  0
LINE
  5
2409
  8
3
 10
205.2504982025595
 20
165.10960181720449
 30
0.0
 11
205.21444148166219
 21
165.10960181720449
 31
0.0
  0
LINE
  5
240A
  8
3
 10
205.28204783334459
 20
165.10960181720449
 30
0.0
 11
205.2504982025595
 21
165.10960181720449
 31
0.0
  0
LINE
  5
240B
  8
3
 10
205.31810455424181
 20
165.11410890731671
 30
0.0
 11
205.28204783334459
 21
165.10960181720449
 31
0.0
  0
LINE
  5
240C
  8
3
 10
205.34965418502691
 20
165.11410890731671
 30
0.0
 11
205.31810455424181
 21
165.11410890731671
 31
0.0
  0
LINE
  5
240D
  8
3
 10
205.38120381581189
 20
165.11861599742889
 30
0.0
 11
205.34965418502691
 21
165.11410890731671
 31
0.0
  0
LINE
  5
240E
  8
3
 10
205.41275344659701
 20
165.1276301776532
 30
0.0
 11
205.38120381581189
 21
165.11861599742889
 31
0.0
  0
LINE
  5
240F
  8
3
 10
205.4443030773821
 20
165.1321372677653
 30
0.0
 11
205.41275344659701
 21
165.1276301776532
 31
0.0
  0
LINE
  5
2410
  8
3
 10
205.61106541153191
 20
165.10960181720449
 30
0.0
 11
205.60205123130751
 21
165.17720816888689
 31
0.0
  0
LINE
  5
2411
  8
3
 10
205.55247324007391
 20
166.02003401985991
 30
0.0
 11
205.4758527081672
 21
166.1282041825516
 31
0.0
  0
LINE
  5
2412
  8
3
 10
205.4488101674944
 20
166.12369709243939
 30
0.0
 11
205.4488101674944
 21
166.11919000232729
 31
0.0
  0
LINE
  5
2413
  8
3
 10
205.45331725760639
 20
166.12369709243939
 30
0.0
 11
205.4488101674944
 21
166.12369709243939
 31
0.0
  0
LINE
  5
2414
  8
3
 10
205.45331725760639
 20
166.1282041825516
 30
0.0
 11
205.45331725760639
 21
166.12369709243939
 31
0.0
  0
LINE
  5
2415
  8
3
 10
205.4578243477186
 20
166.1282041825516
 30
0.0
 11
205.45331725760639
 21
166.1282041825516
 31
0.0
  0
LINE
  5
2416
  8
3
 10
205.46233143783081
 20
166.1282041825516
 30
0.0
 11
205.4578243477186
 21
166.1282041825516
 31
0.0
  0
LINE
  5
2417
  8
3
 10
205.46683852794291
 20
166.1282041825516
 30
0.0
 11
205.46233143783081
 21
166.1282041825516
 31
0.0
  0
LINE
  5
2418
  8
3
 10
205.4713456180551
 20
166.1282041825516
 30
0.0
 11
205.46683852794291
 21
166.1282041825516
 31
0.0
  0
LINE
  5
2419
  8
3
 10
205.4758527081672
 20
166.1282041825516
 30
0.0
 11
205.4713456180551
 21
166.1282041825516
 31
0.0
  0
LINE
  5
241A
  8
3
 10
205.57951578074679
 20
165.9569347582898
 30
0.0
 11
205.55247324007391
 21
166.02003401985991
 31
0.0
  0
LINE
  5
241B
  8
3
 10
205.5975441411955
 20
165.89383549671959
 30
0.0
 11
205.57951578074679
 21
165.9569347582898
 31
0.0
  0
LINE
  5
241C
  8
3
 10
206.37276364048611
 20
166.08764037154219
 30
0.0
 11
206.37727073059821
 21
166.06510492098141
 31
0.0
  0
LINE
  5
241D
  8
3
 10
206.24205802723361
 20
166.4256721299538
 30
0.0
 11
206.2510722074579
 21
166.4121508596173
 31
0.0
  0
LINE
  5
241E
  8
3
 10
206.22853675689711
 20
166.45271467062679
 30
0.0
 11
206.23304384700921
 21
166.43919340029029
 31
0.0
  0
LINE
  5
241F
  8
3
 10
206.23304384700921
 20
166.43919340029029
 30
0.0
 11
206.24205802723361
 21
166.4256721299538
 31
0.0
  0
LINE
  5
2420
  8
3
 10
206.3682565503739
 20
166.11468291221519
 30
0.0
 11
206.37276364048611
 21
166.08764037154219
 31
0.0
  0
LINE
  5
2421
  8
3
 10
206.3637494602618
 20
166.13721836277591
 30
0.0
 11
206.3682565503739
 21
166.11468291221519
 31
0.0
  0
LINE
  5
2422
  8
3
 10
206.3592423701495
 20
166.15975381333669
 30
0.0
 11
206.3637494602618
 21
166.13721836277591
 31
0.0
  0
LINE
  5
2423
  8
3
 10
206.3547352800374
 20
166.1822892638975
 30
0.0
 11
206.3592423701495
 21
166.15975381333669
 31
0.0
  0
LINE
  5
2424
  8
3
 10
206.3502281899253
 20
166.2048247144582
 30
0.0
 11
206.3547352800374
 21
166.1822892638975
 31
0.0
  0
LINE
  5
2425
  8
3
 10
206.34572109981309
 20
166.22736016501901
 30
0.0
 11
206.3502281899253
 21
166.2048247144582
 31
0.0
  0
LINE
  5
2426
  8
3
 10
206.32769273936449
 20
166.254402705692
 30
0.0
 11
206.34572109981309
 21
166.22736016501901
 31
0.0
  0
LINE
  5
2427
  8
3
 10
206.31867855914021
 20
166.26792397602841
 30
0.0
 11
206.32769273936449
 21
166.254402705692
 31
0.0
  0
LINE
  5
2428
  8
3
 10
206.3096643789159
 20
166.28144524636491
 30
0.0
 11
206.31867855914021
 21
166.26792397602841
 31
0.0
  0
LINE
  5
2429
  8
3
 10
206.3051572888038
 20
166.29496651670141
 30
0.0
 11
206.3096643789159
 21
166.28144524636491
 31
0.0
  0
LINE
  5
242A
  8
3
 10
206.2961431085794
 20
166.30848778703779
 30
0.0
 11
206.3051572888038
 21
166.29496651670141
 31
0.0
  0
LINE
  5
242B
  8
3
 10
206.2916360184673
 20
166.3265161474865
 30
0.0
 11
206.2961431085794
 21
166.30848778703779
 31
0.0
  0
LINE
  5
242C
  8
3
 10
206.28712892835509
 20
166.34003741782291
 30
0.0
 11
206.2916360184673
 21
166.3265161474865
 31
0.0
  0
LINE
  5
242D
  8
3
 10
206.27360765801859
 20
166.36707995849591
 30
0.0
 11
206.2781147481308
 21
166.35355868815941
 31
0.0
  0
LINE
  5
242E
  8
3
 10
206.26459347779439
 20
166.38060122883229
 30
0.0
 11
206.27360765801859
 21
166.36707995849591
 31
0.0
  0
LINE
  5
242F
  8
3
 10
206.26008638768209
 20
166.39862958928089
 30
0.0
 11
206.26459347779439
 21
166.38060122883229
 31
0.0
  0
LINE
  5
2430
  8
3
 10
206.2510722074579
 20
166.4121508596173
 30
0.0
 11
206.26008638768209
 21
166.39862958928089
 31
0.0
  0
LINE
  5
2431
  8
3
 10
206.2781147481308
 20
166.35355868815941
 30
0.0
 11
206.28712892835509
 21
166.34003741782291
 31
0.0
  0
LINE
  5
2432
  8
3
 10
206.39980618115899
 20
165.8667929560466
 30
0.0
 11
206.39980618115899
 21
165.8667929560466
 31
0.0
  0
LINE
  5
2433
  8
3
 10
206.3952990910467
 20
165.93439930772891
 30
0.0
 11
206.3952990910467
 21
165.91186385716821
 31
0.0
  0
LINE
  5
2434
  8
3
 10
206.39079200093471
 20
165.9569347582898
 30
0.0
 11
206.3952990910467
 21
165.93439930772891
 31
0.0
  0
LINE
  5
2435
  8
3
 10
206.3862849108225
 20
165.9749631187384
 30
0.0
 11
206.39079200093471
 21
165.9569347582898
 31
0.0
  0
LINE
  5
2436
  8
3
 10
206.3862849108225
 20
165.9974985692991
 30
0.0
 11
206.3862849108225
 21
165.9749631187384
 31
0.0
  0
LINE
  5
2437
  8
3
 10
206.3817778207104
 20
166.02003401985991
 30
0.0
 11
206.3862849108225
 21
165.9974985692991
 31
0.0
  0
LINE
  5
2438
  8
3
 10
206.37727073059821
 20
166.04256947042069
 30
0.0
 11
206.3817778207104
 21
166.02003401985991
 31
0.0
  0
LINE
  5
2439
  8
3
 10
206.37727073059821
 20
166.06510492098141
 30
0.0
 11
206.37727073059821
 21
166.04256947042069
 31
0.0
  0
LINE
  5
243A
  8
3
 10
206.3952990910467
 20
165.91186385716821
 30
0.0
 11
206.39980618115899
 21
165.8667929560466
 31
0.0
  0
LINE
  5
243B
  8
3
 10
205.4488101674944
 20
166.11919000232729
 30
0.0
 11
205.4443030773821
 21
165.1321372677653
 31
0.0
  0
LINE
  5
243C
  8
3
 10
205.6065583214197
 20
165.82622914503719
 30
0.0
 11
205.5975441411955
 21
165.89383549671959
 31
0.0
  0
LINE
  5
243D
  8
3
 10
204.9800727958301
 20
165.10960181720449
 30
0.0
 11
204.91697353425999
 21
165.10058763698029
 31
0.0
  0
LINE
  5
243E
  8
3
 10
204.00203424149251
 20
165.07354509630741
 30
0.0
 11
203.98851297115601
 21
165.0870663666438
 31
0.0
  0
LINE
  5
243F
  8
3
 10
204.6826048484279
 20
165.14115144798961
 30
0.0
 11
204.68711193854011
 21
165.06903800619509
 31
0.0
  0
LINE
  5
2440
  8
3
 10
205.62458668186829
 20
165.04199546552229
 30
0.0
 11
205.61106541153191
 21
165.10960181720449
 31
0.0
  0
LINE
  5
2441
  8
3
 10
206.39980618115899
 20
165.8667929560466
 30
0.0
 11
206.40431327127121
 21
165.03298128529789
 31
0.0
  0
LINE
  5
2442
  8
3
 10
204.0290767821655
 20
162.0312592706027
 30
0.0
 11
203.9930200612682
 21
162.0447805409392
 31
0.0
  0
LINE
  5
2443
  8
3
 10
204.84486009246561
 20
162.01773800026621
 30
0.0
 11
204.8403530023534
 21
163.0498616359497
 31
0.0
  0
LINE
  5
2444
  8
3
 10
205.3902179960362
 20
163.0183120051646
 30
0.0
 11
205.3902179960362
 21
162.0267521804906
 31
0.0
  0
LINE
  5
2445
  8
3
 10
204.57443468573609
 20
162.071823081612
 30
0.0
 11
204.57443468573609
 21
161.9906954595933
 31
0.0
  0
LINE
  5
2446
  8
3
 10
205.58402287085889
 20
162.00872382004189
 30
0.0
 11
205.57951578074679
 21
162.08534435194849
 31
0.0
  0
LINE
  5
2447
  8
3
 10
206.34121400970099
 20
162.8154929501176
 30
0.0
 11
206.34121400970099
 21
161.95013164858389
 31
0.0
  0
LINE
  5
2448
  8
3
 10
204.29950218889479
 20
158.21826103571959
 30
0.0
 11
204.1778107558666
 21
158.2047397653831
 31
0.0
  0
LINE
  5
2449
  8
3
 10
204.1778107558666
 20
158.2047397653831
 30
0.0
 11
204.06062641295051
 21
158.17769722471019
 31
0.0
  0
LINE
  5
244A
  8
3
 10
204.6780977583158
 20
158.231782306056
 30
0.0
 11
204.55189923517551
 21
158.231782306056
 31
0.0
  0
LINE
  5
244B
  8
3
 10
204.55189923517551
 20
158.231782306056
 30
0.0
 11
204.42570071203511
 21
158.22727521594391
 31
0.0
  0
LINE
  5
244C
  8
3
 10
204.93500189470859
 20
158.231782306056
 30
0.0
 11
204.80429628145609
 21
158.231782306056
 31
0.0
  0
LINE
  5
244D
  8
3
 10
204.80429628145609
 20
158.231782306056
 30
0.0
 11
204.6780977583158
 21
158.231782306056
 31
0.0
  0
LINE
  5
244E
  8
3
 10
204.42570071203511
 20
158.22727521594391
 30
0.0
 11
204.29950218889479
 21
158.21826103571959
 31
0.0
  0
LINE
  5
244F
  8
3
 10
205.18289185087721
 20
158.24079648628029
 30
0.0
 11
205.06120041784899
 21
158.231782306056
 31
0.0
  0
LINE
  5
2450
  8
3
 10
205.42627471693359
 20
158.28586738740191
 30
0.0
 11
205.3090903740175
 21
158.258824846729
 31
0.0
  0
LINE
  5
2451
  8
3
 10
205.75979938523301
 20
158.4526297215516
 30
0.0
 11
205.6516292225412
 21
158.3805162797571
 31
0.0
  0
LINE
  5
2452
  8
3
 10
205.6516292225412
 20
158.3805162797571
 30
0.0
 11
205.54345905984951
 21
158.32643119841131
 31
0.0
  0
LINE
  5
2453
  8
3
 10
205.54345905984951
 20
158.32643119841131
 30
0.0
 11
205.42627471693359
 21
158.28586738740191
 31
0.0
  0
LINE
  5
2454
  8
3
 10
205.3090903740175
 20
158.258824846729
 30
0.0
 11
205.18289185087721
 21
158.24079648628029
 31
0.0
  0
LINE
  5
2455
  8
3
 10
205.9400829897192
 20
158.6013636952527
 30
0.0
 11
205.88149081826111
 21
158.54727861390691
 31
0.0
  0
LINE
  5
2456
  8
3
 10
205.9941680710651
 20
158.65995586671079
 30
0.0
 11
205.9400829897192
 21
158.6013636952527
 31
0.0
  0
LINE
  5
2457
  8
3
 10
206.04374606229879
 20
158.71854803816871
 30
0.0
 11
205.9941680710651
 21
158.65995586671079
 31
0.0
  0
LINE
  5
2458
  8
3
 10
205.88149081826111
 20
158.54727861390691
 30
0.0
 11
205.75979938523301
 21
158.4526297215516
 31
0.0
  0
CIRCLE
  5
2459
  8
3
 10
206.15559906513599
 20
158.24317272569289
 30
0.0
 40
0.180725893852164
  0
LINE
  5
245A
  8
3
 10
205.06120041784899
 20
158.231782306056
 30
0.0
 11
204.93500189470859
 21
158.231782306056
 31
0.0
  0
LINE
  5
245B
  8
3
 10
206.0888169634203
 20
158.78615438985111
 30
0.0
 11
206.04374606229879
 21
158.71854803816871
 31
0.0
  0
LINE
  5
245C
  8
3
 10
206.98615850944421
 20
164.11353490241831
 30
0.0
 11
206.7964301110286
 21
164.10902781230621
 31
0.0
  0
LINE
  5
245D
  8
3
 10
206.24205802723361
 20
164.9045292171015
 30
0.0
 11
207.13939957325741
 21
164.9191120224335
 31
0.0
  0
LINE
  5
245E
  8
3
 10
207.13939957325741
 20
164.11353490241831
 30
0.0
 11
206.98615850944421
 21
164.11353490241831
 31
0.0
  0
LINE
  5
245F
  8
3
 10
207.13939957325741
 20
164.11353490241831
 30
0.0
 11
207.13939957325741
 21
164.9191120224335
 31
0.0
  0
LINE
  5
2460
  8
3
 10
206.1744516755513
 20
158.92587418332789
 30
0.0
 11
206.1338878645418
 21
158.85376074153339
 31
0.0
  0
LINE
  5
2461
  8
3
 10
206.1338878645418
 20
158.85376074153339
 30
0.0
 11
206.0888169634203
 21
158.78615438985111
 31
0.0
  0
LINE
  5
2462
  8
3
 10
203.95245625025879
 20
159.10165069770201
 30
0.0
 11
203.94794916014669
 21
159.1151719680384
 31
0.0
  0
LINE
  5
2463
  8
3
 10
203.89837116891289
 20
159.20982086039359
 30
0.0
 11
203.8893569886886
 21
159.22334213073009
 31
0.0
  0
LINE
  5
2464
  8
3
 10
203.90287825902499
 20
159.20080668016931
 30
0.0
 11
203.89837116891289
 21
159.20982086039359
 31
0.0
  0
LINE
  5
2465
  8
3
 10
203.9073853491372
 20
159.191792499945
 30
0.0
 11
203.90287825902499
 21
159.20080668016931
 31
0.0
  0
LINE
  5
2466
  8
3
 10
203.91189243924941
 20
159.18277831972071
 30
0.0
 11
203.9073853491372
 21
159.191792499945
 31
0.0
  0
LINE
  5
2467
  8
3
 10
203.9163995293616
 20
159.1737641394964
 30
0.0
 11
203.91189243924941
 21
159.18277831972071
 31
0.0
  0
LINE
  5
2468
  8
3
 10
203.9209066194737
 20
159.16474995927209
 30
0.0
 11
203.9163995293616
 21
159.1737641394964
 31
0.0
  0
LINE
  5
2469
  8
3
 10
203.92541370958591
 20
159.15122868893559
 30
0.0
 11
203.9209066194737
 21
159.16474995927209
 31
0.0
  0
LINE
  5
246A
  8
3
 10
203.9299207996981
 20
159.14221450871131
 30
0.0
 11
203.92541370958591
 21
159.15122868893559
 31
0.0
  0
LINE
  5
246B
  8
3
 10
203.93442788981019
 20
159.13320032848711
 30
0.0
 11
203.9299207996981
 21
159.14221450871131
 31
0.0
  0
LINE
  5
246C
  8
3
 10
203.93893497992229
 20
159.12418614826271
 30
0.0
 11
203.93442788981019
 21
159.13320032848711
 31
0.0
  0
LINE
  5
246D
  8
3
 10
203.94794916014669
 20
159.1151719680384
 30
0.0
 11
203.93893497992229
 21
159.12418614826271
 31
0.0
  0
LINE
  5
246E
  8
3
 10
203.95696334037089
 20
159.09263651747759
 30
0.0
 11
203.95245625025879
 21
159.10165069770201
 31
0.0
  0
LINE
  5
246F
  8
3
 10
203.9614704304831
 20
159.0836223372533
 30
0.0
 11
203.95696334037089
 21
159.09263651747759
 31
0.0
  0
LINE
  5
2470
  8
3
 10
203.97048461070739
 20
159.07460815702899
 30
0.0
 11
203.9614704304831
 21
159.0836223372533
 31
0.0
  0
LINE
  5
2471
  8
3
 10
203.96597752059529
 20
159.07010106691689
 30
0.0
 11
203.97048461070739
 21
159.07460815702899
 31
0.0
  0
LINE
  5
2472
  8
3
 10
203.96597752059529
 20
159.06559397680471
 30
0.0
 11
203.96597752059529
 21
159.07010106691689
 31
0.0
  0
LINE
  5
2473
  8
3
 10
203.96597752059529
 20
159.06108688669249
 30
0.0
 11
203.96597752059529
 21
159.06559397680471
 31
0.0
  0
LINE
  5
2474
  8
3
 10
203.96597752059529
 20
159.05657979658039
 30
0.0
 11
203.96597752059529
 21
159.06108688669249
 31
0.0
  0
LINE
  5
2475
  8
3
 10
203.96597752059529
 20
159.05207270646821
 30
0.0
 11
203.96597752059529
 21
159.05657979658039
 31
0.0
  0
LINE
  5
2476
  8
3
 10
203.96597752059529
 20
159.04756561635611
 30
0.0
 11
203.96597752059529
 21
159.05207270646821
 31
0.0
  0
LINE
  5
2477
  8
3
 10
203.96597752059529
 20
159.0430585262439
 30
0.0
 11
203.96597752059529
 21
159.04756561635611
 31
0.0
  0
LINE
  5
2478
  8
3
 10
203.96597752059529
 20
159.0385514361318
 30
0.0
 11
203.96597752059529
 21
159.0430585262439
 31
0.0
  0
LINE
  5
2479
  8
3
 10
203.96597752059529
 20
159.03404434601961
 30
0.0
 11
203.96597752059529
 21
159.0385514361318
 31
0.0
  0
LINE
  5
247A
  8
3
 10
203.9614704304831
 20
159.02953725590751
 30
0.0
 11
203.96597752059529
 21
159.03404434601961
 31
0.0
  0
LINE
  5
247B
  8
3
 10
203.9614704304831
 20
159.0250301657953
 30
0.0
 11
203.9614704304831
 21
159.02953725590751
 31
0.0
  0
LINE
  5
247C
  8
3
 10
203.95696334037089
 20
159.0250301657953
 30
0.0
 11
203.9614704304831
 21
159.0250301657953
 31
0.0
  0
LINE
  5
247D
  8
3
 10
203.95696334037089
 20
159.02052307568309
 30
0.0
 11
203.95696334037089
 21
159.0250301657953
 31
0.0
  0
LINE
  5
247E
  8
3
 10
203.95696334037089
 20
159.01601598557099
 30
0.0
 11
203.95696334037089
 21
159.02052307568309
 31
0.0
  0
LINE
  5
247F
  8
3
 10
203.93442788981019
 20
159.0115088954588
 30
0.0
 11
203.95696334037089
 21
159.01601598557099
 31
0.0
  0
LINE
  5
2480
  8
3
 10
203.92541370958591
 20
159.0070018053467
 30
0.0
 11
203.93442788981019
 21
159.0115088954588
 31
0.0
  0
LINE
  5
2481
  8
3
 10
203.9163995293616
 20
159.00249471523449
 30
0.0
 11
203.92541370958591
 21
159.0070018053467
 31
0.0
  0
LINE
  5
2482
  8
3
 10
203.9073853491372
 20
159.00249471523449
 30
0.0
 11
203.9163995293616
 21
159.00249471523449
 31
0.0
  0
LINE
  5
2483
  8
3
 10
203.89837116891289
 20
158.99798762512239
 30
0.0
 11
203.9073853491372
 21
159.00249471523449
 31
0.0
  0
LINE
  5
2484
  8
3
 10
203.89386407880079
 20
158.99348053501021
 30
0.0
 11
203.89837116891289
 21
158.99798762512239
 31
0.0
  0
LINE
  5
2485
  8
3
 10
203.8848498985765
 20
158.98897344489811
 30
0.0
 11
203.89386407880079
 21
158.99348053501021
 31
0.0
  0
LINE
  5
2486
  8
3
 10
204.01555551182889
 20
160.25546576641361
 30
0.0
 11
204.0516122327262
 21
160.29602957742301
 31
0.0
  0
LINE
  5
2487
  8
3
 10
203.90287825902499
 20
160.0661679817031
 30
0.0
 11
203.9073853491372
 21
160.07067507181529
 31
0.0
  0
LINE
  5
2488
  8
3
 10
203.9209066194737
 20
160.0977176124882
 30
0.0
 11
203.9209066194737
 21
160.10222470260041
 31
0.0
  0
LINE
  5
2489
  8
3
 10
203.9209066194737
 20
160.10222470260041
 30
0.0
 11
203.92541370958591
 21
160.11123888282469
 31
0.0
  0
LINE
  5
248A
  8
3
 10
203.9209066194737
 20
160.09321052237601
 30
0.0
 11
203.9209066194737
 21
160.0977176124882
 31
0.0
  0
LINE
  5
248B
  8
3
 10
203.9163995293616
 20
160.09321052237601
 30
0.0
 11
203.9209066194737
 21
160.09321052237601
 31
0.0
  0
LINE
  5
248C
  8
3
 10
203.9163995293616
 20
160.08870343226391
 30
0.0
 11
203.9163995293616
 21
160.09321052237601
 31
0.0
  0
LINE
  5
248D
  8
3
 10
203.9163995293616
 20
160.0841963421517
 30
0.0
 11
203.9163995293616
 21
160.08870343226391
 31
0.0
  0
LINE
  5
248E
  8
3
 10
203.91189243924941
 20
160.0796892520396
 30
0.0
 11
203.9163995293616
 21
160.0841963421517
 31
0.0
  0
LINE
  5
248F
  8
3
 10
203.91189243924941
 20
160.07518216192739
 30
0.0
 11
203.91189243924941
 21
160.0796892520396
 31
0.0
  0
LINE
  5
2490
  8
3
 10
203.9073853491372
 20
160.07067507181529
 30
0.0
 11
203.91189243924941
 21
160.07518216192739
 31
0.0
  0
LINE
  5
2491
  8
3
 10
203.90287825902499
 20
160.06166089159089
 30
0.0
 11
203.90287825902499
 21
160.0661679817031
 31
0.0
  0
LINE
  5
2492
  8
3
 10
203.89837116891289
 20
160.05715380147879
 30
0.0
 11
203.90287825902499
 21
160.06166089159089
 31
0.0
  0
LINE
  5
2493
  8
3
 10
203.89837116891289
 20
160.05264671136669
 30
0.0
 11
203.89837116891289
 21
160.05715380147879
 31
0.0
  0
LINE
  5
2494
  8
3
 10
203.89386407880079
 20
160.04813962125451
 30
0.0
 11
203.89837116891289
 21
160.05264671136669
 31
0.0
  0
LINE
  5
2495
  8
3
 10
203.89386407880079
 20
160.03912544103019
 30
0.0
 11
203.89386407880079
 21
160.04813962125451
 31
0.0
  0
LINE
  5
2496
  8
3
 10
203.95245625025879
 20
160.16081687405841
 30
0.0
 11
203.98400588104391
 21
160.21039486529199
 31
0.0
  0
LINE
  5
2497
  8
3
 10
203.98400588104391
 20
160.21039486529199
 30
0.0
 11
204.01555551182889
 21
160.25546576641361
 31
0.0
  0
LINE
  5
2498
  8
3
 10
203.92541370958591
 20
160.11123888282469
 30
0.0
 11
203.95245625025879
 21
160.16081687405841
 31
0.0
  0
LINE
  5
2499
  8
3
 10
204.1778107558666
 20
160.40419974011479
 30
0.0
 11
204.22738874710029
 21
160.4357493708998
 31
0.0
  0
LINE
  5
249A
  8
3
 10
204.09217604373569
 20
160.33659338843239
 30
0.0
 11
204.1327398547449
 21
160.3726501093297
 31
0.0
  0
LINE
  5
249B
  8
3
 10
204.1327398547449
 20
160.3726501093297
 30
0.0
 11
204.1778107558666
 21
160.40419974011479
 31
0.0
  0
LINE
  5
249C
  8
3
 10
204.2724596482218
 20
160.46729900168489
 30
0.0
 11
204.3265447295677
 21
160.4943415423578
 31
0.0
  0
LINE
  5
249D
  8
3
 10
204.22738874710029
 20
160.4357493708998
 30
0.0
 11
204.2724596482218
 21
160.46729900168489
 31
0.0
  0
LINE
  5
249E
  8
3
 10
204.0516122327262
 20
160.29602957742301
 30
0.0
 11
204.09217604373569
 21
160.33659338843239
 31
0.0
  0
POLYLINE
  5
249F
  8
3
 66
     1
 10
0.0
 20
0.0
 30
0.0
 70
     1
  0
VERTEX
  5
2C3A
  8
3
 10
204.81781755179259
 20
159.7867283947495
 30
0.0
  0
VERTEX
  5
2C3B
  8
3
 10
204.81781755179259
 20
159.1557357790478
 30
0.0
  0
VERTEX
  5
2C3C
  8
3
 10
204.8088033715683
 20
159.15122868893559
 30
0.0
  0
VERTEX
  5
2C3D
  8
3
 10
204.79978919134399
 20
159.14672159882349
 30
0.0
  0
VERTEX
  5
2C3E
  8
3
 10
204.79528210123181
 20
159.14672159882349
 30
0.0
  0
VERTEX
  5
2C3F
  8
3
 10
204.78626792100749
 20
159.14672159882349
 30
0.0
  0
VERTEX
  5
2C40
  8
3
 10
204.78176083089531
 20
159.15122868893559
 30
0.0
  0
VERTEX
  5
2C41
  8
3
 10
204.77274665067111
 20
159.1557357790478
 30
0.0
  0
VERTEX
  5
2C42
  8
3
 10
204.76373247044671
 20
159.1602428691599
 30
0.0
  0
VERTEX
  5
2C43
  8
3
 10
204.7547182902224
 20
159.16925704938421
 30
0.0
  0
VERTEX
  5
2C44
  8
3
 10
204.75021120011019
 20
159.17827122960861
 30
0.0
  0
VERTEX
  5
2C45
  8
3
 10
204.7411970198859
 20
159.1872854098329
 30
0.0
  0
VERTEX
  5
2C46
  8
3
 10
204.73218283966159
 20
159.19629959005721
 30
0.0
  0
VERTEX
  5
2C47
  8
3
 10
204.72316865943731
 20
159.20531377028149
 30
0.0
  0
VERTEX
  5
2C48
  8
3
 10
204.71866156932521
 20
159.2143279505058
 30
0.0
  0
VERTEX
  5
2C49
  8
3
 10
204.70964738910089
 20
159.22334213073009
 30
0.0
  0
VERTEX
  5
2C4A
  8
3
 10
204.69612611876451
 20
159.2368634010665
 30
0.0
  0
VERTEX
  5
2C4B
  8
3
 10
204.6780977583158
 20
159.26390594173949
 30
0.0
  0
VERTEX
  5
2C4C
  8
3
 10
204.6600693978672
 20
159.29545557252459
 30
0.0
  0
VERTEX
  5
2C4D
  8
3
 10
204.64654812753071
 20
159.3224981131975
 30
0.0
  0
VERTEX
  5
2C4E
  8
3
 10
204.63753394730631
 20
159.34954065387041
 30
0.0
  0
VERTEX
  5
2C4F
  8
3
 10
204.62851976708211
 20
159.3810902846555
 30
0.0
  0
VERTEX
  5
2C50
  8
3
 10
204.6195055868578
 20
159.40813282532849
 30
0.0
  0
VERTEX
  5
2C51
  8
3
 10
204.6104914066334
 20
159.43968245611359
 30
0.0
  0
VERTEX
  5
2C52
  8
3
 10
204.6059843165213
 20
159.47123208689871
 30
0.0
  0
VERTEX
  5
2C53
  8
3
 10
204.60147722640909
 20
159.50278171768369
 30
0.0
  0
VERTEX
  5
2C54
  8
3
 10
204.60147722640909
 20
159.53433134846881
 30
0.0
  0
VERTEX
  5
2C55
  8
3
 10
204.60147722640909
 20
159.5658809792539
 30
0.0
  0
VERTEX
  5
2C56
  8
3
 10
204.60147722640909
 20
159.597430610039
 30
0.0
  0
VERTEX
  5
2C57
  8
3
 10
204.6059843165213
 20
159.62447315071191
 30
0.0
  0
VERTEX
  5
2C58
  8
3
 10
204.6104914066334
 20
159.656022781497
 30
0.0
  0
VERTEX
  5
2C59
  8
3
 10
204.6240126769699
 20
159.714614952955
 30
0.0
  0
VERTEX
  5
2C5A
  8
3
 10
204.62851976708211
 20
159.72813622329139
 30
0.0
  0
VERTEX
  5
2C5B
  8
3
 10
204.63302685719421
 20
159.73715040351581
 30
0.0
  0
VERTEX
  5
2C5C
  8
3
 10
204.63753394730631
 20
159.7506716738522
 30
0.0
  0
VERTEX
  5
2C5D
  8
3
 10
204.64654812753071
 20
159.75968585407651
 30
0.0
  0
VERTEX
  5
2C5E
  8
3
 10
204.65105521764281
 20
159.76870003430079
 30
0.0
  0
VERTEX
  5
2C5F
  8
3
 10
204.6600693978672
 20
159.77771421452519
 30
0.0
  0
VERTEX
  5
2C60
  8
3
 10
204.66908357809149
 20
159.7867283947495
 30
0.0
  0
VERTEX
  5
2C61
  8
3
 10
204.6780977583158
 20
159.7912354848616
 30
0.0
  0
VERTEX
  5
2C62
  8
3
 10
204.68711193854011
 20
159.80024966508589
 30
0.0
  0
VERTEX
  5
2C63
  8
3
 10
204.69612611876451
 20
159.8047567551981
 30
0.0
  0
VERTEX
  5
2C64
  8
3
 10
204.70514029898871
 20
159.80926384531031
 30
0.0
  0
VERTEX
  5
2C65
  8
3
 10
204.71415447921299
 20
159.81377093542241
 30
0.0
  0
VERTEX
  5
2C66
  8
3
 10
204.72316865943731
 20
159.8182780255346
 30
0.0
  0
VERTEX
  5
2C67
  8
3
 10
204.73668992977369
 20
159.8227851156467
 30
0.0
  0
VERTEX
  5
2C68
  8
3
 10
204.75922538033461
 20
159.82729220575891
 30
0.0
  0
VERTEX
  5
2C69
  8
3
 10
204.8133104616804
 20
159.79574257497379
 30
0.0
  0
VERTEX
  5
2C6A
  8
3
 10
204.8133104616804
 20
159.7912354848616
 30
0.0
  0
VERTEX
  5
2C6B
  8
3
 10
204.81781755179259
 20
159.7867283947495
 30
0.0
  0
SEQEND
  5
2C6C
  8
3
  0
LINE
  5
24D3
  8
3
 10
205.43979598726989
 20
159.2593988516274
 30
0.0
 11
205.4758527081672
 21
159.32700520330971
 31
0.0
  0
LINE
  5
24D4
  8
3
 10
205.3992321762606
 20
159.1872854098329
 30
0.0
 11
205.43979598726989
 21
159.2593988516274
 31
0.0
  0
LINE
  5
24D5
  8
3
 10
205.3902179960362
 20
159.191792499945
 30
0.0
 11
205.3992321762606
 21
159.1872854098329
 31
0.0
  0
LINE
  5
24D6
  8
3
 10
205.3857109059241
 20
159.191792499945
 30
0.0
 11
205.3902179960362
 21
159.191792499945
 31
0.0
  0
LINE
  5
24D7
  8
3
 10
205.38120381581189
 20
159.191792499945
 30
0.0
 11
205.3857109059241
 21
159.191792499945
 31
0.0
  0
LINE
  5
24D8
  8
3
 10
205.37669672569979
 20
159.191792499945
 30
0.0
 11
205.38120381581189
 21
159.191792499945
 31
0.0
  0
LINE
  5
24D9
  8
3
 10
205.37218963558769
 20
159.191792499945
 30
0.0
 11
205.37669672569979
 21
159.191792499945
 31
0.0
  0
LINE
  5
24DA
  8
3
 10
205.36768254547539
 20
159.191792499945
 30
0.0
 11
205.37218963558769
 21
159.191792499945
 31
0.0
  0
LINE
  5
24DB
  8
3
 10
205.5028952488401
 20
159.40362573521631
 30
0.0
 11
205.5209236092887
 21
159.48024626712299
 31
0.0
  0
LINE
  5
24DC
  8
3
 10
205.4758527081672
 20
159.32700520330971
 30
0.0
 11
205.5028952488401
 21
159.40362573521631
 31
0.0
  0
LINE
  5
24DD
  8
3
 10
205.5299377895131
 20
159.56137388914169
 30
0.0
 11
205.5344448796252
 21
159.6425015111605
 31
0.0
  0
LINE
  5
24DE
  8
3
 10
205.5344448796252
 20
159.6425015111605
 30
0.0
 11
205.5344448796252
 21
159.72813622329139
 31
0.0
  0
LINE
  5
24DF
  8
3
 10
205.5209236092887
 20
159.48024626712299
 30
0.0
 11
205.5299377895131
 21
159.56137388914169
 31
0.0
  0
LINE
  5
24E0
  8
3
 10
206.26459347779439
 20
159.1602428691599
 30
0.0
 11
206.2375509371214
 21
159.07911524714109
 31
0.0
  0
LINE
  5
24E1
  8
3
 10
206.28712892835509
 20
159.24137049117871
 30
0.0
 11
206.26459347779439
 21
159.1602428691599
 31
0.0
  0
LINE
  5
24E2
  8
3
 10
206.3051572888038
 20
159.32700520330971
 30
0.0
 11
206.28712892835509
 21
159.24137049117871
 31
0.0
  0
LINE
  5
24E3
  8
3
 10
206.32769273936449
 20
159.50278171768369
 30
0.0
 11
206.31867855914021
 21
159.41263991544059
 31
0.0
  0
LINE
  5
24E4
  8
3
 10
206.31867855914021
 20
159.41263991544059
 30
0.0
 11
206.3051572888038
 21
159.32700520330971
 31
0.0
  0
LINE
  5
24E5
  8
3
 10
206.32318564925231
 20
159.66503696172131
 30
0.0
 11
206.33219982947659
 21
159.58841642981471
 31
0.0
  0
LINE
  5
24E6
  8
3
 10
206.31867855914021
 20
159.70109368261851
 30
0.0
 11
206.32318564925231
 21
159.66503696172131
 31
0.0
  0
LINE
  5
24E7
  8
3
 10
206.31867855914021
 20
159.741657493628
 30
0.0
 11
206.31867855914021
 21
159.70109368261851
 31
0.0
  0
LINE
  5
24E8
  8
3
 10
206.33219982947659
 20
159.58841642981471
 30
0.0
 11
206.32769273936449
 21
159.50278171768369
 31
0.0
  0
LINE
  5
24E9
  8
3
 10
206.2375509371214
 20
159.07911524714109
 30
0.0
 11
206.2060013063363
 21
159.00249471523449
 31
0.0
  0
LINE
  5
24EA
  8
3
 10
205.5299377895131
 20
159.89940564755341
 30
0.0
 11
205.52543069940091
 21
159.98504035968429
 31
0.0
  0
LINE
  5
24EB
  8
3
 10
205.5164165191766
 20
160.24194449607711
 30
0.0
 11
205.5164165191766
 21
160.32757920820811
 31
0.0
  0
LINE
  5
24EC
  8
3
 10
205.72824975444789
 20
160.4537777313484
 30
0.0
 11
205.76881356545729
 21
160.44476355112411
 31
0.0
  0
LINE
  5
24ED
  8
3
 10
205.5164165191766
 20
160.32757920820811
 30
0.0
 11
205.5389519697373
 21
160.4898344522457
 31
0.0
  0
LINE
  5
24EE
  8
3
 10
205.34965418502691
 20
160.35462174888099
 30
0.0
 11
205.35416127513901
 21
160.35011465876889
 31
0.0
  0
LINE
  5
24EF
  8
3
 10
205.34965418502691
 20
160.3591288389932
 30
0.0
 11
205.34965418502691
 21
160.35462174888099
 31
0.0
  0
LINE
  5
24F0
  8
3
 10
205.34965418502691
 20
160.36363592910541
 30
0.0
 11
205.34965418502691
 21
160.3591288389932
 31
0.0
  0
LINE
  5
24F1
  8
3
 10
205.34514709491481
 20
160.36814301921751
 30
0.0
 11
205.34965418502691
 21
160.36363592910541
 31
0.0
  0
LINE
  5
24F2
  8
3
 10
205.34514709491481
 20
160.3726501093297
 30
0.0
 11
205.34514709491481
 21
160.36814301921751
 31
0.0
  0
LINE
  5
24F3
  8
3
 10
205.34514709491481
 20
160.3771571994418
 30
0.0
 11
205.34514709491481
 21
160.3726501093297
 31
0.0
  0
LINE
  5
24F4
  8
3
 10
205.34064000480259
 20
160.3771571994418
 30
0.0
 11
205.34514709491481
 21
160.3771571994418
 31
0.0
  0
LINE
  5
24F5
  8
3
 10
205.34064000480259
 20
160.38166428955401
 30
0.0
 11
205.34064000480259
 21
160.3771571994418
 31
0.0
  0
LINE
  5
24F6
  8
3
 10
205.27303365312031
 20
160.4357493708998
 30
0.0
 11
205.34064000480259
 21
160.38166428955401
 31
0.0
  0
LINE
  5
24F7
  8
3
 10
205.236976932223
 20
160.45828482146061
 30
0.0
 11
205.27303365312031
 21
160.4357493708998
 31
0.0
  0
LINE
  5
24F8
  8
3
 10
205.20092021132581
 20
160.47631318190921
 30
0.0
 11
205.236976932223
 21
160.45828482146061
 31
0.0
  0
LINE
  5
24F9
  8
3
 10
205.16035640031629
 20
160.49884863246999
 30
0.0
 11
205.20092021132581
 21
160.47631318190921
 31
0.0
  0
LINE
  5
24FA
  8
3
 10
205.69219303355069
 20
160.46279191157279
 30
0.0
 11
205.72824975444789
 21
160.4537777313484
 31
0.0
  0
LINE
  5
24FB
  8
3
 10
205.6516292225412
 20
160.47180609179711
 30
0.0
 11
205.69219303355069
 21
160.46279191157279
 31
0.0
  0
LINE
  5
24FC
  8
3
 10
205.61557250164401
 20
160.48532736213349
 30
0.0
 11
205.6516292225412
 21
160.47180609179711
 31
0.0
  0
LINE
  5
24FD
  8
3
 10
205.57951578074679
 20
160.50335572258211
 30
0.0
 11
205.61557250164401
 21
160.48532736213349
 31
0.0
  0
LINE
  5
24FE
  8
3
 10
205.76881356545729
 20
160.44476355112411
 30
0.0
 11
205.80487028635449
 21
160.44025646101201
 31
0.0
  0
LINE
  5
24FF
  8
3
 10
205.52543069940091
 20
159.98504035968429
 30
0.0
 11
205.5209236092887
 21
160.07067507181529
 31
0.0
  0
LINE
  5
2500
  8
3
 10
205.5164165191766
 20
160.1563097839462
 30
0.0
 11
205.5164165191766
 21
160.24194449607711
 31
0.0
  0
LINE
  5
2501
  8
3
 10
205.5209236092887
 20
160.07067507181529
 30
0.0
 11
205.5164165191766
 21
160.1563097839462
 31
0.0
  0
LINE
  5
2502
  8
3
 10
205.5344448796252
 20
159.81377093542241
 30
0.0
 11
205.5299377895131
 21
159.89940564755341
 31
0.0
  0
LINE
  5
2503
  8
3
 10
205.8859979083733
 20
160.43124228078759
 30
0.0
 11
205.9220546292706
 21
160.4222281005633
 31
0.0
  0
LINE
  5
2504
  8
3
 10
205.84543409736389
 20
160.4357493708998
 30
0.0
 11
205.8859979083733
 21
160.43124228078759
 31
0.0
  0
LINE
  5
2505
  8
3
 10
206.314171469028
 20
160.00306872013289
 30
0.0
 11
206.31867855914021
 21
159.96701199923569
 31
0.0
  0
LINE
  5
2506
  8
3
 10
206.1474091348783
 20
160.3591288389932
 30
0.0
 11
206.3006501986917
 21
160.18785941473129
 31
0.0
  0
LINE
  5
2507
  8
3
 10
206.0752956930838
 20
160.39067846977829
 30
0.0
 11
206.1474091348783
 21
160.3591288389932
 31
0.0
  0
LINE
  5
2508
  8
3
 10
206.03923897218661
 20
160.40419974011479
 30
0.0
 11
206.0752956930838
 21
160.39067846977829
 31
0.0
  0
LINE
  5
2509
  8
3
 10
205.9986751611772
 20
160.4132139203391
 30
0.0
 11
206.03923897218661
 21
160.40419974011479
 31
0.0
  0
LINE
  5
250A
  8
3
 10
205.96261844028001
 20
160.4177210104512
 30
0.0
 11
205.9986751611772
 21
160.4132139203391
 31
0.0
  0
LINE
  5
250B
  8
3
 10
205.9220546292706
 20
160.4222281005633
 30
0.0
 11
205.96261844028001
 21
160.4177210104512
 31
0.0
  0
LINE
  5
250C
  8
3
 10
206.314171469028
 20
160.0796892520396
 30
0.0
 11
206.314171469028
 21
160.04363253114229
 31
0.0
  0
LINE
  5
250D
  8
3
 10
206.3096643789159
 20
160.11574597293679
 30
0.0
 11
206.314171469028
 21
160.0796892520396
 31
0.0
  0
LINE
  5
250E
  8
3
 10
206.314171469028
 20
160.04363253114229
 30
0.0
 11
206.314171469028
 21
160.00306872013289
 31
0.0
  0
LINE
  5
250F
  8
3
 10
206.3006501986917
 20
160.18785941473129
 30
0.0
 11
206.3051572888038
 21
160.15180269383399
 31
0.0
  0
LINE
  5
2510
  8
3
 10
206.3051572888038
 20
160.15180269383399
 30
0.0
 11
206.3096643789159
 21
160.11574597293679
 31
0.0
  0
LINE
  5
2511
  8
3
 10
206.31867855914021
 20
159.8903914673291
 30
0.0
 11
206.31867855914021
 21
159.85433474643179
 31
0.0
  0
LINE
  5
2512
  8
3
 10
206.31867855914021
 20
159.8182780255346
 30
0.0
 11
206.31867855914021
 21
159.77771421452519
 31
0.0
  0
LINE
  5
2513
  8
3
 10
206.31867855914021
 20
159.85433474643179
 30
0.0
 11
206.31867855914021
 21
159.8182780255346
 31
0.0
  0
LINE
  5
2514
  8
3
 10
206.31867855914021
 20
159.9309552783385
 30
0.0
 11
206.31867855914021
 21
159.8903914673291
 31
0.0
  0
LINE
  5
2515
  8
3
 10
206.31867855914021
 20
159.96701199923569
 30
0.0
 11
206.31867855914021
 21
159.9309552783385
 31
0.0
  0
LINE
  5
2516
  8
3
 10
205.80487028635449
 20
160.44025646101201
 30
0.0
 11
205.84543409736389
 21
160.4357493708998
 31
0.0
  0
LINE
  5
2517
  8
3
 10
205.35416127513901
 20
160.35011465876889
 30
0.0
 11
205.36768254547539
 21
159.191792499945
 31
0.0
  0
LINE
  5
2518
  8
3
 10
205.5344448796252
 20
159.72813622329139
 30
0.0
 11
205.5344448796252
 21
159.81377093542241
 31
0.0
  0
LINE
  5
2519
  8
3
 10
206.31867855914021
 20
159.77771421452519
 30
0.0
 11
206.31867855914021
 21
159.741657493628
 31
0.0
  0
LINE
  5
251A
  8
3
 10
203.93442788981019
 20
161.1929405097419
 30
0.0
 11
203.9163995293616
 21
161.23350432075131
 31
0.0
  0
LINE
  5
251B
  8
3
 10
203.95696334037089
 20
161.1568837888446
 30
0.0
 11
203.93442788981019
 21
161.1929405097419
 31
0.0
  0
LINE
  5
251C
  8
3
 10
203.9749917008196
 20
161.11631997783519
 30
0.0
 11
203.95696334037089
 21
161.1568837888446
 31
0.0
  0
LINE
  5
251D
  8
3
 10
204.00203424149251
 20
161.080263256938
 30
0.0
 11
203.9749917008196
 21
161.11631997783519
 31
0.0
  0
LINE
  5
251E
  8
3
 10
204.02456969205329
 20
161.04420653604069
 30
0.0
 11
204.00203424149251
 21
161.080263256938
 31
0.0
  0
LINE
  5
251F
  8
3
 10
204.05611932283841
 20
161.01265690525571
 30
0.0
 11
204.02456969205329
 21
161.04420653604069
 31
0.0
  0
LINE
  5
2520
  8
3
 10
204.08316186351121
 20
160.9811072744705
 30
0.0
 11
204.05611932283841
 21
161.01265690525571
 31
0.0
  0
LINE
  5
2521
  8
3
 10
204.2544312877732
 20
160.84138748099369
 30
0.0
 11
204.21837456687601
 21
160.86392293155461
 31
0.0
  0
LINE
  5
2522
  8
3
 10
204.21837456687601
 20
160.86392293155461
 30
0.0
 11
204.18231784597879
 21
160.89096547222749
 31
0.0
  0
LINE
  5
2523
  8
3
 10
204.18231784597879
 20
160.89096547222749
 30
0.0
 11
204.14626112508151
 21
160.9180080129004
 31
0.0
  0
LINE
  5
2524
  8
3
 10
204.14626112508151
 20
160.9180080129004
 30
0.0
 11
204.11471149429639
 21
160.94955764368549
 31
0.0
  0
LINE
  5
2525
  8
3
 10
204.3806298109136
 20
160.51687699291861
 30
0.0
 11
204.43471489225939
 21
160.53941244347939
 31
0.0
  0
LINE
  5
2526
  8
3
 10
204.43471489225939
 20
160.75575276886281
 30
0.0
 11
204.33555890979201
 21
160.7963165798723
 31
0.0
  0
LINE
  5
2527
  8
3
 10
204.29499509878261
 20
160.81885203043299
 30
0.0
 11
204.2544312877732
 21
160.84138748099369
 31
0.0
  0
LINE
  5
2528
  8
3
 10
204.33555890979201
 20
160.7963165798723
 30
0.0
 11
204.29499509878261
 21
160.81885203043299
 31
0.0
  0
LINE
  5
2529
  8
3
 10
204.65556230775499
 20
160.7151889578534
 30
0.0
 11
204.59697013629699
 21
160.7242031380778
 31
0.0
  0
LINE
  5
252A
  8
3
 10
204.55189923517551
 20
160.57096207426449
 30
0.0
 11
204.6780977583158
 21
160.59349752482521
 31
0.0
  0
LINE
  5
252B
  8
3
 10
204.43471489225939
 20
160.53941244347939
 30
0.0
 11
204.4933070637174
 21
160.55744080392799
 31
0.0
  0
LINE
  5
252C
  8
3
 10
204.48879997360521
 20
160.74223149852639
 30
0.0
 11
204.43471489225939
 21
160.75575276886281
 31
0.0
  0
LINE
  5
252D
  8
3
 10
204.4933070637174
 20
160.55744080392799
 30
0.0
 11
204.55189923517551
 21
160.57096207426449
 31
0.0
  0
LINE
  5
252E
  8
3
 10
204.54288505495111
 20
160.7287102281899
 30
0.0
 11
204.48879997360521
 21
160.74223149852639
 31
0.0
  0
LINE
  5
252F
  8
3
 10
204.59697013629699
 20
160.7242031380778
 30
0.0
 11
204.54288505495111
 21
160.7287102281899
 31
0.0
  0
LINE
  5
2530
  8
3
 10
204.7682395605589
 20
160.59349752482521
 30
0.0
 11
204.8133104616804
 21
160.58899043471311
 31
0.0
  0
LINE
  5
2531
  8
3
 10
204.8223246419048
 20
160.71969604796561
 30
0.0
 11
204.7682395605589
 21
160.7151889578534
 31
0.0
  0
LINE
  5
2532
  8
3
 10
204.8133104616804
 20
160.58899043471311
 30
0.0
 11
204.85838136280199
 21
160.58448334460101
 31
0.0
  0
LINE
  5
2533
  8
3
 10
204.8809168133626
 20
160.7287102281899
 30
0.0
 11
204.8223246419048
 21
160.71969604796561
 31
0.0
  0
LINE
  5
2534
  8
3
 10
204.72316865943731
 20
160.59349752482521
 30
0.0
 11
204.7682395605589
 21
160.59349752482521
 31
0.0
  0
LINE
  5
2535
  8
3
 10
204.7682395605589
 20
160.7151889578534
 30
0.0
 11
204.70964738910089
 21
160.7151889578534
 31
0.0
  0
LINE
  5
2536
  8
3
 10
204.6780977583158
 20
160.59349752482521
 30
0.0
 11
204.72316865943731
 21
160.59349752482521
 31
0.0
  0
LINE
  5
2537
  8
3
 10
204.70964738910089
 20
160.7151889578534
 30
0.0
 11
204.65556230775499
 21
160.7151889578534
 31
0.0
  0
LINE
  5
2538
  8
3
 10
204.90345226392361
 20
160.5754691643767
 30
0.0
 11
204.94852316504509
 21
160.5664549841523
 31
0.0
  0
LINE
  5
2539
  8
3
 10
204.85838136280199
 20
160.58448334460101
 30
0.0
 11
204.90345226392361
 21
160.5754691643767
 31
0.0
  0
LINE
  5
253A
  8
3
 10
204.93500189470859
 20
160.73772440841421
 30
0.0
 11
204.8809168133626
 21
160.7287102281899
 31
0.0
  0
LINE
  5
253B
  8
3
 10
204.11471149429639
 20
160.94955764368549
 30
0.0
 11
204.08316186351121
 21
160.9811072744705
 31
0.0
  0
LINE
  5
253C
  8
3
 10
204.01104842171679
 20
166.35806577827151
 30
0.0
 11
204.08766895362351
 21
166.48877139152401
 31
0.0
  0
LINE
  5
253D
  8
3
 10
206.2105083964484
 20
166.48877139152401
 30
0.0
 11
206.22853675689711
 21
166.45271467062679
 31
0.0
  0
LINE
  5
253E
  8
0
 10
209.37978249649461
 20
156.61585988511439
 30
0.0
 11
209.37978249649461
 21
162.61585988511439
 31
0.0
  0
LINE
  5
253F
  8
3
 10
204.84936718257759
 20
167.04314347531911
 30
0.0
 11
204.92598771448431
 21
167.0566647456555
 31
0.0
  0
LINE
  5
2540
  8
3
 10
204.78176083089531
 20
167.0251151148704
 30
0.0
 11
204.84936718257759
 21
167.04314347531911
 31
0.0
  0
LINE
  5
2541
  8
3
 10
205.14683512997991
 20
167.07469310610421
 30
0.0
 11
205.2189485717744
 21
167.07469310610421
 31
0.0
  0
LINE
  5
2542
  8
3
 10
204.99810115627881
 20
167.07018601599199
 30
0.0
 11
205.07021459807331
 21
167.07469310610421
 31
0.0
  0
LINE
  5
2543
  8
3
 10
205.07021459807331
 20
167.07469310610421
 30
0.0
 11
205.14683512997991
 21
167.07469310610421
 31
0.0
  0
LINE
  5
2544
  8
3
 10
205.43979598726989
 20
167.0386363852069
 30
0.0
 11
205.50740233895229
 21
167.0206080247583
 31
0.0
  0
LINE
  5
2545
  8
3
 10
205.36317545536329
 20
167.0566647456555
 30
0.0
 11
205.43979598726989
 21
167.0386363852069
 31
0.0
  0
LINE
  5
2546
  8
3
 10
205.29106201356879
 20
167.06567892587981
 30
0.0
 11
205.36317545536329
 21
167.0566647456555
 31
0.0
  0
LINE
  5
2547
  8
3
 10
205.2189485717744
 20
167.07469310610421
 30
0.0
 11
205.29106201356879
 21
167.06567892587981
 31
0.0
  0
LINE
  5
2548
  8
3
 10
204.92598771448431
 20
167.0566647456555
 30
0.0
 11
204.99810115627881
 21
167.07018601599199
 31
0.0
  0
LINE
  5
2549
  8
0
 10
209.37978249649461
 20
168.61585988511439
 30
0.0
 11
209.37978249649461
 21
174.61585988511439
 31
0.0
  0
ARC
  5
254A
  8
0
 10
203.84388349649461
 20
184.3658598851143
 30
0.0
 40
3.0
 50
90.0
 51
180.0
  0
LINE
  5
254B
  8
0
 10
209.37978249649461
 20
180.61585988511439
 30
0.0
 11
209.37978249649461
 21
186.6158598851143
 31
0.0
  0
LINE
  5
254C
  8
0
 10
213.84388349649461
 20
186.6158598851143
 30
0.0
 11
213.84388349649461
 21
187.3658598851143
 31
0.0
  0
LINE
  5
254D
  8
0
 10
203.84388349649461
 20
86.365598992578654
 30
0.0
 11
213.84388349649461
 21
86.365598992578654
 31
0.0
  0
LINE
  5
254E
  8
0
 10
200.84388349649461
 20
75.365598992578654
 30
0.0
 11
200.84388349649461
 21
83.365598992578668
 31
0.0
  0
ARC
  5
254F
  8
0
 10
203.84388349649461
 20
83.365598992578668
 30
0.0
 40
3.0
 50
90.0
 51
180.0
  0
LINE
  5
2556
  8
1
 10
209.3438994964946
 20
73.365598992578668
 30
0.0
 11
209.34389949649471
 21
85.865598992578668
 31
0.0
  0
LINE
  5
255D
  8
1
 10
224.8438834964947
 20
135.11585988511439
 30
0.0
 11
224.84388349649461
 21
190.11585988511439
 31
0.0
  0
LINE
  5
255E
  8
0
 10
248.84388349649461
 20
140.86585988511439
 30
0.0
 11
248.84388349649461
 21
184.3658598851143
 31
0.0
  0
LINE
  5
255F
  8
0
 10
240.30798549649461
 20
150.61585988511439
 30
0.0
 11
240.30798549649461
 21
156.61585988511439
 31
0.0
  0
LINE
  5
2560
  8
0
 10
218.84388349649461
 20
151.36585988511439
 30
0.0
 11
218.84388349649461
 21
155.86585988511439
 31
0.0
  0
LINE
  5
2562
  8
0
 10
229.34388349649461
 20
137.86585988511439
 30
0.0
 11
245.84388349649461
 21
137.86585988511439
 31
0.0
  0
LINE
  5
2563
  8
0
 10
219.59388349649461
 20
138.61585988511439
 30
0.0
 11
240.30798549649461
 21
138.61585988511439
 31
0.0
  0
LINE
  5
2564
  8
0
 10
218.84388349649461
 20
139.36585988511439
 30
0.0
 11
218.84388349649461
 21
143.86585988511439
 31
0.0
  0
ARC
  5
2565
  8
0
 10
219.59388349649461
 20
139.36585988511439
 30
0.0
 40
0.75
 50
180.0
 51
270.0
  0
LINE
  5
2566
  8
0
 10
220.34388349649461
 20
138.61585988511439
 30
0.0
 11
220.34388349649461
 21
137.86585988511439
 31
0.0
  0
ARC
  5
2567
  8
0
 10
219.59388349649461
 20
143.86585988511439
 30
0.0
 40
0.75
 50
90.0
 51
180.0
  0
ARC
  5
2568
  8
0
 10
219.59388349649461
 20
151.36585988511439
 30
0.0
 40
0.75
 50
180.0
 51
270.0
  0
LINE
  5
2569
  8
0
 10
229.34388349649461
 20
138.61585988511439
 30
0.0
 11
229.34388349649461
 21
137.86585988511439
 31
0.0
  0
LINE
  5
256A
  8
0
 10
235.84388349649461
 20
137.86585988511439
 30
0.0
 11
235.84388349649461
 21
138.61585988511439
 31
0.0
  0
ARC
  5
256B
  8
0
 10
230.09388349649461
 20
145.36585988511439
 30
0.0
 40
0.75
 50
270.0
 51
0.000000000000007
  0
ARC
  5
256C
  8
0
 10
230.09388349649461
 20
149.86585988511439
 30
0.0
 40
0.75
 50
0.000000000000007
 51
90.0
  0
LINE
  5
256D
  8
0
 10
230.84388349649461
 20
145.36585988511439
 30
0.0
 11
230.84388349649461
 21
149.86585988511439
 31
0.0
  0
ARC
  5
256E
  8
0
 10
245.84388349649461
 20
140.86585988511439
 30
0.0
 40
3.0
 50
270.0
 51
0.000000000000007
  0
LINE
  5
2570
  8
0
 10
240.30798549649461
 20
138.61585988511439
 30
0.0
 11
240.30798549649461
 21
144.61585988511439
 31
0.0
  0
LINE
  5
2572
  8
0
 10
229.34388349649461
 20
187.3658598851143
 30
0.0
 11
245.84388349649461
 21
187.3658598851143
 31
0.0
  0
LINE
  5
2573
  8
0
 10
218.84388349649461
 20
175.36585988511439
 30
0.0
 11
218.84388349649461
 21
179.86585988511439
 31
0.0
  0
LINE
  5
2574
  8
0
 10
218.84388349649461
 20
163.36585988511439
 30
0.0
 11
218.84388349649461
 21
167.86585988511439
 31
0.0
  0
ARC
  5
2575
  8
0
 10
219.59388349649461
 20
155.86585988511439
 30
0.0
 40
0.75
 50
90.0
 51
180.0
  0
ARC
  5
2576
  8
0
 10
219.59388349649461
 20
163.36585988511439
 30
0.0
 40
0.75
 50
180.0
 51
270.0
  0
ARC
  5
2577
  8
0
 10
219.59388349649461
 20
167.86585988511439
 30
0.0
 40
0.75
 50
90.0
 51
180.0
  0
ARC
  5
2578
  8
0
 10
219.59388349649461
 20
175.36585988511439
 30
0.0
 40
0.75
 50
180.0
 51
270.0
  0
ARC
  5
2579
  8
0
 10
230.09388349649461
 20
157.36585988511439
 30
0.0
 40
0.75
 50
270.0
 51
0.000000000000007
  0
ARC
  5
257A
  8
0
 10
230.09388349649461
 20
161.86585988511439
 30
0.0
 40
0.75
 50
0.000000000000007
 51
90.0
  0
LINE
  5
257B
  8
0
 10
230.84388349649461
 20
157.36585988511439
 30
0.0
 11
230.84388349649461
 21
161.86585988511439
 31
0.0
  0
LINE
  5
257C
  8
0
 10
235.84388349649461
 20
156.61585988511439
 30
0.0
 11
235.84388349649461
 21
162.61585988511439
 31
0.0
  0
LINE
  5
257D
  8
0
 10
230.84388349649461
 20
169.36585988511439
 30
0.0
 11
230.84388349649461
 21
173.8658598851143
 31
0.0
  0
ARC
  5
257E
  8
0
 10
230.09388349649461
 20
169.36585988511439
 30
0.0
 40
0.75
 50
270.0
 51
0.000000000000007
  0
ARC
  5
257F
  8
0
 10
230.09388349649461
 20
173.8658598851143
 30
0.0
 40
0.75
 50
0.000000000000007
 51
90.0
  0
LINE
  5
2580
  8
0
 10
235.84388349649461
 20
168.61585988511439
 30
0.0
 11
235.84388349649461
 21
174.61585988511439
 31
0.0
  0
ARC
  5
2581
  8
0
 10
219.59388349649461
 20
179.86585988511439
 30
0.0
 40
0.75
 50
90.0
 51
180.0
  0
LINE
  5
2582
  8
0
 10
220.34388349649461
 20
187.3658598851143
 30
0.0
 11
220.34388349649461
 21
186.6158598851143
 31
0.0
  0
ARC
  5
2583
  8
0
 10
230.09388349649461
 20
181.36585988511439
 30
0.0
 40
0.75
 50
270.0
 51
0.000000000000007
  0
ARC
  5
2584
  8
0
 10
230.09388349649461
 20
185.8658598851143
 30
0.0
 40
0.75
 50
0.000000000000007
 51
90.0
  0
LINE
  5
2585
  8
0
 10
230.84388349649461
 20
181.36585988511439
 30
0.0
 11
230.84388349649461
 21
185.8658598851143
 31
0.0
  0
LINE
  5
2586
  8
0
 10
229.34388349649461
 20
187.3658598851143
 30
0.0
 11
229.34388349649461
 21
186.6158598851143
 31
0.0
  0
LINE
  5
2587
  8
0
 10
235.84388349649461
 20
180.61585988511439
 30
0.0
 11
235.84388349649461
 21
187.3658598851143
 31
0.0
  0
LINE
  5
2588
  8
0
 10
240.30798549649461
 20
174.61585988511439
 30
0.0
 11
240.30798549649461
 21
180.6158598851143
 31
0.0
  0
LINE
  5
258A
  8
1
 10
245.83939111460859
 20
162.6158598851143
 30
0.0
 11
251.84388349649461
 21
162.6158598851143
 31
0.0
  0
CIRCLE
  5
258B
  8
3
 10
243.53216892785321
 20
166.98854704453569
 30
0.0
 40
0.180725893852164
  0
LINE
  5
258C
  8
3
 10
245.84798899553431
 20
167.15317852798589
 30
0.0
 11
245.84798899553431
 21
166.5131717320599
 31
0.0
  0
LINE
  5
258D
  8
3
 10
245.26206728095411
 20
167.0044445542847
 30
0.0
 11
245.3882658040944
 21
167.01345873450899
 31
0.0
  0
LINE
  5
258E
  8
0
 10
240.30798549649461
 20
162.61585988511439
 30
0.0
 11
240.30798549649461
 21
168.61585988511439
 31
0.0
  0
LINE
  5
258F
  8
3
 10
243.44570996575561
 20
160.32719055312711
 30
0.0
 11
242.54836841973179
 21
160.31260774779511
 31
0.0
  0
LINE
  5
2590
  8
3
 10
242.7016094835451
 20
161.1181848678103
 30
0.0
 11
242.8913378819606
 21
161.12269195792251
 31
0.0
  0
LINE
  5
2591
  8
3
 10
242.54836841973179
 20
161.1181848678103
 30
0.0
 11
242.54836841973179
 21
160.31260774779511
 31
0.0
  0
LINE
  5
2592
  8
3
 10
242.54836841973179
 20
161.1181848678103
 30
0.0
 11
242.7016094835451
 21
161.1181848678103
 31
0.0
  0
LINE
  5
2593
  8
3
 10
244.62656757514031
 20
166.9999374641726
 30
0.0
 11
244.7527660982806
 21
166.9999374641726
 31
0.0
  0
LINE
  5
2594
  8
3
 10
243.80627717472811
 20
166.68444115632181
 30
0.0
 11
243.9279686077563
 21
166.77909004867701
 31
0.0
  0
LINE
  5
2595
  8
3
 10
243.64402193069051
 20
166.5131717320599
 30
0.0
 11
243.6935999219242
 21
166.5717639035179
 31
0.0
  0
LINE
  5
2596
  8
3
 10
243.6935999219242
 20
166.5717639035179
 30
0.0
 11
243.74768500326999
 21
166.63035607497591
 31
0.0
  0
LINE
  5
2597
  8
3
 10
243.74768500326999
 20
166.63035607497591
 30
0.0
 11
243.80627717472811
 21
166.68444115632181
 31
0.0
  0
LINE
  5
2598
  8
3
 10
244.37867761897181
 20
166.97289492349961
 30
0.0
 11
244.50487614211201
 21
166.99092328394829
 31
0.0
  0
LINE
  5
2599
  8
3
 10
244.14430893313971
 20
166.90528857181741
 30
0.0
 11
244.26149327605569
 21
166.94585238282681
 31
0.0
  0
LINE
  5
259A
  8
3
 10
244.03613877044799
 20
166.85120349047151
 30
0.0
 11
244.14430893313971
 21
166.90528857181741
 31
0.0
  0
LINE
  5
259B
  8
3
 10
243.9279686077563
 20
166.77909004867701
 30
0.0
 11
244.03613877044799
 21
166.85120349047151
 31
0.0
  0
LINE
  5
259C
  8
3
 10
244.26149327605569
 20
166.94585238282681
 30
0.0
 11
244.37867761897181
 21
166.97289492349961
 31
0.0
  0
LINE
  5
259D
  8
3
 10
244.50487614211201
 20
166.99092328394829
 30
0.0
 11
244.62656757514031
 21
166.9999374641726
 31
0.0
  0
LINE
  5
259E
  8
3
 10
244.8834717115331
 20
166.9999374641726
 30
0.0
 11
245.00967023467339
 21
166.9999374641726
 31
0.0
  0
LINE
  5
259F
  8
3
 10
244.7527660982806
 20
166.9999374641726
 30
0.0
 11
244.8834717115331
 21
166.9999374641726
 31
0.0
  0
LINE
  5
25A0
  8
3
 10
245.13586875781371
 20
166.9999374641726
 30
0.0
 11
245.26206728095411
 21
167.0044445542847
 31
0.0
  0
LINE
  5
25A1
  8
3
 10
245.00967023467339
 20
166.9999374641726
 30
0.0
 11
245.13586875781371
 21
166.9999374641726
 31
0.0
  0
LINE
  5
25A2
  8
3
 10
243.3465539832882
 20
162.41622682011101
 30
0.0
 11
243.3465539832882
 21
163.28158812164469
 31
0.0
  0
LINE
  5
25A3
  8
3
 10
244.10374512213031
 20
163.22299595018669
 30
0.0
 11
244.10825221224249
 21
163.14637541828009
 31
0.0
  0
LINE
  5
25A4
  8
3
 10
245.1133333072531
 20
163.15989668861661
 30
0.0
 11
245.1133333072531
 21
163.24102431063531
 31
0.0
  0
LINE
  5
25A5
  8
3
 10
244.29754999695299
 20
162.21340776506401
 30
0.0
 11
244.29754999695299
 21
163.20496758973809
 31
0.0
  0
LINE
  5
25A6
  8
3
 10
244.84290790052361
 20
163.2139817699624
 30
0.0
 11
244.8474149906358
 21
162.18185813427891
 31
0.0
  0
LINE
  5
25A7
  8
3
 10
245.65869121082369
 20
163.2004604996259
 30
0.0
 11
245.69474793172111
 21
163.18693922928941
 31
0.0
  0
LINE
  5
25A8
  8
3
 10
243.28796181183029
 20
159.36492681418201
 30
0.0
 11
243.2834547217181
 21
160.19873848493069
 31
0.0
  0
LINE
  5
25A9
  8
3
 10
244.0631813111209
 20
160.18972430470629
 30
0.0
 11
244.0767025814574
 21
160.12211795302409
 31
0.0
  0
LINE
  5
25AA
  8
3
 10
245.00516314456129
 20
160.09056832223899
 30
0.0
 11
245.00065605444919
 21
160.16268176403349
 31
0.0
  0
LINE
  5
25AB
  8
3
 10
245.68573375149671
 20
160.15817467392131
 30
0.0
 11
245.69925502183321
 21
160.1446534035849
 31
0.0
  0
LINE
  5
25AC
  8
3
 10
243.5809226691203
 20
158.60773567534
 30
0.0
 11
243.57190848889601
 21
158.62125694567641
 31
0.0
  0
LINE
  5
25AD
  8
3
 10
245.5144643272348
 20
158.62125694567641
 30
0.0
 11
245.49643596678621
 21
158.59872149511571
 31
0.0
  0
LINE
  5
25AE
  8
3
 10
244.761780278505
 20
158.17505502457311
 30
0.0
 11
244.68966683671039
 21
158.16153375423659
 31
0.0
  0
LINE
  5
25AF
  8
3
 10
243.86486934618611
 20
158.3643528092835
 30
0.0
 11
243.85134807584959
 21
158.3733669895079
 31
0.0
  0
LINE
  5
25B0
  8
3
 10
243.58993684934461
 20
158.59872149511571
 30
0.0
 11
243.5809226691203
 21
158.60773567534
 31
0.0
  0
LINE
  5
25B1
  8
3
 10
243.7612062736064
 20
158.42745207085369
 30
0.0
 11
243.61697939001749
 21
158.55815768410631
 31
0.0
  0
LINE
  5
25B2
  8
3
 10
243.61697939001749
 20
158.55815768410631
 30
0.0
 11
243.60796520979321
 21
158.57167895444269
 31
0.0
  0
LINE
  5
25B3
  8
3
 10
243.60796520979321
 20
158.57167895444269
 30
0.0
 11
243.59895102956889
 21
158.58520022477919
 31
0.0
  0
LINE
  5
25B4
  8
3
 10
243.59895102956889
 20
158.58520022477919
 30
0.0
 11
243.58993684934461
 21
158.59872149511571
 31
0.0
  0
LINE
  5
25B5
  8
3
 10
243.85134807584959
 20
158.3733669895079
 30
0.0
 11
243.8423338956253
 21
158.37787407962
 31
0.0
  0
LINE
  5
25B6
  8
3
 10
243.8423338956253
 20
158.37787407962
 30
0.0
 11
243.8288126252888
 21
158.3868882598444
 31
0.0
  0
LINE
  5
25B7
  8
3
 10
243.8288126252888
 20
158.3868882598444
 30
0.0
 11
243.81529135495231
 21
158.39590244006871
 31
0.0
  0
LINE
  5
25B8
  8
3
 10
243.81529135495231
 20
158.39590244006871
 30
0.0
 11
243.80627717472811
 21
158.40491662029299
 31
0.0
  0
LINE
  5
25B9
  8
3
 10
243.80627717472811
 20
158.40491662029299
 30
0.0
 11
243.7927559043917
 21
158.40942371040509
 31
0.0
  0
LINE
  5
25BA
  8
3
 10
243.7927559043917
 20
158.40942371040509
 30
0.0
 11
243.7612062736064
 21
158.42745207085369
 31
0.0
  0
LINE
  5
25BB
  8
3
 10
243.9279686077563
 20
158.319281908162
 30
0.0
 11
243.9144473374198
 21
158.32829608838631
 31
0.0
  0
LINE
  5
25BC
  8
3
 10
243.94148987809271
 20
158.31026772793771
 30
0.0
 11
243.9279686077563
 21
158.319281908162
 31
0.0
  0
LINE
  5
25BD
  8
3
 10
243.96853241876559
 20
158.29223936748909
 30
0.0
 11
243.95501114842921
 21
158.3012535477134
 31
0.0
  0
LINE
  5
25BE
  8
3
 10
243.95501114842921
 20
158.3012535477134
 30
0.0
 11
243.94148987809271
 21
158.31026772793771
 31
0.0
  0
LINE
  5
25BF
  8
3
 10
243.9144473374198
 20
158.32829608838631
 30
0.0
 11
243.90092606708319
 21
158.33731026861059
 31
0.0
  0
LINE
  5
25C0
  8
3
 10
243.90092606708319
 20
158.33731026861059
 30
0.0
 11
243.89191188685891
 21
158.34632444883499
 31
0.0
  0
LINE
  5
25C1
  8
3
 10
243.89191188685891
 20
158.34632444883499
 30
0.0
 11
243.87839061652249
 21
158.3553386290593
 31
0.0
  0
LINE
  5
25C2
  8
3
 10
243.87839061652249
 20
158.3553386290593
 30
0.0
 11
243.86486934618611
 21
158.3643528092835
 31
0.0
  0
LINE
  5
25C3
  8
3
 10
244.46881942121479
 20
158.15702666412449
 30
0.0
 11
244.3967059794204
 21
158.1660408443488
 31
0.0
  0
LINE
  5
25C4
  8
3
 10
244.3967059794204
 20
158.1660408443488
 30
0.0
 11
244.3245925376259
 21
158.17505502457311
 31
0.0
  0
LINE
  5
25C5
  8
3
 10
244.3245925376259
 20
158.17505502457311
 30
0.0
 11
244.2479720057193
 21
158.19308338502171
 31
0.0
  0
LINE
  5
25C6
  8
3
 10
244.2479720057193
 20
158.19308338502171
 30
0.0
 11
244.18036565403699
 21
158.2111117454703
 31
0.0
  0
LINE
  5
25C7
  8
3
 10
244.18036565403699
 20
158.2111117454703
 30
0.0
 11
244.10825221224249
 21
158.23364719603109
 31
0.0
  0
LINE
  5
25C8
  8
3
 10
244.10825221224249
 20
158.23364719603109
 30
0.0
 11
243.96853241876559
 21
158.29223936748909
 31
0.0
  0
LINE
  5
25C9
  8
3
 10
244.61755339491589
 20
158.15702666412449
 30
0.0
 11
244.54093286300929
 21
158.15702666412449
 31
0.0
  0
LINE
  5
25CA
  8
3
 10
244.68966683671039
 20
158.16153375423659
 30
0.0
 11
244.61755339491589
 21
158.15702666412449
 31
0.0
  0
LINE
  5
25CB
  8
3
 10
244.54093286300929
 20
158.15702666412449
 30
0.0
 11
244.46881942121479
 21
158.15702666412449
 31
0.0
  0
LINE
  5
25CC
  8
3
 10
245.18093965893539
 20
158.32829608838631
 30
0.0
 11
245.1674183885988
 21
158.32378899827421
 31
0.0
  0
LINE
  5
25CD
  8
3
 10
245.27558855129061
 20
158.40491662029299
 30
0.0
 11
245.27108146117851
 21
158.3913953499565
 31
0.0
  0
LINE
  5
25CE
  8
3
 10
245.27108146117851
 20
158.3913953499565
 30
0.0
 11
245.26206728095411
 21
158.38238116973221
 31
0.0
  0
LINE
  5
25CF
  8
3
 10
245.26206728095411
 20
158.38238116973221
 30
0.0
 11
245.25756019084201
 21
158.37787407962
 31
0.0
  0
LINE
  5
25D0
  8
3
 10
245.25756019084201
 20
158.37787407962
 30
0.0
 11
245.24403892050549
 21
158.36885989939569
 31
0.0
  0
LINE
  5
25D1
  8
3
 10
245.24403892050549
 20
158.36885989939569
 30
0.0
 11
245.2350247402812
 21
158.3598457191714
 31
0.0
  0
LINE
  5
25D2
  8
3
 10
245.2350247402812
 20
158.3598457191714
 30
0.0
 11
245.22601056005689
 21
158.3553386290593
 31
0.0
  0
LINE
  5
25D3
  8
3
 10
245.22601056005689
 20
158.3553386290593
 30
0.0
 11
245.21699637983261
 21
158.34632444883499
 31
0.0
  0
LINE
  5
25D4
  8
3
 10
245.21699637983261
 20
158.34632444883499
 30
0.0
 11
245.20347510949611
 21
158.34181735872281
 31
0.0
  0
LINE
  5
25D5
  8
3
 10
245.20347510949611
 20
158.34181735872281
 30
0.0
 11
245.1899538391597
 21
158.33731026861059
 31
0.0
  0
LINE
  5
25D6
  8
3
 10
245.1899538391597
 20
158.33731026861059
 30
0.0
 11
245.18093965893539
 21
158.32829608838631
 31
0.0
  0
LINE
  5
25D7
  8
3
 10
245.13586875781371
 20
158.30576063782561
 30
0.0
 11
245.1133333072531
 21
158.29223936748909
 31
0.0
  0
LINE
  5
25D8
  8
3
 10
245.1674183885988
 20
158.32378899827421
 30
0.0
 11
245.15840420837461
 21
158.319281908162
 31
0.0
  0
LINE
  5
25D9
  8
3
 10
245.15840420837461
 20
158.319281908162
 30
0.0
 11
245.14488293803811
 21
158.31026772793771
 31
0.0
  0
LINE
  5
25DA
  8
3
 10
245.14488293803811
 20
158.31026772793771
 30
0.0
 11
245.13586875781371
 21
158.30576063782561
 31
0.0
  0
LINE
  5
25DB
  8
3
 10
245.0457269555707
 20
158.2561826465919
 30
0.0
 11
244.9781206038883
 21
158.22914010591899
 31
0.0
  0
LINE
  5
25DC
  8
3
 10
244.9781206038883
 20
158.22914010591899
 30
0.0
 11
244.90600716209391
 21
158.20660465535821
 31
0.0
  0
LINE
  5
25DD
  8
3
 10
244.90600716209391
 20
158.20660465535821
 30
0.0
 11
244.8384008104116
 21
158.18857629490961
 31
0.0
  0
LINE
  5
25DE
  8
3
 10
244.8384008104116
 20
158.18857629490961
 30
0.0
 11
244.761780278505
 21
158.17505502457311
 31
0.0
  0
LINE
  5
25DF
  8
3
 10
245.1133333072531
 20
158.29223936748909
 30
0.0
 11
245.0457269555707
 21
158.2561826465919
 31
0.0
  0
LINE
  5
25E0
  8
3
 10
245.49643596678621
 20
158.59872149511571
 30
0.0
 11
245.4784076063377
 21
158.5761860445549
 31
0.0
  0
LINE
  5
25E1
  8
3
 10
245.4784076063377
 20
158.5761860445549
 30
0.0
 11
245.4558721557768
 21
158.55365059399409
 31
0.0
  0
LINE
  5
25E2
  8
3
 10
245.4558721557768
 20
158.55365059399409
 30
0.0
 11
245.43784379532821
 21
158.53111514343331
 31
0.0
  0
LINE
  5
25E3
  8
3
 10
245.43784379532821
 20
158.53111514343331
 30
0.0
 11
245.4153083447674
 21
158.5085796928725
 31
0.0
  0
LINE
  5
25E4
  8
3
 10
245.4153083447674
 20
158.5085796928725
 30
0.0
 11
245.39277289420659
 21
158.48604424231181
 31
0.0
  0
LINE
  5
25E5
  8
3
 10
245.39277289420659
 20
158.48604424231181
 30
0.0
 11
245.37023744364581
 21
158.4680158818631
 31
0.0
  0
LINE
  5
25E6
  8
3
 10
245.37023744364581
 20
158.4680158818631
 30
0.0
 11
245.34770199308511
 21
158.4499875214145
 31
0.0
  0
LINE
  5
25E7
  8
3
 10
245.34770199308511
 20
158.4499875214145
 30
0.0
 11
245.3251665425243
 21
158.4319591609659
 31
0.0
  0
LINE
  5
25E8
  8
3
 10
245.3251665425243
 20
158.4319591609659
 30
0.0
 11
245.27558855129061
 21
158.40491662029299
 31
0.0
  0
LINE
  5
25E9
  8
3
 10
244.7076951971591
 20
160.12211795302409
 30
0.0
 11
244.77079445872931
 21
160.1311321332484
 31
0.0
  0
LINE
  5
25EA
  8
3
 10
244.0812096715695
 20
159.40549062519139
 30
0.0
 11
244.09022385179381
 21
159.3378842735091
 31
0.0
  0
LINE
  5
25EB
  8
3
 10
244.23895782549491
 20
159.11252976790129
 30
0.0
 11
244.24346491560721
 21
160.09958250246331
 31
0.0
  0
LINE
  5
25EC
  8
3
 10
243.2924689019425
 20
159.31985591306039
 30
0.0
 11
243.28796181183029
 21
159.36492681418201
 31
0.0
  0
LINE
  5
25ED
  8
3
 10
243.31049726239101
 20
159.1666148492472
 30
0.0
 11
243.31049726239101
 21
159.18915029980801
 31
0.0
  0
LINE
  5
25EE
  8
3
 10
243.31049726239101
 20
159.18915029980801
 30
0.0
 11
243.3059901722788
 21
159.2116857503687
 31
0.0
  0
LINE
  5
25EF
  8
3
 10
243.3059901722788
 20
159.2116857503687
 30
0.0
 11
243.3014830821667
 21
159.23422120092951
 31
0.0
  0
LINE
  5
25F0
  8
3
 10
243.3014830821667
 20
159.23422120092951
 30
0.0
 11
243.3014830821667
 21
159.25675665149021
 31
0.0
  0
LINE
  5
25F1
  8
3
 10
243.3014830821667
 20
159.25675665149021
 30
0.0
 11
243.29697599205451
 21
159.27478501193889
 31
0.0
  0
LINE
  5
25F2
  8
3
 10
243.29697599205451
 20
159.27478501193889
 30
0.0
 11
243.2924689019425
 21
159.2973204624997
 31
0.0
  0
LINE
  5
25F3
  8
3
 10
243.2924689019425
 20
159.2973204624997
 30
0.0
 11
243.2924689019425
 21
159.31985591306039
 31
0.0
  0
LINE
  5
25F4
  8
3
 10
243.28796181183029
 20
159.36492681418201
 30
0.0
 11
243.28796181183029
 21
159.36492681418201
 31
0.0
  0
LINE
  5
25F5
  8
3
 10
243.52683758777451
 20
158.6708349369101
 30
0.0
 11
243.5178234075502
 21
158.68435620724659
 31
0.0
  0
LINE
  5
25F6
  8
3
 10
243.57190848889601
 20
158.62125694567641
 30
0.0
 11
243.55838721855949
 21
158.6347782160129
 31
0.0
  0
LINE
  5
25F7
  8
3
 10
243.55838721855949
 20
158.6347782160129
 30
0.0
 11
243.5493730383352
 21
158.6482994863494
 31
0.0
  0
LINE
  5
25F8
  8
3
 10
243.5493730383352
 20
158.6482994863494
 30
0.0
 11
243.54035885811089
 21
158.66182075668581
 31
0.0
  0
LINE
  5
25F9
  8
3
 10
243.54035885811089
 20
158.66182075668581
 30
0.0
 11
243.52683758777451
 21
158.6708349369101
 31
0.0
  0
LINE
  5
25FA
  8
3
 10
243.40965324485839
 20
158.8781610820692
 30
0.0
 11
243.40063906463411
 21
158.8916823524057
 31
0.0
  0
LINE
  5
25FB
  8
3
 10
243.4366957855313
 20
158.81956891061131
 30
0.0
 11
243.4276816053071
 21
158.83309018094769
 31
0.0
  0
LINE
  5
25FC
  8
3
 10
243.4276816053071
 20
158.83309018094769
 30
0.0
 11
243.4231745151948
 21
158.85111854139629
 31
0.0
  0
LINE
  5
25FD
  8
3
 10
243.4231745151948
 20
158.85111854139629
 30
0.0
 11
243.4141603349706
 21
158.86463981173279
 31
0.0
  0
LINE
  5
25FE
  8
3
 10
243.4141603349706
 20
158.86463981173279
 30
0.0
 11
243.40965324485839
 21
158.8781610820692
 31
0.0
  0
LINE
  5
25FF
  8
3
 10
243.40063906463411
 20
158.8916823524057
 30
0.0
 11
243.39613197452201
 21
158.90520362274219
 31
0.0
  0
LINE
  5
2600
  8
3
 10
243.39613197452201
 20
158.90520362274219
 30
0.0
 11
243.39162488440979
 21
158.92323198319079
 31
0.0
  0
LINE
  5
2601
  8
3
 10
243.39162488440979
 20
158.92323198319079
 30
0.0
 11
243.38261070418551
 21
158.93675325352731
 31
0.0
  0
LINE
  5
2602
  8
3
 10
243.38261070418551
 20
158.93675325352731
 30
0.0
 11
243.3781036140733
 21
158.9502745238637
 31
0.0
  0
LINE
  5
2603
  8
3
 10
243.3781036140733
 20
158.9502745238637
 30
0.0
 11
243.36908943384901
 21
158.96379579420019
 31
0.0
  0
LINE
  5
2604
  8
3
 10
243.36908943384901
 20
158.96379579420019
 30
0.0
 11
243.3600752536247
 21
158.97731706453669
 31
0.0
  0
LINE
  5
2605
  8
3
 10
243.3600752536247
 20
158.97731706453669
 30
0.0
 11
243.3420468931761
 21
159.0043596052096
 31
0.0
  0
LINE
  5
2606
  8
3
 10
243.3420468931761
 20
159.0043596052096
 30
0.0
 11
243.33753980306389
 21
159.02689505577041
 31
0.0
  0
LINE
  5
2607
  8
3
 10
243.33753980306389
 20
159.02689505577041
 30
0.0
 11
243.33303271295171
 21
159.04943050633119
 31
0.0
  0
LINE
  5
2608
  8
3
 10
243.33303271295171
 20
159.04943050633119
 30
0.0
 11
243.32852562283969
 21
159.07196595689189
 31
0.0
  0
LINE
  5
2609
  8
3
 10
243.32852562283969
 20
159.07196595689189
 30
0.0
 11
243.32401853272739
 21
159.0945014074527
 31
0.0
  0
LINE
  5
260A
  8
3
 10
243.32401853272739
 20
159.0945014074527
 30
0.0
 11
243.31951144261529
 21
159.11703685801351
 31
0.0
  0
LINE
  5
260B
  8
3
 10
243.31951144261529
 20
159.11703685801351
 30
0.0
 11
243.31500435250311
 21
159.14407939868639
 31
0.0
  0
LINE
  5
260C
  8
3
 10
243.45472414598001
 20
158.79252636993829
 30
0.0
 11
243.44570996575561
 21
158.80604764027481
 31
0.0
  0
LINE
  5
260D
  8
3
 10
243.5178234075502
 20
158.68435620724659
 30
0.0
 11
243.50880922732591
 21
158.69787747758309
 31
0.0
  0
LINE
  5
260E
  8
3
 10
243.50880922732591
 20
158.69787747758309
 30
0.0
 11
243.49979504710149
 21
158.7113987479195
 31
0.0
  0
LINE
  5
260F
  8
3
 10
243.49979504710149
 20
158.7113987479195
 30
0.0
 11
243.4907808668772
 21
158.7294271083681
 31
0.0
  0
LINE
  5
2610
  8
3
 10
243.4907808668772
 20
158.7294271083681
 30
0.0
 11
243.47725959654079
 21
158.7429483787046
 31
0.0
  0
LINE
  5
2611
  8
3
 10
243.47725959654079
 20
158.7429483787046
 30
0.0
 11
243.45923123609211
 21
158.77900509960179
 31
0.0
  0
LINE
  5
2612
  8
3
 10
243.45923123609211
 20
158.77900509960179
 30
0.0
 11
243.45472414598001
 21
158.79252636993829
 31
0.0
  0
LINE
  5
2613
  8
3
 10
243.44570996575561
 20
158.80604764027481
 30
0.0
 11
243.4366957855313
 21
158.81956891061131
 31
0.0
  0
LINE
  5
2614
  8
3
 10
243.31500435250311
 20
159.14407939868639
 30
0.0
 11
243.31049726239101
 21
159.1666148492472
 31
0.0
  0
LINE
  5
2615
  8
3
 10
244.09022385179381
 20
159.3378842735091
 30
0.0
 11
244.10825221224249
 21
159.27478501193889
 31
0.0
  0
LINE
  5
2616
  8
3
 10
244.10825221224249
 20
159.27478501193889
 30
0.0
 11
244.13529475291531
 21
159.2116857503687
 31
0.0
  0
LINE
  5
2617
  8
3
 10
244.211915284822
 20
159.10351558767701
 30
0.0
 11
244.21642237493421
 21
159.10351558767701
 31
0.0
  0
LINE
  5
2618
  8
3
 10
244.21642237493421
 20
159.10351558767701
 30
0.0
 11
244.22092946504631
 21
159.10351558767701
 31
0.0
  0
LINE
  5
2619
  8
3
 10
244.22092946504631
 20
159.10351558767701
 30
0.0
 11
244.2254365551585
 21
159.10351558767701
 31
0.0
  0
LINE
  5
261A
  8
3
 10
244.2254365551585
 20
159.10351558767701
 30
0.0
 11
244.22994364527059
 21
159.10351558767701
 31
0.0
  0
LINE
  5
261B
  8
3
 10
244.22994364527059
 20
159.10351558767701
 30
0.0
 11
244.23445073538281
 21
159.10351558767701
 31
0.0
  0
LINE
  5
261C
  8
3
 10
244.23445073538281
 20
159.10351558767701
 30
0.0
 11
244.23445073538281
 21
159.10802267778919
 31
0.0
  0
LINE
  5
261D
  8
3
 10
244.23445073538281
 20
159.10802267778919
 30
0.0
 11
244.23895782549491
 21
159.10802267778919
 31
0.0
  0
LINE
  5
261E
  8
3
 10
244.23895782549491
 20
159.10802267778919
 30
0.0
 11
244.23895782549491
 21
159.11252976790129
 31
0.0
  0
LINE
  5
261F
  8
3
 10
244.13529475291531
 20
159.2116857503687
 30
0.0
 11
244.211915284822
 21
159.10351558767701
 31
0.0
  0
LINE
  5
2620
  8
3
 10
244.0767025814574
 20
160.12211795302409
 30
0.0
 11
244.08571676168171
 21
160.05451160134169
 31
0.0
  0
LINE
  5
2621
  8
3
 10
244.24346491560721
 20
160.09958250246331
 30
0.0
 11
244.27501454639221
 21
160.10408959257541
 31
0.0
  0
LINE
  5
2622
  8
3
 10
244.27501454639221
 20
160.10408959257541
 30
0.0
 11
244.30656417717731
 21
160.11310377279969
 31
0.0
  0
LINE
  5
2623
  8
3
 10
244.30656417717731
 20
160.11310377279969
 30
0.0
 11
244.33811380796229
 21
160.1176108629119
 31
0.0
  0
LINE
  5
2624
  8
3
 10
244.33811380796229
 20
160.1176108629119
 30
0.0
 11
244.36966343874741
 21
160.1176108629119
 31
0.0
  0
LINE
  5
2625
  8
3
 10
244.36966343874741
 20
160.1176108629119
 30
0.0
 11
244.40572015964469
 21
160.12211795302409
 31
0.0
  0
LINE
  5
2626
  8
3
 10
244.40572015964469
 20
160.12211795302409
 30
0.0
 11
244.4372697904297
 21
160.12211795302409
 31
0.0
  0
LINE
  5
2627
  8
3
 10
244.4372697904297
 20
160.12211795302409
 30
0.0
 11
244.473326511327
 21
160.12211795302409
 31
0.0
  0
LINE
  5
2628
  8
3
 10
244.473326511327
 20
160.12211795302409
 30
0.0
 11
244.50487614211201
 21
160.12211795302409
 31
0.0
  0
LINE
  5
2629
  8
3
 10
244.0812096715695
 20
159.7660578341638
 30
0.0
 11
244.0767025814574
 21
159.6939443923693
 31
0.0
  0
LINE
  5
262A
  8
3
 10
244.0767025814574
 20
159.6939443923693
 30
0.0
 11
244.07219549134521
 21
159.6173238604627
 31
0.0
  0
LINE
  5
262B
  8
3
 10
244.07219549134521
 20
159.6173238604627
 30
0.0
 11
244.07219549134521
 21
159.5452104186682
 31
0.0
  0
LINE
  5
262C
  8
3
 10
244.07219549134521
 20
159.5452104186682
 30
0.0
 11
244.07219549134521
 21
159.47760406698589
 31
0.0
  0
LINE
  5
262D
  8
3
 10
244.07219549134521
 20
159.47760406698589
 30
0.0
 11
244.0812096715695
 21
159.40549062519139
 31
0.0
  0
LINE
  5
262E
  8
3
 10
244.08571676168171
 20
159.9102847177528
 30
0.0
 11
244.0812096715695
 21
159.8381712759583
 31
0.0
  0
LINE
  5
262F
  8
3
 10
244.0812096715695
 20
159.8381712759583
 30
0.0
 11
244.0812096715695
 21
159.7660578341638
 31
0.0
  0
LINE
  5
2630
  8
3
 10
244.08571676168171
 20
159.98239815954719
 30
0.0
 11
244.08571676168171
 21
159.9102847177528
 31
0.0
  0
LINE
  5
2631
  8
3
 10
244.08571676168171
 20
160.05451160134169
 30
0.0
 11
244.08571676168171
 21
159.98239815954719
 31
0.0
  0
LINE
  5
2632
  8
3
 10
244.54093286300929
 20
160.12211795302409
 30
0.0
 11
244.57248249379441
 21
160.12211795302409
 31
0.0
  0
LINE
  5
2633
  8
3
 10
244.57248249379441
 20
160.12211795302409
 30
0.0
 11
244.60853921469169
 21
160.12211795302409
 31
0.0
  0
LINE
  5
2634
  8
3
 10
244.60853921469169
 20
160.12211795302409
 30
0.0
 11
244.64459593558891
 21
160.12211795302409
 31
0.0
  0
LINE
  5
2635
  8
3
 10
244.64459593558891
 20
160.12211795302409
 30
0.0
 11
244.676145566374
 21
160.12211795302409
 31
0.0
  0
LINE
  5
2636
  8
3
 10
244.676145566374
 20
160.12211795302409
 30
0.0
 11
244.7076951971591
 21
160.12211795302409
 31
0.0
  0
LINE
  5
2637
  8
3
 10
244.50487614211201
 20
160.12211795302409
 30
0.0
 11
244.54093286300929
 21
160.12211795302409
 31
0.0
  0
LINE
  5
2638
  8
3
 10
244.98713478411261
 20
159.37844808451851
 30
0.0
 11
245.00516314456129
 21
159.46858988676161
 31
0.0
  0
LINE
  5
2639
  8
3
 10
244.77530154884141
 20
159.40549062519139
 30
0.0
 11
244.77530154884141
 21
159.3378842735091
 31
0.0
  0
LINE
  5
263A
  8
3
 10
245.79390391418841
 20
159.40098353507921
 30
0.0
 11
245.78939682407631
 21
159.31985591306039
 31
0.0
  0
LINE
  5
263B
  8
3
 10
245.6767195712724
 20
158.8736539919571
 30
0.0
 11
245.6000990393658
 21
158.7429483787046
 31
0.0
  0
LINE
  5
263C
  8
3
 10
244.96910642366399
 20
159.29281337238751
 30
0.0
 11
244.98713478411261
 21
159.37844808451851
 31
0.0
  0
LINE
  5
263D
  8
3
 10
244.93755679287901
 20
159.2116857503687
 30
0.0
 11
244.96910642366399
 21
159.29281337238751
 31
0.0
  0
LINE
  5
263E
  8
3
 10
244.77530154884141
 20
159.3378842735091
 30
0.0
 11
244.77530154884141
 21
159.27478501193889
 31
0.0
  0
LINE
  5
263F
  8
3
 10
244.77530154884141
 20
159.27478501193889
 30
0.0
 11
244.77530154884141
 21
159.20717866025649
 31
0.0
  0
LINE
  5
2640
  8
3
 10
244.8564291708602
 20
159.0809801371162
 30
0.0
 11
244.9015000719817
 21
159.13957230857429
 31
0.0
  0
LINE
  5
2641
  8
3
 10
244.77980863895351
 20
159.0809801371162
 30
0.0
 11
244.7843157290657
 21
159.07196595689189
 31
0.0
  0
LINE
  5
2642
  8
3
 10
244.7843157290657
 20
159.07196595689189
 30
0.0
 11
244.78882281917791
 21
159.0629517766676
 31
0.0
  0
LINE
  5
2643
  8
3
 10
244.78882281917791
 20
159.0629517766676
 30
0.0
 11
244.78882281917791
 21
159.0584446865555
 31
0.0
  0
LINE
  5
2644
  8
3
 10
244.78882281917791
 20
159.0584446865555
 30
0.0
 11
244.79332990928989
 21
159.0584446865555
 31
0.0
  0
LINE
  5
2645
  8
3
 10
244.79332990928989
 20
159.0584446865555
 30
0.0
 11
244.80234408951429
 21
159.05393759644329
 31
0.0
  0
LINE
  5
2646
  8
3
 10
244.80234408951429
 20
159.05393759644329
 30
0.0
 11
244.80685117962651
 21
159.05393759644329
 31
0.0
  0
LINE
  5
2647
  8
3
 10
244.80685117962651
 20
159.05393759644329
 30
0.0
 11
244.81135826973861
 21
159.05393759644329
 31
0.0
  0
LINE
  5
2648
  8
3
 10
244.81135826973861
 20
159.05393759644329
 30
0.0
 11
244.81586535985079
 21
159.0584446865555
 31
0.0
  0
LINE
  5
2649
  8
3
 10
244.81586535985079
 20
159.0584446865555
 30
0.0
 11
244.8248795400751
 21
159.0584446865555
 31
0.0
  0
LINE
  5
264A
  8
3
 10
244.8248795400751
 20
159.0584446865555
 30
0.0
 11
244.8293866301872
 21
159.0629517766676
 31
0.0
  0
LINE
  5
264B
  8
3
 10
244.8293866301872
 20
159.0629517766676
 30
0.0
 11
244.83389372029939
 21
159.0629517766676
 31
0.0
  0
LINE
  5
264C
  8
3
 10
244.83389372029939
 20
159.0629517766676
 30
0.0
 11
244.8384008104116
 21
159.06745886677979
 31
0.0
  0
LINE
  5
264D
  8
3
 10
244.8384008104116
 20
159.06745886677979
 30
0.0
 11
244.8474149906358
 21
159.07196595689189
 31
0.0
  0
LINE
  5
264E
  8
3
 10
244.8474149906358
 20
159.07196595689189
 30
0.0
 11
244.8519220807479
 21
159.07196595689189
 31
0.0
  0
LINE
  5
264F
  8
3
 10
244.8519220807479
 20
159.07196595689189
 30
0.0
 11
244.8564291708602
 21
159.0809801371162
 31
0.0
  0
LINE
  5
2650
  8
3
 10
244.9015000719817
 20
159.13957230857429
 30
0.0
 11
244.93755679287901
 21
159.2116857503687
 31
0.0
  0
LINE
  5
2651
  8
3
 10
244.77530154884141
 20
159.20717866025649
 30
0.0
 11
244.77980863895351
 21
159.0809801371162
 31
0.0
  0
LINE
  5
2652
  8
3
 10
245.56854940858071
 20
158.69337038747091
 30
0.0
 11
245.5550281382443
 21
158.6708349369101
 31
0.0
  0
LINE
  5
2653
  8
3
 10
245.5550281382443
 20
158.6708349369101
 30
0.0
 11
245.53699977779559
 21
158.64379239623719
 31
0.0
  0
LINE
  5
2654
  8
3
 10
245.53699977779559
 20
158.64379239623719
 30
0.0
 11
245.5144643272348
 21
158.62125694567641
 31
0.0
  0
LINE
  5
2655
  8
3
 10
245.6000990393658
 20
158.7429483787046
 30
0.0
 11
245.5865777690293
 21
158.71590583803169
 31
0.0
  0
LINE
  5
2656
  8
3
 10
245.5865777690293
 20
158.71590583803169
 30
0.0
 11
245.56854940858071
 21
158.69337038747091
 31
0.0
  0
LINE
  5
2657
  8
3
 10
245.78038264385199
 20
159.2432353811538
 30
0.0
 11
245.7668613735155
 21
159.1666148492472
 31
0.0
  0
LINE
  5
2658
  8
3
 10
245.78939682407631
 20
159.31985591306039
 30
0.0
 11
245.78038264385199
 21
159.2432353811538
 31
0.0
  0
LINE
  5
2659
  8
3
 10
245.70376211194531
 20
158.94126034363941
 30
0.0
 11
245.6767195712724
 21
158.8736539919571
 31
0.0
  0
LINE
  5
265A
  8
3
 10
245.7488330130669
 20
159.0899943173406
 30
0.0
 11
245.7308046526183
 21
159.01337378543391
 31
0.0
  0
LINE
  5
265B
  8
3
 10
245.7308046526183
 20
159.01337378543391
 30
0.0
 11
245.70376211194531
 21
158.94126034363941
 31
0.0
  0
LINE
  5
265C
  8
3
 10
245.7668613735155
 20
159.1666148492472
 30
0.0
 11
245.7488330130669
 21
159.0899943173406
 31
0.0
  0
LINE
  5
265D
  8
3
 10
244.77079445872931
 20
160.1311321332484
 30
0.0
 11
244.77530154884141
 21
160.06803287167821
 31
0.0
  0
LINE
  5
265E
  8
3
 10
245.01417732478561
 20
159.9283130782014
 30
0.0
 11
245.00967023467339
 21
160.01394779033231
 31
0.0
  0
LINE
  5
265F
  8
3
 10
244.77980863895351
 20
160.00493361010811
 30
0.0
 11
244.77980863895351
 21
159.9418343485379
 31
0.0
  0
LINE
  5
2660
  8
3
 10
245.01868441489771
 20
159.6533805813599
 30
0.0
 11
245.01868441489771
 21
159.74802947371521
 31
0.0
  0
LINE
  5
2661
  8
3
 10
244.77980863895351
 20
159.74352238360299
 30
0.0
 11
244.77980863895351
 21
159.67591603192071
 31
0.0
  0
LINE
  5
2662
  8
3
 10
245.00516314456129
 20
159.46858988676161
 30
0.0
 11
245.01417732478561
 21
159.55873168900459
 31
0.0
  0
LINE
  5
2663
  8
3
 10
245.01417732478561
 20
159.55873168900459
 30
0.0
 11
245.01868441489771
 21
159.6533805813599
 31
0.0
  0
LINE
  5
2664
  8
3
 10
244.77980863895351
 20
159.67591603192071
 30
0.0
 11
244.77980863895351
 21
159.60830968023839
 31
0.0
  0
LINE
  5
2665
  8
3
 10
244.77980863895351
 20
159.60830968023839
 30
0.0
 11
244.77980863895351
 21
159.54070332855611
 31
0.0
  0
LINE
  5
2666
  8
3
 10
244.77980863895351
 20
159.54070332855611
 30
0.0
 11
244.77530154884141
 21
159.47309697687371
 31
0.0
  0
LINE
  5
2667
  8
3
 10
244.77530154884141
 20
159.47309697687371
 30
0.0
 11
244.77530154884141
 21
159.40549062519139
 31
0.0
  0
LINE
  5
2668
  8
3
 10
245.01868441489771
 20
159.74802947371521
 30
0.0
 11
245.01868441489771
 21
159.8381712759583
 31
0.0
  0
LINE
  5
2669
  8
3
 10
245.01868441489771
 20
159.8381712759583
 30
0.0
 11
245.01417732478561
 21
159.9283130782014
 31
0.0
  0
LINE
  5
266A
  8
3
 10
244.77980863895351
 20
159.9418343485379
 30
0.0
 11
244.77980863895351
 21
159.8742279968555
 31
0.0
  0
LINE
  5
266B
  8
3
 10
244.77980863895351
 20
159.8742279968555
 30
0.0
 11
244.77980863895351
 21
159.81112873528531
 31
0.0
  0
LINE
  5
266C
  8
3
 10
244.77980863895351
 20
159.81112873528531
 30
0.0
 11
244.77980863895351
 21
159.74352238360299
 31
0.0
  0
LINE
  5
266D
  8
3
 10
245.00967023467339
 20
160.01394779033231
 30
0.0
 11
245.00516314456129
 21
160.09056832223899
 31
0.0
  0
LINE
  5
266E
  8
3
 10
244.77530154884141
 20
160.06803287167821
 30
0.0
 11
244.77980863895351
 21
160.00493361010811
 31
0.0
  0
LINE
  5
266F
  8
3
 10
245.69925502183321
 20
160.1446534035849
 30
0.0
 11
245.71277629216959
 21
160.1311321332484
 31
0.0
  0
LINE
  5
2670
  8
3
 10
245.71277629216959
 20
160.1311321332484
 30
0.0
 11
245.7262975625062
 21
160.1176108629119
 31
0.0
  0
LINE
  5
2671
  8
3
 10
245.7262975625062
 20
160.1176108629119
 30
0.0
 11
245.73531174273049
 21
160.09958250246331
 31
0.0
  0
LINE
  5
2672
  8
3
 10
245.73531174273049
 20
160.09958250246331
 30
0.0
 11
245.74432592295469
 21
160.08606123212681
 31
0.0
  0
LINE
  5
2673
  8
3
 10
245.74432592295469
 20
160.08606123212681
 30
0.0
 11
245.753340103179
 21
160.06803287167821
 31
0.0
  0
LINE
  5
2674
  8
3
 10
245.753340103179
 20
160.06803287167821
 30
0.0
 11
245.7623542834034
 21
160.05000451122959
 31
0.0
  0
LINE
  5
2675
  8
3
 10
245.7623542834034
 20
160.05000451122959
 30
0.0
 11
245.77136846362771
 21
160.03197615078091
 31
0.0
  0
LINE
  5
2676
  8
3
 10
245.78488973396421
 20
159.9959194298838
 30
0.0
 11
245.78939682407631
 21
159.96436979909859
 31
0.0
  0
LINE
  5
2677
  8
3
 10
245.79841100430059
 20
159.72098693304221
 30
0.0
 11
245.80291809441269
 21
159.63985931102351
 31
0.0
  0
LINE
  5
2678
  8
3
 10
245.80291809441269
 20
159.63985931102351
 30
0.0
 11
245.80291809441269
 21
159.5632387791168
 31
0.0
  0
LINE
  5
2679
  8
3
 10
245.80291809441269
 20
159.5632387791168
 30
0.0
 11
245.79841100430059
 21
159.48211115709799
 31
0.0
  0
LINE
  5
267A
  8
3
 10
245.79841100430059
 20
159.48211115709799
 30
0.0
 11
245.79390391418841
 21
159.40098353507921
 31
0.0
  0
LINE
  5
267B
  8
3
 10
245.79390391418841
 20
159.88324217707981
 30
0.0
 11
245.79841100430059
 21
159.802114555061
 31
0.0
  0
LINE
  5
267C
  8
3
 10
245.79841100430059
 20
159.802114555061
 30
0.0
 11
245.79841100430059
 21
159.72098693304221
 31
0.0
  0
LINE
  5
267D
  8
3
 10
245.78939682407631
 20
159.96436979909859
 30
0.0
 11
245.79390391418841
 21
159.88324217707981
 31
0.0
  0
LINE
  5
267E
  8
3
 10
245.77587555373981
 20
160.01394779033231
 30
0.0
 11
245.78488973396421
 21
159.9959194298838
 31
0.0
  0
LINE
  5
267F
  8
3
 10
245.77136846362771
 20
160.03197615078091
 30
0.0
 11
245.77587555373981
 21
160.01394779033231
 31
0.0
  0
LINE
  5
2680
  8
3
 10
242.8913378819606
 20
161.12269195792251
 30
0.0
 11
243.0626073062225
 21
161.12269195792251
 31
0.0
  0
LINE
  5
2681
  8
3
 10
243.67557156147549
 20
161.64100732082031
 30
0.0
 11
243.6350077504662
 21
161.690585312054
 31
0.0
  0
LINE
  5
2682
  8
3
 10
245.5144643272348
 20
161.68157113182971
 30
0.0
 11
245.47390051622551
 21
161.63650023070821
 31
0.0
  0
LINE
  5
2683
  8
3
 10
244.75727318839279
 20
161.2533975711749
 30
0.0
 11
244.7167093773833
 21
161.2533975711749
 31
0.0
  0
LINE
  5
2684
  8
3
 10
244.72572355760761
 20
161.14522740848321
 30
0.0
 11
244.81586535985079
 21
161.14522740848321
 31
0.0
  0
LINE
  5
2685
  8
3
 10
244.87896462142089
 20
160.3339511882954
 30
0.0
 11
244.7076951971591
 21
160.31592282784669
 31
0.0
  0
LINE
  5
2686
  8
3
 10
243.9775465989899
 20
160.31141573773459
 30
0.0
 11
243.77472754394299
 21
160.3204299179589
 31
0.0
  0
LINE
  5
2687
  8
3
 10
243.2834547217181
 20
160.19873848493069
 30
0.0
 11
244.0631813111209
 21
160.18972430470629
 31
0.0
  0
LINE
  5
2688
  8
3
 10
243.55838721855949
 20
160.324937008071
 30
0.0
 11
243.44570996575561
 21
160.32719055312711
 31
0.0
  0
LINE
  5
2689
  8
3
 10
243.77472754394299
 20
160.3204299179589
 30
0.0
 11
243.55838721855949
 21
160.324937008071
 31
0.0
  0
LINE
  5
268A
  8
3
 10
244.35614216841091
 20
160.30240155751019
 30
0.0
 11
244.16684438370049
 21
160.30690864762241
 31
0.0
  0
LINE
  5
268B
  8
3
 10
244.16684438370049
 20
160.30690864762241
 30
0.0
 11
243.9775465989899
 21
160.31141573773459
 31
0.0
  0
LINE
  5
268C
  8
3
 10
244.7076951971591
 20
160.31592282784669
 30
0.0
 11
244.531918682785
 21
160.30690864762241
 31
0.0
  0
LINE
  5
268D
  8
3
 10
244.531918682785
 20
160.30690864762241
 30
0.0
 11
244.35614216841091
 21
160.30240155751019
 31
0.0
  0
LINE
  5
268E
  8
3
 10
243.80627717472811
 20
161.1317061381468
 30
0.0
 11
243.9910678693264
 21
161.1317061381468
 31
0.0
  0
LINE
  5
268F
  8
3
 10
243.86937643629821
 20
161.46072371633409
 30
0.0
 11
243.81529135495231
 21
161.50128752734349
 31
0.0
  0
LINE
  5
2690
  8
3
 10
243.0626073062225
 20
161.12269195792251
 30
0.0
 11
243.24739800082091
 21
161.12269195792251
 31
0.0
  0
LINE
  5
2691
  8
3
 10
243.24739800082091
 20
161.12269195792251
 30
0.0
 11
243.4321886954192
 21
161.12719904803461
 31
0.0
  0
LINE
  5
2692
  8
3
 10
243.4321886954192
 20
161.12719904803461
 30
0.0
 11
243.62148648012959
 21
161.12719904803461
 31
0.0
  0
LINE
  5
2693
  8
3
 10
243.76571336371859
 20
161.546358428465
 30
0.0
 11
243.72064246259711
 21
161.59142932958659
 31
0.0
  0
LINE
  5
2694
  8
3
 10
243.72064246259711
 20
161.59142932958659
 30
0.0
 11
243.67557156147549
 21
161.64100732082031
 31
0.0
  0
LINE
  5
2695
  8
3
 10
243.62148648012959
 20
161.12719904803461
 30
0.0
 11
243.80627717472811
 21
161.1317061381468
 31
0.0
  0
LINE
  5
2696
  8
3
 10
243.81529135495231
 20
161.50128752734349
 30
0.0
 11
243.76571336371859
 21
161.546358428465
 31
0.0
  0
LINE
  5
2697
  8
3
 10
244.50938323222431
 20
161.2488904810628
 30
0.0
 11
244.46881942121479
 21
161.2533975711749
 31
0.0
  0
LINE
  5
2698
  8
3
 10
244.46881942121479
 20
161.2533975711749
 30
0.0
 11
244.4327627003176
 21
161.2533975711749
 31
0.0
  0
LINE
  5
2699
  8
3
 10
244.4327627003176
 20
161.2533975711749
 30
0.0
 11
244.39219888930819
 21
161.25790466128711
 31
0.0
  0
LINE
  5
269A
  8
3
 10
244.39219888930819
 20
161.25790466128711
 30
0.0
 11
244.35163507829881
 21
161.2669188415114
 31
0.0
  0
LINE
  5
269B
  8
3
 10
244.35163507829881
 20
161.2669188415114
 30
0.0
 11
244.31107126728941
 21
161.27142593162361
 31
0.0
  0
LINE
  5
269C
  8
3
 10
244.31107126728941
 20
161.27142593162361
 30
0.0
 11
244.27050745628
 21
161.28044011184789
 31
0.0
  0
LINE
  5
269D
  8
3
 10
244.27050745628
 20
161.28044011184789
 30
0.0
 11
244.23445073538281
 21
161.28945429207221
 31
0.0
  0
LINE
  5
269E
  8
3
 10
243.9910678693264
 20
161.1317061381468
 30
0.0
 11
244.16233729358831
 21
161.1362132282589
 31
0.0
  0
LINE
  5
269F
  8
3
 10
244.16233729358831
 20
161.1362132282589
 30
0.0
 11
244.329099627738
 21
161.1362132282589
 31
0.0
  0
LINE
  5
26A0
  8
3
 10
244.329099627738
 20
161.1362132282589
 30
0.0
 11
244.4778336014391
 21
161.1362132282589
 31
0.0
  0
LINE
  5
26A1
  8
3
 10
243.90543315719549
 20
161.43818826577331
 30
0.0
 11
243.86937643629821
 21
161.46072371633409
 31
0.0
  0
LINE
  5
26A2
  8
3
 10
243.94148987809271
 20
161.42015990532471
 30
0.0
 11
243.92346151764411
 21
161.42917408554899
 31
0.0
  0
LINE
  5
26A3
  8
3
 10
243.92346151764411
 20
161.42917408554899
 30
0.0
 11
243.90543315719549
 21
161.43818826577331
 31
0.0
  0
LINE
  5
26A4
  8
3
 10
244.23445073538281
 20
161.28945429207221
 30
0.0
 11
244.15332311336391
 21
161.31198974263299
 31
0.0
  0
LINE
  5
26A5
  8
3
 10
244.15332311336391
 20
161.31198974263299
 30
0.0
 11
244.1398018430275
 21
161.3210039228573
 31
0.0
  0
LINE
  5
26A6
  8
3
 10
244.1398018430275
 20
161.3210039228573
 30
0.0
 11
244.1217734825789
 21
161.33001810308161
 31
0.0
  0
LINE
  5
26A7
  8
3
 10
244.1217734825789
 20
161.33001810308161
 30
0.0
 11
244.10374512213031
 21
161.3390322833059
 31
0.0
  0
LINE
  5
26A8
  8
3
 10
244.10374512213031
 20
161.3390322833059
 30
0.0
 11
244.08571676168171
 21
161.34804646353021
 31
0.0
  0
LINE
  5
26A9
  8
3
 10
244.08571676168171
 20
161.34804646353021
 30
0.0
 11
244.06768840123311
 21
161.35706064375449
 31
0.0
  0
LINE
  5
26AA
  8
3
 10
244.06768840123311
 20
161.35706064375449
 30
0.0
 11
244.0496600407844
 21
161.36607482397881
 31
0.0
  0
LINE
  5
26AB
  8
3
 10
244.0496600407844
 20
161.36607482397881
 30
0.0
 11
244.03163168033589
 21
161.3750890042032
 31
0.0
  0
LINE
  5
26AC
  8
3
 10
244.03163168033589
 20
161.3750890042032
 30
0.0
 11
244.01360331988721
 21
161.38410318442749
 31
0.0
  0
LINE
  5
26AD
  8
3
 10
244.01360331988721
 20
161.38410318442749
 30
0.0
 11
243.9955749594385
 21
161.3931173646518
 31
0.0
  0
LINE
  5
26AE
  8
3
 10
243.9955749594385
 20
161.3931173646518
 30
0.0
 11
243.9775465989899
 21
161.402131544876
 31
0.0
  0
LINE
  5
26AF
  8
3
 10
243.9775465989899
 20
161.402131544876
 30
0.0
 11
243.95951823854131
 21
161.4111457251004
 31
0.0
  0
LINE
  5
26B0
  8
3
 10
243.95951823854131
 20
161.4111457251004
 30
0.0
 11
243.94148987809271
 21
161.42015990532471
 31
0.0
  0
LINE
  5
26B1
  8
3
 10
244.7167093773833
 20
161.2533975711749
 30
0.0
 11
244.676145566374
 21
161.2488904810628
 31
0.0
  0
LINE
  5
26B2
  8
3
 10
244.676145566374
 20
161.2488904810628
 30
0.0
 11
244.6355817553646
 21
161.2488904810628
 31
0.0
  0
LINE
  5
26B3
  8
3
 10
244.6355817553646
 20
161.2488904810628
 30
0.0
 11
244.59051085424309
 21
161.2488904810628
 31
0.0
  0
LINE
  5
26B4
  8
3
 10
244.59051085424309
 20
161.2488904810628
 30
0.0
 11
244.54994704323369
 21
161.2488904810628
 31
0.0
  0
LINE
  5
26B5
  8
3
 10
244.6130463048037
 20
161.14072031837111
 30
0.0
 11
244.72572355760761
 21
161.14522740848321
 31
0.0
  0
LINE
  5
26B6
  8
3
 10
244.54994704323369
 20
161.2488904810628
 30
0.0
 11
244.50938323222431
 21
161.2488904810628
 31
0.0
  0
LINE
  5
26B7
  8
3
 10
244.4778336014391
 20
161.1362132282589
 30
0.0
 11
244.6130463048037
 21
161.14072031837111
 31
0.0
  0
LINE
  5
26B8
  8
3
 10
245.79841100430059
 20
161.63650023070821
 30
0.0
 11
245.79841100430059
 21
160.65395458625829
 31
0.0
  0
LINE
  5
26B9
  8
3
 10
245.5460139580199
 20
160.22127393549141
 30
0.0
 11
245.62263448992661
 21
160.20324557504281
 31
0.0
  0
LINE
  5
26BA
  8
3
 10
245.7488330130669
 20
160.60437659502469
 30
0.0
 11
245.56854940858071
 21
160.51874188289369
 31
0.0
  0
LINE
  5
26BB
  8
3
 10
245.05023404568291
 20
160.36099372896831
 30
0.0
 11
244.87896462142089
 21
160.3339511882954
 31
0.0
  0
LINE
  5
26BC
  8
3
 10
244.99614896433701
 20
160.2257810256036
 30
0.0
 11
244.99164187422471
 21
160.31592282784669
 31
0.0
  0
LINE
  5
26BD
  8
3
 10
244.99164187422471
 20
160.31592282784669
 30
0.0
 11
245.02319150500989
 21
160.30240155751019
 31
0.0
  0
LINE
  5
26BE
  8
3
 10
245.00065605444919
 20
160.16268176403349
 30
0.0
 11
244.99614896433701
 21
160.2257810256036
 31
0.0
  0
LINE
  5
26BF
  8
3
 10
245.09530494680439
 20
160.28888028717381
 30
0.0
 11
245.13136166770161
 21
160.2798661069495
 31
0.0
  0
LINE
  5
26C0
  8
3
 10
245.1674183885988
 20
160.27535901683731
 30
0.0
 11
245.2079821996083
 21
160.27085192672519
 31
0.0
  0
LINE
  5
26C1
  8
3
 10
245.2079821996083
 20
160.27085192672519
 30
0.0
 11
245.2485460106177
 21
160.26183774650079
 31
0.0
  0
LINE
  5
26C2
  8
3
 10
245.13136166770161
 20
160.2798661069495
 30
0.0
 11
245.1674183885988
 21
160.27535901683731
 31
0.0
  0
LINE
  5
26C3
  8
3
 10
245.0592482259072
 20
160.293387377286
 30
0.0
 11
245.09530494680439
 21
160.28888028717381
 31
0.0
  0
LINE
  5
26C4
  8
3
 10
245.22150346994479
 20
160.40155753997769
 30
0.0
 11
245.05023404568291
 21
160.36099372896831
 31
0.0
  0
LINE
  5
26C5
  8
3
 10
245.02319150500989
 20
160.30240155751019
 30
0.0
 11
245.0592482259072
 21
160.293387377286
 31
0.0
  0
LINE
  5
26C6
  8
3
 10
245.29361691173921
 20
160.25733065638869
 30
0.0
 11
245.33418072274861
 21
160.2528235662765
 31
0.0
  0
LINE
  5
26C7
  8
3
 10
245.33418072274861
 20
160.2528235662765
 30
0.0
 11
245.37925162387009
 21
160.2483164761644
 31
0.0
  0
LINE
  5
26C8
  8
3
 10
245.37925162387009
 20
160.2483164761644
 30
0.0
 11
245.41981543487961
 21
160.24380938605219
 31
0.0
  0
LINE
  5
26C9
  8
3
 10
245.41981543487961
 20
160.24380938605219
 30
0.0
 11
245.4648863360012
 21
160.23479520582791
 31
0.0
  0
LINE
  5
26CA
  8
3
 10
245.4648863360012
 20
160.23479520582791
 30
0.0
 11
245.50545014701049
 21
160.23028811571569
 31
0.0
  0
LINE
  5
26CB
  8
3
 10
245.50545014701049
 20
160.23028811571569
 30
0.0
 11
245.5460139580199
 21
160.22127393549141
 31
0.0
  0
LINE
  5
26CC
  8
3
 10
245.56854940858071
 20
160.51874188289369
 30
0.0
 11
245.39277289420659
 21
160.45113553121141
 31
0.0
  0
LINE
  5
26CD
  8
3
 10
245.2485460106177
 20
160.26183774650079
 30
0.0
 11
245.29361691173921
 21
160.25733065638869
 31
0.0
  0
LINE
  5
26CE
  8
3
 10
245.39277289420659
 20
160.45113553121141
 30
0.0
 11
245.22150346994479
 21
160.40155753997769
 31
0.0
  0
LINE
  5
26CF
  8
3
 10
245.62263448992661
 20
160.20324557504281
 30
0.0
 11
245.64066285037521
 21
160.18972430470629
 31
0.0
  0
LINE
  5
26D0
  8
3
 10
245.79841100430059
 20
160.65395458625829
 30
0.0
 11
245.79841100430059
 21
160.64944749614619
 31
0.0
  0
LINE
  5
26D1
  8
3
 10
245.79841100430059
 20
160.64944749614619
 30
0.0
 11
245.79390391418841
 21
160.64494040603401
 31
0.0
  0
LINE
  5
26D2
  8
3
 10
245.79390391418841
 20
160.64494040603401
 30
0.0
 11
245.78939682407631
 21
160.64494040603401
 31
0.0
  0
LINE
  5
26D3
  8
3
 10
245.78939682407631
 20
160.64494040603401
 30
0.0
 11
245.78488973396421
 21
160.64494040603401
 31
0.0
  0
LINE
  5
26D4
  8
3
 10
245.78488973396421
 20
160.64494040603401
 30
0.0
 11
245.78038264385199
 21
160.64043331592191
 31
0.0
  0
LINE
  5
26D5
  8
3
 10
245.78038264385199
 20
160.64043331592191
 30
0.0
 11
245.77587555373981
 21
160.64043331592191
 31
0.0
  0
LINE
  5
26D6
  8
3
 10
245.77587555373981
 20
160.64043331592191
 30
0.0
 11
245.77136846362771
 21
160.6359262258097
 31
0.0
  0
LINE
  5
26D7
  8
3
 10
245.77136846362771
 20
160.6359262258097
 30
0.0
 11
245.7668613735155
 21
160.6359262258097
 31
0.0
  0
LINE
  5
26D8
  8
3
 10
245.7668613735155
 20
160.6359262258097
 30
0.0
 11
245.7578471932911
 21
160.6359262258097
 31
0.0
  0
LINE
  5
26D9
  8
3
 10
245.7578471932911
 20
160.6359262258097
 30
0.0
 11
245.7578471932911
 21
160.6314191356976
 31
0.0
  0
LINE
  5
26DA
  8
3
 10
245.7578471932911
 20
160.6314191356976
 30
0.0
 11
245.7578471932911
 21
160.62691204558541
 31
0.0
  0
LINE
  5
26DB
  8
3
 10
245.7578471932911
 20
160.62691204558541
 30
0.0
 11
245.7578471932911
 21
160.6224049554732
 31
0.0
  0
LINE
  5
26DC
  8
3
 10
245.7578471932911
 20
160.6224049554732
 30
0.0
 11
245.753340103179
 21
160.6224049554732
 31
0.0
  0
LINE
  5
26DD
  8
3
 10
245.753340103179
 20
160.6224049554732
 30
0.0
 11
245.753340103179
 21
160.6178978653611
 31
0.0
  0
LINE
  5
26DE
  8
3
 10
245.753340103179
 20
160.6178978653611
 30
0.0
 11
245.753340103179
 21
160.61339077524889
 31
0.0
  0
LINE
  5
26DF
  8
3
 10
245.753340103179
 20
160.61339077524889
 30
0.0
 11
245.753340103179
 21
160.60888368513679
 31
0.0
  0
LINE
  5
26E0
  8
3
 10
245.753340103179
 20
160.60888368513679
 30
0.0
 11
245.7488330130669
 21
160.60437659502469
 31
0.0
  0
LINE
  5
26E1
  8
3
 10
245.65869121082369
 20
160.180710124482
 30
0.0
 11
245.6722124811603
 21
160.17169594425769
 31
0.0
  0
LINE
  5
26E2
  8
3
 10
245.6722124811603
 20
160.17169594425769
 30
0.0
 11
245.68573375149671
 21
160.15817467392131
 31
0.0
  0
LINE
  5
26E3
  8
3
 10
245.64066285037521
 20
160.18972430470629
 30
0.0
 11
245.65869121082369
 21
160.180710124482
 31
0.0
  0
LINE
  5
26E4
  8
3
 10
245.59559194925359
 20
161.4562166262219
 30
0.0
 11
245.6181273998144
 21
161.4742449866705
 31
0.0
  0
LINE
  5
26E5
  8
3
 10
244.79783699940219
 20
161.2624117513993
 30
0.0
 11
244.75727318839279
 21
161.2533975711749
 31
0.0
  0
LINE
  5
26E6
  8
3
 10
244.9195284324303
 20
161.29396138218431
 30
0.0
 11
244.79783699940219
 21
161.2624117513993
 31
0.0
  0
LINE
  5
26E7
  8
3
 10
244.9781206038883
 20
161.16776285904399
 30
0.0
 11
245.00967023467339
 21
161.1767770392683
 31
0.0
  0
LINE
  5
26E8
  8
3
 10
245.00967023467339
 20
161.1767770392683
 30
0.0
 11
245.03671277534639
 21
161.1857912194927
 31
0.0
  0
LINE
  5
26E9
  8
3
 10
244.9195284324303
 20
161.15424158870761
 30
0.0
 11
244.9510780632155
 21
161.15874867881971
 31
0.0
  0
LINE
  5
26EA
  8
3
 10
244.9510780632155
 20
161.15874867881971
 30
0.0
 11
244.9781206038883
 21
161.16776285904399
 31
0.0
  0
LINE
  5
26EB
  8
3
 10
244.81586535985079
 20
161.14522740848321
 30
0.0
 11
244.9195284324303
 21
161.15424158870761
 31
0.0
  0
LINE
  5
26EC
  8
3
 10
245.03671277534639
 20
161.3345251931938
 30
0.0
 11
244.9781206038883
 21
161.31198974263299
 31
0.0
  0
LINE
  5
26ED
  8
3
 10
244.9781206038883
 20
161.31198974263299
 30
0.0
 11
244.9195284324303
 21
161.29396138218431
 31
0.0
  0
LINE
  5
26EE
  8
3
 10
245.14488293803811
 20
161.38410318442749
 30
0.0
 11
245.09079785669221
 21
161.35706064375449
 31
0.0
  0
LINE
  5
26EF
  8
3
 10
245.09530494680439
 20
161.2038195799413
 30
0.0
 11
245.1223474874773
 21
161.21283376016561
 31
0.0
  0
LINE
  5
26F0
  8
3
 10
245.19446092927191
 20
161.4111457251004
 30
0.0
 11
245.14488293803811
 21
161.38410318442749
 31
0.0
  0
LINE
  5
26F1
  8
3
 10
245.14939002815029
 20
161.22184794038981
 30
0.0
 11
245.17643256882329
 21
161.2308621206142
 31
0.0
  0
LINE
  5
26F2
  8
3
 10
245.2485460106177
 20
161.44269535588541
 30
0.0
 11
245.19446092927191
 21
161.4111457251004
 31
0.0
  0
LINE
  5
26F3
  8
3
 10
245.23051765016899
 20
161.2488904810628
 30
0.0
 11
245.25756019084201
 21
161.2624117513993
 31
0.0
  0
LINE
  5
26F4
  8
3
 10
245.25756019084201
 20
161.2624117513993
 30
0.0
 11
245.28009564140271
 21
161.27142593162361
 31
0.0
  0
LINE
  5
26F5
  8
3
 10
245.17643256882329
 20
161.2308621206142
 30
0.0
 11
245.20347510949611
 21
161.23987630083849
 31
0.0
  0
LINE
  5
26F6
  8
3
 10
245.20347510949611
 20
161.23987630083849
 30
0.0
 11
245.23051765016899
 21
161.2488904810628
 31
0.0
  0
LINE
  5
26F7
  8
3
 10
245.1223474874773
 20
161.21283376016561
 30
0.0
 11
245.14939002815029
 21
161.22184794038981
 31
0.0
  0
LINE
  5
26F8
  8
3
 10
245.06826240613151
 20
161.1948053997169
 30
0.0
 11
245.09530494680439
 21
161.2038195799413
 31
0.0
  0
LINE
  5
26F9
  8
3
 10
245.09079785669221
 20
161.35706064375449
 30
0.0
 11
245.03671277534639
 21
161.3345251931938
 31
0.0
  0
LINE
  5
26FA
  8
3
 10
245.03671277534639
 20
161.1857912194927
 30
0.0
 11
245.06826240613151
 21
161.1948053997169
 31
0.0
  0
LINE
  5
26FB
  8
3
 10
245.43333670521599
 20
161.59142932958659
 30
0.0
 11
245.3882658040944
 21
161.55086551857721
 31
0.0
  0
LINE
  5
26FC
  8
3
 10
245.3882658040944
 20
161.55086551857721
 30
0.0
 11
245.3431949029729
 21
161.51030170756781
 31
0.0
  0
LINE
  5
26FD
  8
3
 10
245.3431949029729
 20
161.51030170756781
 30
0.0
 11
245.29361691173921
 21
161.47875207678271
 31
0.0
  0
LINE
  5
26FE
  8
3
 10
245.47390051622551
 20
161.63650023070821
 30
0.0
 11
245.43333670521599
 21
161.59142932958659
 31
0.0
  0
LINE
  5
26FF
  8
3
 10
245.34770199308511
 20
161.3074826525208
 30
0.0
 11
245.3837587139823
 21
161.3210039228573
 31
0.0
  0
LINE
  5
2700
  8
3
 10
245.3837587139823
 20
161.3210039228573
 30
0.0
 11
245.41981543487961
 21
161.3390322833059
 31
0.0
  0
LINE
  5
2701
  8
3
 10
245.41981543487961
 20
161.3390322833059
 30
0.0
 11
245.4513650656647
 21
161.35706064375449
 31
0.0
  0
LINE
  5
2702
  8
3
 10
245.4513650656647
 20
161.35706064375449
 30
0.0
 11
245.4829146964498
 21
161.3750890042032
 31
0.0
  0
LINE
  5
2703
  8
3
 10
245.4829146964498
 20
161.3750890042032
 30
0.0
 11
245.50995723712271
 21
161.3931173646518
 31
0.0
  0
LINE
  5
2704
  8
3
 10
245.50995723712271
 20
161.3931173646518
 30
0.0
 11
245.54150686790771
 21
161.41565281521261
 31
0.0
  0
LINE
  5
2705
  8
3
 10
245.54150686790771
 20
161.41565281521261
 30
0.0
 11
245.56854940858071
 21
161.43368117566109
 31
0.0
  0
LINE
  5
2706
  8
3
 10
245.56854940858071
 20
161.43368117566109
 30
0.0
 11
245.59559194925359
 21
161.4562166262219
 31
0.0
  0
LINE
  5
2707
  8
3
 10
245.30713818207559
 20
161.28044011184789
 30
0.0
 11
245.34770199308511
 21
161.3074826525208
 31
0.0
  0
LINE
  5
2708
  8
3
 10
245.29361691173921
 20
161.47875207678271
 30
0.0
 11
245.2485460106177
 21
161.44269535588541
 31
0.0
  0
LINE
  5
2709
  8
3
 10
245.28009564140271
 20
161.27142593162361
 30
0.0
 11
245.30713818207559
 21
161.28044011184789
 31
0.0
  0
LINE
  5
270A
  8
3
 10
245.6181273998144
 20
161.4742449866705
 30
0.0
 11
245.64516994048731
 21
161.49678043723131
 31
0.0
  0
LINE
  5
270B
  8
3
 10
245.64516994048731
 20
161.49678043723131
 30
0.0
 11
245.6722124811603
 21
161.51931588779209
 31
0.0
  0
LINE
  5
270C
  8
3
 10
245.6722124811603
 20
161.51931588779209
 30
0.0
 11
245.69474793172111
 21
161.5418513383529
 31
0.0
  0
LINE
  5
270D
  8
3
 10
245.69474793172111
 20
161.5418513383529
 30
0.0
 11
245.72179047239391
 21
161.56438678891371
 31
0.0
  0
LINE
  5
270E
  8
3
 10
245.72179047239391
 20
161.56438678891371
 30
0.0
 11
245.7488330130669
 21
161.5869222394744
 31
0.0
  0
LINE
  5
270F
  8
3
 10
245.7488330130669
 20
161.5869222394744
 30
0.0
 11
245.79841100430059
 21
161.63650023070821
 31
0.0
  0
LINE
  5
2710
  8
3
 10
244.1217734825789
 20
162.48383317179329
 30
0.0
 11
244.1398018430275
 21
162.42073391022311
 31
0.0
  0
LINE
  5
2711
  8
3
 10
243.35106107340039
 20
162.3981984596623
 30
0.0
 11
243.35106107340039
 21
162.40270554977451
 31
0.0
  0
LINE
  5
2712
  8
3
 10
243.35106107340039
 20
162.40270554977451
 30
0.0
 11
243.35106107340039
 21
162.40721263988661
 31
0.0
  0
LINE
  5
2713
  8
3
 10
243.35106107340039
 20
162.40721263988661
 30
0.0
 11
243.3465539832882
 21
162.41622682011101
 31
0.0
  0
LINE
  5
2714
  8
3
 10
243.3465539832882
 20
162.41622682011101
 30
0.0
 11
243.3465539832882
 21
162.41622682011101
 31
0.0
  0
LINE
  5
2715
  8
3
 10
243.35106107340039
 20
162.3936913695502
 30
0.0
 11
243.35106107340039
 21
162.3981984596623
 31
0.0
  0
LINE
  5
2716
  8
3
 10
243.3555681635126
 20
162.38467718932591
 30
0.0
 11
243.3555681635126
 21
162.38918427943801
 31
0.0
  0
LINE
  5
2717
  8
3
 10
243.3555681635126
 20
162.38918427943801
 30
0.0
 11
243.3555681635126
 21
162.3936913695502
 31
0.0
  0
LINE
  5
2718
  8
3
 10
243.3555681635126
 20
162.3936913695502
 30
0.0
 11
243.35106107340039
 21
162.3936913695502
 31
0.0
  0
LINE
  5
2719
  8
3
 10
243.3600752536247
 20
162.3756630091016
 30
0.0
 11
243.3600752536247
 21
162.3801700992137
 31
0.0
  0
LINE
  5
271A
  8
3
 10
243.3600752536247
 20
162.3801700992137
 30
0.0
 11
243.3555681635126
 21
162.38467718932591
 31
0.0
  0
LINE
  5
271B
  8
3
 10
243.44570996575561
 20
162.01960289024129
 30
0.0
 11
243.4231745151948
 21
162.0827021518115
 31
0.0
  0
LINE
  5
271C
  8
3
 10
243.46824541631651
 20
161.96101071878331
 30
0.0
 11
243.44570996575561
 21
162.01960289024129
 31
0.0
  0
LINE
  5
271D
  8
3
 10
243.55838721855949
 20
161.79424838463359
 30
0.0
 11
243.52683758777451
 21
161.84833346597941
 31
0.0
  0
LINE
  5
271E
  8
3
 10
243.52683758777451
 20
161.84833346597941
 30
0.0
 11
243.4952879569893
 21
161.90241854732531
 31
0.0
  0
LINE
  5
271F
  8
3
 10
243.4952879569893
 20
161.90241854732531
 30
0.0
 11
243.46824541631651
 21
161.96101071878331
 31
0.0
  0
LINE
  5
2720
  8
3
 10
243.4231745151948
 20
162.0827021518115
 30
0.0
 11
243.40514615474621
 21
162.14580141338161
 31
0.0
  0
LINE
  5
2721
  8
3
 10
243.40514615474621
 20
162.14580141338161
 30
0.0
 11
243.3871177942975
 21
162.20890067495179
 31
0.0
  0
LINE
  5
2722
  8
3
 10
243.3600752536247
 20
162.34862046842861
 30
0.0
 11
243.3600752536247
 21
162.35312755854079
 31
0.0
  0
LINE
  5
2723
  8
3
 10
243.3600752536247
 20
162.35312755854079
 30
0.0
 11
243.3600752536247
 21
162.35763464865289
 31
0.0
  0
LINE
  5
2724
  8
3
 10
243.3600752536247
 20
162.35763464865289
 30
0.0
 11
243.3600752536247
 21
162.3621417387651
 31
0.0
  0
LINE
  5
2725
  8
3
 10
243.3600752536247
 20
162.3621417387651
 30
0.0
 11
243.3600752536247
 21
162.37115591898939
 31
0.0
  0
LINE
  5
2726
  8
3
 10
243.3871177942975
 20
162.20890067495179
 30
0.0
 11
243.3555681635126
 21
162.34411337831651
 31
0.0
  0
LINE
  5
2727
  8
3
 10
243.3555681635126
 20
162.34411337831651
 30
0.0
 11
243.3600752536247
 21
162.34862046842861
 31
0.0
  0
LINE
  5
2728
  8
3
 10
243.3600752536247
 20
162.37115591898939
 30
0.0
 11
243.3600752536247
 21
162.3756630091016
 31
0.0
  0
LINE
  5
2729
  8
3
 10
243.6350077504662
 20
161.690585312054
 30
0.0
 11
243.5944439394568
 21
161.74016330328769
 31
0.0
  0
LINE
  5
272A
  8
3
 10
243.5944439394568
 20
161.74016330328769
 30
0.0
 11
243.55838721855949
 21
161.79424838463359
 31
0.0
  0
LINE
  5
272B
  8
3
 10
244.1398018430275
 20
162.42073391022311
 30
0.0
 11
244.16233729358831
 21
162.35763464865289
 31
0.0
  0
LINE
  5
272C
  8
3
 10
244.16233729358831
 20
162.35763464865289
 30
0.0
 11
244.18937983426119
 21
162.29453538708279
 31
0.0
  0
LINE
  5
272D
  8
3
 10
244.18937983426119
 20
162.29453538708279
 30
0.0
 11
244.27050745628
 21
162.1908723145032
 31
0.0
  0
LINE
  5
272E
  8
3
 10
244.27050745628
 20
162.1908723145032
 30
0.0
 11
244.27501454639221
 21
162.1908723145032
 31
0.0
  0
LINE
  5
272F
  8
3
 10
244.27501454639221
 20
162.1908723145032
 30
0.0
 11
244.27952163650431
 21
162.1908723145032
 31
0.0
  0
LINE
  5
2730
  8
3
 10
244.27952163650431
 20
162.1908723145032
 30
0.0
 11
244.2840287266165
 21
162.1908723145032
 31
0.0
  0
LINE
  5
2731
  8
3
 10
244.2840287266165
 20
162.1908723145032
 30
0.0
 11
244.2885358167286
 21
162.1908723145032
 31
0.0
  0
LINE
  5
2732
  8
3
 10
244.2885358167286
 20
162.1908723145032
 30
0.0
 11
244.2885358167286
 21
162.19537940461541
 31
0.0
  0
LINE
  5
2733
  8
3
 10
244.2885358167286
 20
162.19537940461541
 30
0.0
 11
244.29304290684081
 21
162.19537940461541
 31
0.0
  0
LINE
  5
2734
  8
3
 10
244.29304290684081
 20
162.19537940461541
 30
0.0
 11
244.29304290684081
 21
162.19988649472751
 31
0.0
  0
LINE
  5
2735
  8
3
 10
244.29304290684081
 20
162.19988649472751
 30
0.0
 11
244.29754999695299
 21
162.19988649472751
 31
0.0
  0
LINE
  5
2736
  8
3
 10
244.29754999695299
 20
162.19988649472751
 30
0.0
 11
244.29754999695299
 21
162.20439358483969
 31
0.0
  0
LINE
  5
2737
  8
3
 10
244.29754999695299
 20
162.20439358483969
 30
0.0
 11
244.29754999695299
 21
162.21340776506401
 31
0.0
  0
LINE
  5
2738
  8
3
 10
244.10825221224249
 20
163.14637541828009
 30
0.0
 11
244.10825221224249
 21
163.07426197648559
 31
0.0
  0
LINE
  5
2739
  8
3
 10
244.10374512213031
 20
162.76777984885899
 30
0.0
 11
244.10374512213031
 21
162.69566640706449
 31
0.0
  0
LINE
  5
273A
  8
3
 10
244.10374512213031
 20
162.84440038076571
 30
0.0
 11
244.10374512213031
 21
162.76777984885899
 31
0.0
  0
LINE
  5
273B
  8
3
 10
244.10825221224249
 20
162.9976414445789
 30
0.0
 11
244.10374512213031
 21
162.9210209126723
 31
0.0
  0
LINE
  5
273C
  8
3
 10
244.10374512213031
 20
162.9210209126723
 30
0.0
 11
244.10374512213031
 21
162.84440038076571
 31
0.0
  0
LINE
  5
273D
  8
3
 10
244.10825221224249
 20
163.07426197648559
 30
0.0
 11
244.10825221224249
 21
162.9976414445789
 31
0.0
  0
LINE
  5
273E
  8
3
 10
244.10374512213031
 20
162.62355296527011
 30
0.0
 11
244.11275930235459
 21
162.55143952347561
 31
0.0
  0
LINE
  5
273F
  8
3
 10
244.11275930235459
 20
162.55143952347561
 30
0.0
 11
244.1217734825789
 21
162.48383317179329
 31
0.0
  0
LINE
  5
2740
  8
3
 10
244.10374512213031
 20
162.69566640706449
 30
0.0
 11
244.10374512213031
 21
162.62355296527011
 31
0.0
  0
LINE
  5
2741
  8
3
 10
245.07727658635579
 20
162.42073391022311
 30
0.0
 11
245.09079785669221
 21
162.50186153224189
 31
0.0
  0
LINE
  5
2742
  8
3
 10
245.82996063508571
 20
162.48834026190551
 30
0.0
 11
245.82094645486131
 21
162.42524100033529
 31
0.0
  0
LINE
  5
2743
  8
3
 10
245.6181273998144
 20
161.83030510553081
 30
0.0
 11
245.5865777690293
 21
161.78523420440931
 31
0.0
  0
LINE
  5
2744
  8
3
 10
244.9781206038883
 20
162.28101411674629
 30
0.0
 11
244.99614896433701
 21
162.29904247719489
 31
0.0
  0
LINE
  5
2745
  8
3
 10
244.99614896433701
 20
162.29904247719489
 30
0.0
 11
245.00967023467339
 21
162.3215779277557
 31
0.0
  0
LINE
  5
2746
  8
3
 10
245.00967023467339
 20
162.3215779277557
 30
0.0
 11
245.02769859512199
 21
162.33960628820441
 31
0.0
  0
LINE
  5
2747
  8
3
 10
245.02769859512199
 20
162.33960628820441
 30
0.0
 11
245.04121986545849
 21
162.3621417387651
 31
0.0
  0
LINE
  5
2748
  8
3
 10
245.04121986545849
 20
162.3621417387651
 30
0.0
 11
245.05023404568291
 21
162.3801700992137
 31
0.0
  0
LINE
  5
2749
  8
3
 10
244.9105142522061
 20
162.20890067495179
 30
0.0
 11
244.92854261265461
 21
162.2269290354005
 31
0.0
  0
LINE
  5
274A
  8
3
 10
244.92854261265461
 20
162.2269290354005
 30
0.0
 11
244.94206388299119
 21
162.24045030573691
 31
0.0
  0
LINE
  5
274B
  8
3
 10
244.94206388299119
 20
162.24045030573691
 30
0.0
 11
244.9600922434397
 21
162.2629857562977
 31
0.0
  0
LINE
  5
274C
  8
3
 10
244.9600922434397
 20
162.2629857562977
 30
0.0
 11
244.9781206038883
 21
162.28101411674629
 31
0.0
  0
LINE
  5
274D
  8
3
 10
244.8609362609723
 20
162.18185813427891
 30
0.0
 11
244.87896462142089
 21
162.18636522439101
 31
0.0
  0
LINE
  5
274E
  8
3
 10
244.87896462142089
 20
162.18636522439101
 30
0.0
 11
244.89248589175739
 21
162.19537940461541
 31
0.0
  0
LINE
  5
274F
  8
3
 10
244.89248589175739
 20
162.19537940461541
 30
0.0
 11
244.9105142522061
 21
162.20890067495179
 31
0.0
  0
LINE
  5
2750
  8
3
 10
244.8474149906358
 20
162.18185813427891
 30
0.0
 11
244.8609362609723
 21
162.18185813427891
 31
0.0
  0
LINE
  5
2751
  8
3
 10
245.0637553160193
 20
162.3936913695502
 30
0.0
 11
245.07727658635579
 21
162.42073391022311
 31
0.0
  0
LINE
  5
2752
  8
3
 10
245.05023404568291
 20
162.3801700992137
 30
0.0
 11
245.0637553160193
 21
162.3936913695502
 31
0.0
  0
LINE
  5
2753
  8
3
 10
245.55052104813211
 20
161.7311491230634
 30
0.0
 11
245.5144643272348
 21
161.68157113182971
 31
0.0
  0
LINE
  5
2754
  8
3
 10
245.5865777690293
 20
161.78523420440931
 30
0.0
 11
245.55052104813211
 21
161.7311491230634
 31
0.0
  0
LINE
  5
2755
  8
3
 10
245.82094645486131
 20
162.42524100033529
 30
0.0
 11
245.811932274637
 21
162.3666488288772
 31
0.0
  0
LINE
  5
2756
  8
3
 10
245.7488330130669
 20
162.07819506169929
 30
0.0
 11
245.73981883284259
 21
162.05115252102641
 31
0.0
  0
LINE
  5
2757
  8
3
 10
245.7262975625062
 20
162.0241099803535
 30
0.0
 11
245.71728338228181
 21
162.00157452979269
 31
0.0
  0
LINE
  5
2758
  8
3
 10
245.71728338228181
 20
162.00157452979269
 30
0.0
 11
245.70376211194531
 21
161.97453198911981
 31
0.0
  0
LINE
  5
2759
  8
3
 10
245.70376211194531
 20
161.97453198911981
 30
0.0
 11
245.6902408416089
 21
161.951996538559
 31
0.0
  0
LINE
  5
275A
  8
3
 10
245.6902408416089
 20
161.951996538559
 30
0.0
 11
245.6767195712724
 21
161.92495399788601
 31
0.0
  0
LINE
  5
275B
  8
3
 10
245.6767195712724
 20
161.92495399788601
 30
0.0
 11
245.6631983009359
 21
161.90241854732531
 31
0.0
  0
LINE
  5
275C
  8
3
 10
245.6631983009359
 20
161.90241854732531
 30
0.0
 11
245.64967703059949
 21
161.8798830967645
 31
0.0
  0
LINE
  5
275D
  8
3
 10
245.64967703059949
 20
161.8798830967645
 30
0.0
 11
245.63615576026299
 21
161.85284055609151
 31
0.0
  0
LINE
  5
275E
  8
3
 10
245.63615576026299
 20
161.85284055609151
 30
0.0
 11
245.6181273998144
 21
161.83030510553081
 31
0.0
  0
LINE
  5
275F
  8
3
 10
245.73981883284259
 20
162.05115252102641
 30
0.0
 11
245.7262975625062
 21
162.0241099803535
 31
0.0
  0
LINE
  5
2760
  8
3
 10
245.811932274637
 20
162.3666488288772
 30
0.0
 11
245.80291809441269
 21
162.3080566574192
 31
0.0
  0
LINE
  5
2761
  8
3
 10
245.80291809441269
 20
162.3080566574192
 30
0.0
 11
245.78488973396421
 21
162.1908723145032
 31
0.0
  0
LINE
  5
2762
  8
3
 10
245.78488973396421
 20
162.1908723145032
 30
0.0
 11
245.78038264385199
 21
162.1593226837181
 31
0.0
  0
LINE
  5
2763
  8
3
 10
245.78038264385199
 20
162.1593226837181
 30
0.0
 11
245.77136846362771
 21
162.13228014304519
 31
0.0
  0
LINE
  5
2764
  8
3
 10
245.77136846362771
 20
162.13228014304519
 30
0.0
 11
245.7578471932911
 21
162.1052376023722
 31
0.0
  0
LINE
  5
2765
  8
3
 10
245.7578471932911
 20
162.1052376023722
 30
0.0
 11
245.7488330130669
 21
162.07819506169929
 31
0.0
  0
LINE
  5
2766
  8
3
 10
245.1178403973652
 20
163.07876906659769
 30
0.0
 11
245.1133333072531
 21
163.15989668861661
 31
0.0
  0
LINE
  5
2767
  8
3
 10
245.1043191270287
 20
162.66862386639161
 30
0.0
 11
245.1088262171408
 21
162.75425857852261
 31
0.0
  0
LINE
  5
2768
  8
3
 10
245.1088262171408
 20
162.75425857852261
 30
0.0
 11
245.1133333072531
 21
162.83538620054139
 31
0.0
  0
LINE
  5
2769
  8
3
 10
245.1133333072531
 20
162.9165138225602
 30
0.0
 11
245.1178403973652
 21
162.9976414445789
 31
0.0
  0
LINE
  5
276A
  8
3
 10
245.1133333072531
 20
162.83538620054139
 30
0.0
 11
245.1133333072531
 21
162.9165138225602
 31
0.0
  0
LINE
  5
276B
  8
3
 10
245.1178403973652
 20
162.9976414445789
 30
0.0
 11
245.1178403973652
 21
163.07876906659769
 31
0.0
  0
LINE
  5
276C
  8
3
 10
245.09079785669221
 20
162.50186153224189
 30
0.0
 11
245.09530494680439
 21
162.5874962443728
 31
0.0
  0
LINE
  5
276D
  8
3
 10
245.09530494680439
 20
162.5874962443728
 30
0.0
 11
245.1043191270287
 21
162.66862386639161
 31
0.0
  0
LINE
  5
276E
  8
3
 10
245.7623542834034
 20
163.15088250839219
 30
0.0
 11
245.78488973396421
 21
163.09229033693421
 31
0.0
  0
LINE
  5
276F
  8
3
 10
245.78488973396421
 20
163.09229033693421
 30
0.0
 11
245.80291809441269
 21
163.03369816547621
 31
0.0
  0
LINE
  5
2770
  8
3
 10
245.84348190542221
 20
162.7362302180739
 30
0.0
 11
245.84348190542221
 21
162.6731309565038
 31
0.0
  0
LINE
  5
2771
  8
3
 10
245.83897481531
 20
162.85792165110209
 30
0.0
 11
245.83897481531
 21
162.79482238953199
 31
0.0
  0
LINE
  5
2772
  8
3
 10
245.83897481531
 20
162.79482238953199
 30
0.0
 11
245.84348190542221
 21
162.7362302180739
 31
0.0
  0
LINE
  5
2773
  8
3
 10
245.82094645486131
 20
162.97961308413039
 30
0.0
 11
245.82996063508571
 21
162.9165138225602
 31
0.0
  0
LINE
  5
2774
  8
3
 10
245.82996063508571
 20
162.9165138225602
 30
0.0
 11
245.83897481531
 21
162.85792165110209
 31
0.0
  0
LINE
  5
2775
  8
3
 10
245.80291809441269
 20
163.03369816547621
 30
0.0
 11
245.82094645486131
 21
162.97961308413039
 31
0.0
  0
LINE
  5
2776
  8
3
 10
245.69474793172111
 20
163.18693922928941
 30
0.0
 11
245.7623542834034
 21
163.15088250839219
 31
0.0
  0
LINE
  5
2777
  8
3
 10
245.83897481531
 20
162.61003169493361
 30
0.0
 11
245.83446772519781
 21
162.55143952347561
 31
0.0
  0
LINE
  5
2778
  8
3
 10
245.83446772519781
 20
162.55143952347561
 30
0.0
 11
245.82996063508571
 21
162.48834026190551
 31
0.0
  0
LINE
  5
2779
  8
3
 10
245.84348190542221
 20
162.6731309565038
 30
0.0
 11
245.83897481531
 21
162.61003169493361
 31
0.0
  0
LINE
  5
277A
  8
3
 10
243.4817666866528
 20
166.22922505499409
 30
0.0
 11
243.51331631743801
 21
166.30584558690069
 31
0.0
  0
LINE
  5
277B
  8
3
 10
245.811932274637
 20
166.24725341544271
 30
0.0
 11
245.80291809441269
 21
166.24274632533059
 31
0.0
  0
LINE
  5
277C
  8
3
 10
244.1398018430275
 20
164.71033568719781
 30
0.0
 11
244.10825221224249
 21
164.72836404764649
 31
0.0
  0
LINE
  5
277D
  8
3
 10
244.1488160232519
 20
164.74188531798291
 30
0.0
 11
244.15332311336391
 21
164.6968144168614
 31
0.0
  0
LINE
  5
277E
  8
3
 10
244.5679754036822
 20
164.71934986742221
 30
0.0
 11
244.52741159267291
 21
164.73287113775859
 31
0.0
  0
LINE
  5
277F
  8
3
 10
245.36122326342161
 20
164.73737822787081
 30
0.0
 11
245.30713818207559
 21
164.71484277731
 31
0.0
  0
LINE
  5
2780
  8
3
 10
244.69868101693481
 20
164.4804740914779
 30
0.0
 11
244.7527660982806
 21
164.4939953618144
 31
0.0
  0
LINE
  5
2781
  8
3
 10
244.73924482794411
 20
164.66526478607631
 30
0.0
 11
244.6941739268226
 21
164.67427896630059
 31
0.0
  0
LINE
  5
2782
  8
3
 10
244.761780278505
 20
163.6286340602806
 30
0.0
 11
244.72572355760761
 21
163.60159151960781
 31
0.0
  0
LINE
  5
2783
  8
3
 10
244.7122022872712
 20
163.2184888600745
 30
0.0
 11
244.73924482794411
 21
163.2184888600745
 31
0.0
  0
LINE
  5
2784
  8
3
 10
243.44120287564351
 20
163.95765163846789
 30
0.0
 11
243.41866742508279
 21
164.00272253958951
 31
0.0
  0
LINE
  5
2785
  8
3
 10
243.8603622560739
 20
163.54750643826191
 30
0.0
 11
243.8558551659618
 21
163.54750643826191
 31
0.0
  0
LINE
  5
2786
  8
3
 10
243.81529135495231
 20
163.290602301869
 30
0.0
 11
243.8603622560739
 21
163.290602301869
 31
0.0
  0
LINE
  5
2787
  8
3
 10
243.7296566428214
 20
163.6196198800564
 30
0.0
 11
243.6935999219242
 21
163.65116951084141
 31
0.0
  0
LINE
  5
2788
  8
3
 10
243.61697939001749
 20
163.71877586252381
 30
0.0
 11
243.58542975923251
 21
163.75483258342101
 31
0.0
  0
LINE
  5
2789
  8
3
 10
243.6935999219242
 20
163.65116951084141
 30
0.0
 11
243.6530361109148
 21
163.68271914162651
 31
0.0
  0
LINE
  5
278A
  8
3
 10
243.6530361109148
 20
163.68271914162651
 30
0.0
 11
243.61697939001749
 21
163.71877586252381
 31
0.0
  0
LINE
  5
278B
  8
3
 10
243.58542975923251
 20
163.75483258342101
 30
0.0
 11
243.55388012844739
 21
163.79088930431831
 31
0.0
  0
LINE
  5
278C
  8
3
 10
243.55388012844739
 20
163.79088930431831
 30
0.0
 11
243.5223304976623
 21
163.83145311532761
 31
0.0
  0
LINE
  5
278D
  8
3
 10
243.5223304976623
 20
163.83145311532761
 30
0.0
 11
243.4907808668772
 21
163.87201692633701
 31
0.0
  0
LINE
  5
278E
  8
3
 10
243.4907808668772
 20
163.87201692633701
 30
0.0
 11
243.46373832620421
 21
163.91258073734639
 31
0.0
  0
LINE
  5
278F
  8
3
 10
243.46373832620421
 20
163.91258073734639
 30
0.0
 11
243.44120287564351
 21
163.95765163846789
 31
0.0
  0
LINE
  5
2790
  8
3
 10
243.39613197452201
 20
163.2860952117569
 30
0.0
 11
243.44120287564351
 21
163.290602301869
 31
0.0
  0
LINE
  5
2791
  8
3
 10
243.44120287564351
 20
163.290602301869
 30
0.0
 11
243.4862737767651
 21
163.290602301869
 31
0.0
  0
LINE
  5
2792
  8
3
 10
243.4862737767651
 20
163.290602301869
 30
0.0
 11
243.53585176799879
 21
163.29510939198121
 31
0.0
  0
LINE
  5
2793
  8
3
 10
243.53585176799879
 20
163.29510939198121
 30
0.0
 11
243.5809226691203
 21
163.29510939198121
 31
0.0
  0
LINE
  5
2794
  8
3
 10
243.5809226691203
 20
163.29510939198121
 30
0.0
 11
243.62599357024189
 21
163.29510939198121
 31
0.0
  0
LINE
  5
2795
  8
3
 10
243.62599357024189
 20
163.29510939198121
 30
0.0
 11
243.67557156147549
 21
163.29510939198121
 31
0.0
  0
LINE
  5
2796
  8
3
 10
243.67557156147549
 20
163.29510939198121
 30
0.0
 11
243.72064246259711
 21
163.290602301869
 31
0.0
  0
LINE
  5
2797
  8
3
 10
243.72064246259711
 20
163.290602301869
 30
0.0
 11
243.76571336371859
 21
163.290602301869
 31
0.0
  0
LINE
  5
2798
  8
3
 10
243.3465539832882
 20
163.28158812164469
 30
0.0
 11
243.39613197452201
 21
163.2860952117569
 31
0.0
  0
LINE
  5
2799
  8
3
 10
243.81529135495231
 20
163.56102770859829
 30
0.0
 11
243.80627717472811
 21
163.56553479871039
 31
0.0
  0
LINE
  5
279A
  8
3
 10
243.80627717472811
 20
163.56553479871039
 30
0.0
 11
243.7702204538308
 21
163.59257733938341
 31
0.0
  0
LINE
  5
279B
  8
3
 10
243.8558551659618
 20
163.54750643826191
 30
0.0
 11
243.85134807584959
 21
163.54750643826191
 31
0.0
  0
LINE
  5
279C
  8
3
 10
243.85134807584959
 20
163.54750643826191
 30
0.0
 11
243.84684098573749
 21
163.54750643826191
 31
0.0
  0
LINE
  5
279D
  8
3
 10
243.84684098573749
 20
163.54750643826191
 30
0.0
 11
243.8423338956253
 21
163.552013528374
 31
0.0
  0
LINE
  5
279E
  8
3
 10
243.8423338956253
 20
163.552013528374
 30
0.0
 11
243.8378268055132
 21
163.552013528374
 31
0.0
  0
LINE
  5
279F
  8
3
 10
243.8378268055132
 20
163.552013528374
 30
0.0
 11
243.8333197154009
 21
163.552013528374
 31
0.0
  0
LINE
  5
27A0
  8
3
 10
243.8333197154009
 20
163.552013528374
 30
0.0
 11
243.8288126252888
 21
163.552013528374
 31
0.0
  0
LINE
  5
27A1
  8
3
 10
243.8288126252888
 20
163.552013528374
 30
0.0
 11
243.82430553517671
 21
163.552013528374
 31
0.0
  0
LINE
  5
27A2
  8
3
 10
243.82430553517671
 20
163.552013528374
 30
0.0
 11
243.81979844506449
 21
163.55652061848619
 31
0.0
  0
LINE
  5
27A3
  8
3
 10
243.81979844506449
 20
163.55652061848619
 30
0.0
 11
243.81529135495231
 21
163.55652061848619
 31
0.0
  0
LINE
  5
27A4
  8
3
 10
243.81529135495231
 20
163.55652061848619
 30
0.0
 11
243.81529135495231
 21
163.56102770859829
 31
0.0
  0
LINE
  5
27A5
  8
3
 10
243.76571336371859
 20
163.290602301869
 30
0.0
 11
243.81529135495231
 21
163.290602301869
 31
0.0
  0
LINE
  5
27A6
  8
3
 10
243.7702204538308
 20
163.59257733938341
 30
0.0
 11
243.7296566428214
 21
163.6196198800564
 31
0.0
  0
LINE
  5
27A7
  8
3
 10
243.94599696820489
 20
163.51595680747681
 30
0.0
 11
243.93247569786851
 21
163.51595680747681
 31
0.0
  0
LINE
  5
27A8
  8
3
 10
243.93247569786851
 20
163.51595680747681
 30
0.0
 11
243.92346151764411
 21
163.52046389758891
 31
0.0
  0
LINE
  5
27A9
  8
3
 10
243.92346151764411
 20
163.52046389758891
 30
0.0
 11
243.90994024730759
 21
163.5249709877011
 31
0.0
  0
LINE
  5
27AA
  8
3
 10
243.9730395088778
 20
163.5114497173646
 30
0.0
 11
243.95951823854131
 21
163.5114497173646
 31
0.0
  0
LINE
  5
27AB
  8
3
 10
243.95951823854131
 20
163.5114497173646
 30
0.0
 11
243.94599696820489
 21
163.51595680747681
 31
0.0
  0
LINE
  5
27AC
  8
3
 10
243.90092606708319
 20
163.5294780778132
 30
0.0
 11
243.89191188685891
 21
163.53398516792541
 31
0.0
  0
LINE
  5
27AD
  8
3
 10
243.90994024730759
 20
163.5249709877011
 30
0.0
 11
243.90092606708319
 21
163.5294780778132
 31
0.0
  0
LINE
  5
27AE
  8
3
 10
243.89191188685891
 20
163.53398516792541
 30
0.0
 11
243.86937643629821
 21
163.54750643826191
 31
0.0
  0
LINE
  5
27AF
  8
3
 10
243.86937643629821
 20
163.54750643826191
 30
0.0
 11
243.86486934618611
 21
163.54750643826191
 31
0.0
  0
LINE
  5
27B0
  8
3
 10
243.86486934618611
 20
163.54750643826191
 30
0.0
 11
243.8603622560739
 21
163.54750643826191
 31
0.0
  0
LINE
  5
27B1
  8
3
 10
243.8603622560739
 20
163.290602301869
 30
0.0
 11
243.90994024730759
 21
163.2860952117569
 31
0.0
  0
LINE
  5
27B2
  8
3
 10
244.50487614211201
 20
163.5069426272525
 30
0.0
 11
244.45980524099059
 21
163.493421356916
 31
0.0
  0
LINE
  5
27B3
  8
3
 10
244.45980524099059
 20
163.493421356916
 30
0.0
 11
244.4102272497569
 21
163.48440717669169
 31
0.0
  0
LINE
  5
27B4
  8
3
 10
244.4102272497569
 20
163.48440717669169
 30
0.0
 11
244.36064925852321
 21
163.47539299646741
 31
0.0
  0
LINE
  5
27B5
  8
3
 10
244.36064925852321
 20
163.47539299646741
 30
0.0
 11
244.31107126728941
 21
163.47088590635519
 31
0.0
  0
LINE
  5
27B6
  8
3
 10
244.31107126728941
 20
163.47088590635519
 30
0.0
 11
244.26149327605569
 21
163.46637881624309
 31
0.0
  0
LINE
  5
27B7
  8
3
 10
244.26149327605569
 20
163.46637881624309
 30
0.0
 11
244.211915284822
 21
163.46637881624309
 31
0.0
  0
LINE
  5
27B8
  8
3
 10
244.211915284822
 20
163.46637881624309
 30
0.0
 11
244.16233729358831
 21
163.46637881624309
 31
0.0
  0
LINE
  5
27B9
  8
3
 10
244.16233729358831
 20
163.46637881624309
 30
0.0
 11
244.0631813111209
 21
163.48440717669169
 31
0.0
  0
LINE
  5
27BA
  8
3
 10
244.0631813111209
 20
163.48440717669169
 30
0.0
 11
244.0496600407844
 21
163.48891426680379
 31
0.0
  0
LINE
  5
27BB
  8
3
 10
244.0496600407844
 20
163.48891426680379
 30
0.0
 11
244.03613877044799
 21
163.493421356916
 31
0.0
  0
LINE
  5
27BC
  8
3
 10
244.03613877044799
 20
163.493421356916
 30
0.0
 11
244.02261750011161
 21
163.49792844702819
 31
0.0
  0
LINE
  5
27BD
  8
3
 10
244.02261750011161
 20
163.49792844702819
 30
0.0
 11
244.009096229775
 21
163.50243553714029
 31
0.0
  0
LINE
  5
27BE
  8
3
 10
244.009096229775
 20
163.50243553714029
 30
0.0
 11
243.9955749594385
 21
163.50243553714029
 31
0.0
  0
LINE
  5
27BF
  8
3
 10
243.9955749594385
 20
163.50243553714029
 30
0.0
 11
243.98205368910209
 21
163.5069426272525
 31
0.0
  0
LINE
  5
27C0
  8
3
 10
243.95501114842921
 20
163.290602301869
 30
0.0
 11
244.0045891396629
 21
163.290602301869
 31
0.0
  0
LINE
  5
27C1
  8
3
 10
244.0045891396629
 20
163.290602301869
 30
0.0
 11
244.09473094190599
 21
163.29961648209331
 31
0.0
  0
LINE
  5
27C2
  8
3
 10
244.09473094190599
 20
163.29961648209331
 30
0.0
 11
244.10374512213031
 21
163.22299595018669
 31
0.0
  0
LINE
  5
27C3
  8
3
 10
244.29754999695299
 20
163.20496758973809
 30
0.0
 11
244.3426208980745
 21
163.20496758973809
 31
0.0
  0
LINE
  5
27C4
  8
3
 10
244.3426208980745
 20
163.20496758973809
 30
0.0
 11
244.38318470908391
 21
163.20496758973809
 31
0.0
  0
LINE
  5
27C5
  8
3
 10
244.38318470908391
 20
163.20496758973809
 30
0.0
 11
244.4192414299811
 21
163.20947467985019
 31
0.0
  0
LINE
  5
27C6
  8
3
 10
244.4192414299811
 20
163.20947467985019
 30
0.0
 11
244.45529815087841
 21
163.20947467985019
 31
0.0
  0
LINE
  5
27C7
  8
3
 10
244.45529815087841
 20
163.20947467985019
 30
0.0
 11
244.48684778166341
 21
163.20947467985019
 31
0.0
  0
LINE
  5
27C8
  8
3
 10
244.48684778166341
 20
163.20947467985019
 30
0.0
 11
244.51839741244859
 21
163.2139817699624
 31
0.0
  0
LINE
  5
27C9
  8
3
 10
243.90994024730759
 20
163.2860952117569
 30
0.0
 11
243.95501114842921
 21
163.290602301869
 31
0.0
  0
LINE
  5
27CA
  8
3
 10
243.98205368910209
 20
163.5069426272525
 30
0.0
 11
243.9730395088778
 21
163.5114497173646
 31
0.0
  0
LINE
  5
27CB
  8
3
 10
244.72572355760761
 20
163.60159151960781
 30
0.0
 11
244.68515974659829
 21
163.57905606904691
 31
0.0
  0
LINE
  5
27CC
  8
3
 10
244.68515974659829
 20
163.57905606904691
 30
0.0
 11
244.6400888454767
 21
163.55652061848619
 31
0.0
  0
LINE
  5
27CD
  8
3
 10
244.6400888454767
 20
163.55652061848619
 30
0.0
 11
244.5995250344674
 21
163.53849225803759
 31
0.0
  0
LINE
  5
27CE
  8
3
 10
244.5995250344674
 20
163.53849225803759
 30
0.0
 11
244.54994704323369
 21
163.52046389758891
 31
0.0
  0
LINE
  5
27CF
  8
3
 10
244.54994704323369
 20
163.2139817699624
 30
0.0
 11
244.57698958390651
 21
163.2139817699624
 31
0.0
  0
LINE
  5
27D0
  8
3
 10
244.57698958390651
 20
163.2139817699624
 30
0.0
 11
244.6040321245795
 21
163.2139817699624
 31
0.0
  0
LINE
  5
27D1
  8
3
 10
244.6040321245795
 20
163.2139817699624
 30
0.0
 11
244.63107466525241
 21
163.2139817699624
 31
0.0
  0
LINE
  5
27D2
  8
3
 10
244.63107466525241
 20
163.2139817699624
 30
0.0
 11
244.65811720592541
 21
163.2139817699624
 31
0.0
  0
LINE
  5
27D3
  8
3
 10
244.65811720592541
 20
163.2139817699624
 30
0.0
 11
244.68515974659829
 21
163.2139817699624
 31
0.0
  0
LINE
  5
27D4
  8
3
 10
244.68515974659829
 20
163.2139817699624
 30
0.0
 11
244.7122022872712
 21
163.2184888600745
 31
0.0
  0
LINE
  5
27D5
  8
3
 10
244.54994704323369
 20
163.52046389758891
 30
0.0
 11
244.50487614211201
 21
163.5069426272525
 31
0.0
  0
LINE
  5
27D6
  8
3
 10
244.51839741244859
 20
163.2139817699624
 30
0.0
 11
244.54994704323369
 21
163.2139817699624
 31
0.0
  0
LINE
  5
27D7
  8
3
 10
243.3555681635126
 20
164.6968144168614
 30
0.0
 11
244.1398018430275
 21
164.6968144168614
 31
0.0
  0
LINE
  5
27D8
  8
3
 10
243.3555681635126
 20
164.512023722263
 30
0.0
 11
243.3555681635126
 21
164.54357335304809
 31
0.0
  0
LINE
  5
27D9
  8
3
 10
243.3555681635126
 20
164.39033228923489
 30
0.0
 11
243.3555681635126
 21
164.42188192002001
 31
0.0
  0
LINE
  5
27DA
  8
3
 10
243.3555681635126
 20
164.42188192002001
 30
0.0
 11
243.3555681635126
 21
164.44892446069281
 31
0.0
  0
LINE
  5
27DB
  8
3
 10
243.3555681635126
 20
164.44892446069281
 30
0.0
 11
243.3555681635126
 21
164.4804740914779
 31
0.0
  0
LINE
  5
27DC
  8
3
 10
243.3555681635126
 20
164.4804740914779
 30
0.0
 11
243.3555681635126
 21
164.512023722263
 31
0.0
  0
LINE
  5
27DD
  8
3
 10
243.3555681635126
 20
164.6337151552913
 30
0.0
 11
243.3555681635126
 21
164.6968144168614
 31
0.0
  0
LINE
  5
27DE
  8
3
 10
243.3555681635126
 20
164.54357335304809
 30
0.0
 11
243.3555681635126
 21
164.57061589372111
 31
0.0
  0
LINE
  5
27DF
  8
3
 10
243.3555681635126
 20
164.57061589372111
 30
0.0
 11
243.3555681635126
 21
164.60216552450609
 31
0.0
  0
LINE
  5
27E0
  8
3
 10
243.3555681635126
 20
164.60216552450609
 30
0.0
 11
243.3555681635126
 21
164.6337151552913
 31
0.0
  0
LINE
  5
27E1
  8
3
 10
243.3555681635126
 20
164.26413376609449
 30
0.0
 11
243.3555681635126
 21
164.29568339687961
 31
0.0
  0
LINE
  5
27E2
  8
3
 10
243.3555681635126
 20
164.20554159463649
 30
0.0
 11
243.3555681635126
 21
164.23258413530951
 31
0.0
  0
LINE
  5
27E3
  8
3
 10
243.3555681635126
 20
164.23258413530951
 30
0.0
 11
243.3555681635126
 21
164.26413376609449
 31
0.0
  0
LINE
  5
27E4
  8
3
 10
243.41866742508279
 20
164.00272253958951
 30
0.0
 11
243.39613197452201
 21
164.0523005308232
 31
0.0
  0
LINE
  5
27E5
  8
3
 10
243.39613197452201
 20
164.0523005308232
 30
0.0
 11
243.38261070418551
 21
164.10187852205689
 31
0.0
  0
LINE
  5
27E6
  8
3
 10
243.38261070418551
 20
164.10187852205689
 30
0.0
 11
243.3555681635126
 21
164.20554159463649
 31
0.0
  0
LINE
  5
27E7
  8
3
 10
243.3555681635126
 20
164.29568339687961
 30
0.0
 11
243.3555681635126
 21
164.3272330276647
 31
0.0
  0
LINE
  5
27E8
  8
3
 10
243.3555681635126
 20
164.3272330276647
 30
0.0
 11
243.3555681635126
 21
164.35878265844971
 31
0.0
  0
LINE
  5
27E9
  8
3
 10
243.3555681635126
 20
164.35878265844971
 30
0.0
 11
243.3555681635126
 21
164.39033228923489
 31
0.0
  0
LINE
  5
27EA
  8
3
 10
244.1578302034761
 20
164.55709462338459
 30
0.0
 11
244.1578302034761
 21
164.53005208271171
 31
0.0
  0
LINE
  5
27EB
  8
3
 10
244.1578302034761
 20
164.53005208271171
 30
0.0
 11
244.15332311336391
 21
164.50300954203871
 31
0.0
  0
LINE
  5
27EC
  8
3
 10
244.15332311336391
 20
164.50300954203871
 30
0.0
 11
244.15332311336391
 21
164.4804740914779
 31
0.0
  0
LINE
  5
27ED
  8
3
 10
244.15332311336391
 20
164.4804740914779
 30
0.0
 11
244.15332311336391
 21
164.45343155080499
 31
0.0
  0
LINE
  5
27EE
  8
3
 10
244.15332311336391
 20
164.45343155080499
 30
0.0
 11
244.15332311336391
 21
164.43089610024421
 31
0.0
  0
LINE
  5
27EF
  8
3
 10
244.15332311336391
 20
164.43089610024421
 30
0.0
 11
244.15332311336391
 21
164.4083606496834
 31
0.0
  0
LINE
  5
27F0
  8
3
 10
244.15332311336391
 20
164.4083606496834
 30
0.0
 11
244.15332311336391
 21
164.38582519912259
 31
0.0
  0
LINE
  5
27F1
  8
3
 10
244.1398018430275
 20
164.6968144168614
 30
0.0
 11
244.14430893313971
 21
164.6968144168614
 31
0.0
  0
LINE
  5
27F2
  8
3
 10
244.14430893313971
 20
164.6968144168614
 30
0.0
 11
244.14430893313971
 21
164.7013215069735
 31
0.0
  0
LINE
  5
27F3
  8
3
 10
244.14430893313971
 20
164.7013215069735
 30
0.0
 11
244.1398018430275
 21
164.71033568719781
 31
0.0
  0
LINE
  5
27F4
  8
3
 10
244.15332311336391
 20
164.6968144168614
 30
0.0
 11
244.1578302034761
 21
164.65625060585199
 31
0.0
  0
LINE
  5
27F5
  8
3
 10
244.1578302034761
 20
164.6201938849548
 30
0.0
 11
244.1578302034761
 21
164.58864425416971
 31
0.0
  0
LINE
  5
27F6
  8
3
 10
244.1578302034761
 20
164.58864425416971
 30
0.0
 11
244.1578302034761
 21
164.55709462338459
 31
0.0
  0
LINE
  5
27F7
  8
3
 10
244.1578302034761
 20
164.65625060585199
 30
0.0
 11
244.1578302034761
 21
164.6201938849548
 31
0.0
  0
LINE
  5
27F8
  8
3
 10
244.53642577289719
 20
164.42188192002001
 30
0.0
 11
244.59051085424309
 21
164.44441737058071
 31
0.0
  0
LINE
  5
27F9
  8
3
 10
244.59051085424309
 20
164.44441737058071
 30
0.0
 11
244.64459593558891
 21
164.46695282114149
 31
0.0
  0
LINE
  5
27FA
  8
3
 10
244.64459593558891
 20
164.46695282114149
 30
0.0
 11
244.69868101693481
 21
164.4804740914779
 31
0.0
  0
LINE
  5
27FB
  8
3
 10
244.6941739268226
 20
164.67427896630059
 30
0.0
 11
244.64910302570109
 21
164.68780023663709
 31
0.0
  0
LINE
  5
27FC
  8
3
 10
244.64910302570109
 20
164.68780023663709
 30
0.0
 11
244.60853921469169
 21
164.7013215069735
 31
0.0
  0
LINE
  5
27FD
  8
3
 10
244.60853921469169
 20
164.7013215069735
 30
0.0
 11
244.5679754036822
 21
164.71934986742221
 31
0.0
  0
LINE
  5
27FE
  8
3
 10
244.48234069155129
 20
164.39934646945909
 30
0.0
 11
244.53642577289719
 21
164.42188192002001
 31
0.0
  0
LINE
  5
27FF
  8
3
 10
244.1578302034761
 20
164.34075429800109
 30
0.0
 11
244.16233729358831
 21
164.2911763067674
 31
0.0
  0
LINE
  5
2800
  8
3
 10
244.3426208980745
 20
164.2911763067674
 30
0.0
 11
244.35614216841091
 21
164.30019048699171
 31
0.0
  0
LINE
  5
2801
  8
3
 10
244.16233729358831
 20
164.2911763067674
 30
0.0
 11
244.17135147381259
 21
164.28216212654311
 31
0.0
  0
LINE
  5
2802
  8
3
 10
244.17135147381259
 20
164.28216212654311
 30
0.0
 11
244.17585856392469
 21
164.27765503643101
 31
0.0
  0
LINE
  5
2803
  8
3
 10
244.17585856392469
 20
164.27765503643101
 30
0.0
 11
244.18036565403699
 21
164.26864085620659
 31
0.0
  0
LINE
  5
2804
  8
3
 10
244.18036565403699
 20
164.26864085620659
 30
0.0
 11
244.18937983426119
 21
164.26413376609449
 31
0.0
  0
LINE
  5
2805
  8
3
 10
244.18937983426119
 20
164.26413376609449
 30
0.0
 11
244.1983940144855
 21
164.25962667598239
 31
0.0
  0
LINE
  5
2806
  8
3
 10
244.1983940144855
 20
164.25962667598239
 30
0.0
 11
244.20740819470981
 21
164.2551195858702
 31
0.0
  0
LINE
  5
2807
  8
3
 10
244.20740819470981
 20
164.2551195858702
 30
0.0
 11
244.21642237493421
 21
164.2551195858702
 31
0.0
  0
LINE
  5
2808
  8
3
 10
244.21642237493421
 20
164.2551195858702
 30
0.0
 11
244.2254365551585
 21
164.25061249575811
 31
0.0
  0
LINE
  5
2809
  8
3
 10
244.2254365551585
 20
164.25061249575811
 30
0.0
 11
244.23445073538281
 21
164.25061249575811
 31
0.0
  0
LINE
  5
280A
  8
3
 10
244.23445073538281
 20
164.25061249575811
 30
0.0
 11
244.24346491560721
 21
164.24610540564589
 31
0.0
  0
LINE
  5
280B
  8
3
 10
244.24346491560721
 20
164.24610540564589
 30
0.0
 11
244.2524790958314
 21
164.24610540564589
 31
0.0
  0
LINE
  5
280C
  8
3
 10
244.2524790958314
 20
164.24610540564589
 30
0.0
 11
244.2660003661679
 21
164.24610540564589
 31
0.0
  0
LINE
  5
280D
  8
3
 10
244.2660003661679
 20
164.24610540564589
 30
0.0
 11
244.27501454639221
 21
164.25061249575811
 31
0.0
  0
LINE
  5
280E
  8
3
 10
244.27501454639221
 20
164.25061249575811
 30
0.0
 11
244.2840287266165
 21
164.25061249575811
 31
0.0
  0
LINE
  5
280F
  8
3
 10
244.2840287266165
 20
164.25061249575811
 30
0.0
 11
244.30205708706509
 21
164.25962667598239
 31
0.0
  0
LINE
  5
2810
  8
3
 10
244.30205708706509
 20
164.25962667598239
 30
0.0
 11
244.31557835740151
 21
164.26864085620659
 31
0.0
  0
LINE
  5
2811
  8
3
 10
244.31557835740151
 20
164.26864085620659
 30
0.0
 11
244.3245925376259
 21
164.27765503643101
 31
0.0
  0
LINE
  5
2812
  8
3
 10
244.3245925376259
 20
164.27765503643101
 30
0.0
 11
244.33360671785019
 21
164.2866692166553
 31
0.0
  0
LINE
  5
2813
  8
3
 10
244.33360671785019
 20
164.2866692166553
 30
0.0
 11
244.3426208980745
 21
164.2911763067674
 31
0.0
  0
LINE
  5
2814
  8
3
 10
244.15332311336391
 20
164.3632897485619
 30
0.0
 11
244.1578302034761
 21
164.34075429800109
 31
0.0
  0
LINE
  5
2815
  8
3
 10
244.35614216841091
 20
164.30019048699171
 30
0.0
 11
244.36515634863531
 21
164.30920466721611
 31
0.0
  0
LINE
  5
2816
  8
3
 10
244.36515634863531
 20
164.30920466721611
 30
0.0
 11
244.37867761897181
 21
164.31821884744039
 31
0.0
  0
LINE
  5
2817
  8
3
 10
244.37867761897181
 20
164.31821884744039
 30
0.0
 11
244.38769179919601
 21
164.3272330276647
 31
0.0
  0
LINE
  5
2818
  8
3
 10
244.38769179919601
 20
164.3272330276647
 30
0.0
 11
244.4012130695325
 21
164.33624720788899
 31
0.0
  0
LINE
  5
2819
  8
3
 10
244.4012130695325
 20
164.33624720788899
 30
0.0
 11
244.41473433986889
 21
164.3452613881133
 31
0.0
  0
LINE
  5
281A
  8
3
 10
244.41473433986889
 20
164.3452613881133
 30
0.0
 11
244.4237485200932
 21
164.35427556833761
 31
0.0
  0
LINE
  5
281B
  8
3
 10
244.4237485200932
 20
164.35427556833761
 30
0.0
 11
244.4372697904297
 21
164.3632897485619
 31
0.0
  0
LINE
  5
281C
  8
3
 10
244.4372697904297
 20
164.3632897485619
 30
0.0
 11
244.45079106076619
 21
164.367796838674
 31
0.0
  0
LINE
  5
281D
  8
3
 10
244.45079106076619
 20
164.367796838674
 30
0.0
 11
244.45980524099059
 21
164.37681101889831
 31
0.0
  0
LINE
  5
281E
  8
3
 10
244.15332311336391
 20
164.38582519912259
 30
0.0
 11
244.15332311336391
 21
164.3632897485619
 31
0.0
  0
LINE
  5
281F
  8
3
 10
244.45980524099059
 20
164.37681101889831
 30
0.0
 11
244.48234069155129
 21
164.39934646945909
 31
0.0
  0
LINE
  5
2820
  8
3
 10
245.77136846362771
 20
163.9982154494773
 30
0.0
 11
245.79841100430059
 21
163.91708782745849
 31
0.0
  0
LINE
  5
2821
  8
3
 10
245.60460612947799
 20
163.3446873832149
 30
0.0
 11
245.57756358880491
 21
163.3446873832149
 31
0.0
  0
LINE
  5
2822
  8
3
 10
245.5820706789172
 20
163.22299595018669
 30
0.0
 11
245.6181273998144
 21
163.2139817699624
 31
0.0
  0
LINE
  5
2823
  8
3
 10
244.79783699940219
 20
163.6556766009536
 30
0.0
 11
244.761780278505
 21
163.6286340602806
 31
0.0
  0
LINE
  5
2824
  8
3
 10
244.99164187422471
 20
163.75032549330891
 30
0.0
 11
244.9736135137762
 21
163.75032549330891
 31
0.0
  0
LINE
  5
2825
  8
3
 10
245.0322056852342
 20
163.74581840319661
 30
0.0
 11
245.01868441489771
 21
163.75032549330891
 31
0.0
  0
LINE
  5
2826
  8
3
 10
245.05023404568291
 20
163.74131131308451
 30
0.0
 11
245.04121986545849
 21
163.74581840319661
 31
0.0
  0
LINE
  5
2827
  8
3
 10
245.04121986545849
 20
163.74581840319661
 30
0.0
 11
245.0322056852342
 21
163.74581840319661
 31
0.0
  0
LINE
  5
2828
  8
3
 10
245.01868441489771
 20
163.75032549330891
 30
0.0
 11
245.00516314456129
 21
163.75032549330891
 31
0.0
  0
LINE
  5
2829
  8
3
 10
245.00516314456129
 20
163.75032549330891
 30
0.0
 11
244.99164187422471
 21
163.75032549330891
 31
0.0
  0
LINE
  5
282A
  8
3
 10
244.92403552254251
 20
163.74581840319661
 30
0.0
 11
244.9105142522061
 21
163.74581840319661
 31
0.0
  0
LINE
  5
282B
  8
3
 10
244.94206388299119
 20
163.75032549330891
 30
0.0
 11
244.92403552254251
 21
163.74581840319661
 31
0.0
  0
LINE
  5
282C
  8
3
 10
244.9736135137762
 20
163.75032549330891
 30
0.0
 11
244.9600922434397
 21
163.75032549330891
 31
0.0
  0
LINE
  5
282D
  8
3
 10
244.9600922434397
 20
163.75032549330891
 30
0.0
 11
244.94206388299119
 21
163.75032549330891
 31
0.0
  0
LINE
  5
282E
  8
3
 10
244.86995044119661
 20
163.73680422297241
 30
0.0
 11
244.79783699940219
 21
163.6556766009536
 31
0.0
  0
LINE
  5
282F
  8
3
 10
244.9105142522061
 20
163.74581840319661
 30
0.0
 11
244.8969929818696
 21
163.74131131308451
 31
0.0
  0
LINE
  5
2830
  8
3
 10
244.8969929818696
 20
163.74131131308451
 30
0.0
 11
244.86995044119661
 21
163.73680422297241
 31
0.0
  0
LINE
  5
2831
  8
3
 10
245.0592482259072
 20
163.73680422297241
 30
0.0
 11
245.0592482259072
 21
163.74131131308451
 31
0.0
  0
LINE
  5
2832
  8
3
 10
245.08178367646789
 20
163.57004188882269
 30
0.0
 11
245.0592482259072
 21
163.73680422297241
 31
0.0
  0
LINE
  5
2833
  8
3
 10
245.0592482259072
 20
163.74131131308451
 30
0.0
 11
245.05023404568291
 21
163.74131131308451
 31
0.0
  0
LINE
  5
2834
  8
3
 10
244.73924482794411
 20
163.2184888600745
 30
0.0
 11
244.79332990928989
 21
163.22299595018669
 31
0.0
  0
LINE
  5
2835
  8
3
 10
244.79332990928989
 20
163.22299595018669
 30
0.0
 11
244.79783699940219
 21
163.2184888600745
 31
0.0
  0
LINE
  5
2836
  8
3
 10
244.79783699940219
 20
163.2184888600745
 30
0.0
 11
244.80234408951429
 21
163.2184888600745
 31
0.0
  0
LINE
  5
2837
  8
3
 10
244.80234408951429
 20
163.2184888600745
 30
0.0
 11
244.80685117962651
 21
163.2184888600745
 31
0.0
  0
LINE
  5
2838
  8
3
 10
244.80685117962651
 20
163.2184888600745
 30
0.0
 11
244.81135826973861
 21
163.2184888600745
 31
0.0
  0
LINE
  5
2839
  8
3
 10
244.81135826973861
 20
163.2184888600745
 30
0.0
 11
244.81586535985079
 21
163.2184888600745
 31
0.0
  0
LINE
  5
283A
  8
3
 10
244.81586535985079
 20
163.2184888600745
 30
0.0
 11
244.820372449963
 21
163.2184888600745
 31
0.0
  0
LINE
  5
283B
  8
3
 10
244.820372449963
 20
163.2184888600745
 30
0.0
 11
244.8248795400751
 21
163.2184888600745
 31
0.0
  0
LINE
  5
283C
  8
3
 10
244.8248795400751
 20
163.2184888600745
 30
0.0
 11
244.8248795400751
 21
163.2139817699624
 31
0.0
  0
LINE
  5
283D
  8
3
 10
244.8248795400751
 20
163.2139817699624
 30
0.0
 11
244.8293866301872
 21
163.2139817699624
 31
0.0
  0
LINE
  5
283E
  8
3
 10
244.8293866301872
 20
163.2139817699624
 30
0.0
 11
244.83389372029939
 21
163.2139817699624
 31
0.0
  0
LINE
  5
283F
  8
3
 10
244.83389372029939
 20
163.2139817699624
 30
0.0
 11
244.8384008104116
 21
163.2139817699624
 31
0.0
  0
LINE
  5
2840
  8
3
 10
244.8384008104116
 20
163.2139817699624
 30
0.0
 11
244.84290790052361
 21
163.2139817699624
 31
0.0
  0
ARC
  5
2841
  8
3
 10
245.20300732205001
 20
163.35656873581689
 30
0.0
 40
0.1008760780793214
 50
191.95483737982951
 51
264.96835913918909
  0
LINE
  5
2842
  8
3
 10
245.1043191270287
 20
163.32215193265409
 30
0.0
 11
245.09981203691649
 21
163.40327955467291
 31
0.0
  0
LINE
  5
2843
  8
3
 10
245.28910982162699
 20
163.34018029310269
 30
0.0
 11
245.1043191270287
 21
163.33567320299059
 31
0.0
  0
LINE
  5
2844
  8
3
 10
245.2485460106177
 20
163.25003849085959
 30
0.0
 11
245.28910982162699
 21
163.2455314007475
 31
0.0
  0
LINE
  5
2845
  8
3
 10
245.19415989834411
 20
163.25608139222339
 30
0.0
 11
245.2485460106177
 21
163.25003849085959
 31
0.0
  0
LINE
  5
2846
  8
3
 10
245.1043191270287
 20
163.33567320299059
 30
0.0
 11
245.1043191270287
 21
163.32215193265409
 31
0.0
  0
LINE
  5
2847
  8
3
 10
245.1133333072531
 20
163.24102431063531
 30
0.0
 11
245.1043191270287
 21
163.32215193265409
 31
0.0
  0
LINE
  5
2848
  8
3
 10
245.09981203691649
 20
163.40327955467291
 30
0.0
 11
245.09079785669221
 21
163.48440717669169
 31
0.0
  0
LINE
  5
2849
  8
3
 10
245.09079785669221
 20
163.48440717669169
 30
0.0
 11
245.08178367646789
 21
163.57004188882269
 31
0.0
  0
LINE
  5
284A
  8
3
 10
245.4693934261133
 20
163.3446873832149
 30
0.0
 11
245.41981543487961
 21
163.3446873832149
 31
0.0
  0
LINE
  5
284B
  8
3
 10
245.41981543487961
 20
163.3446873832149
 30
0.0
 11
245.36122326342161
 21
163.3446873832149
 31
0.0
  0
LINE
  5
284C
  8
3
 10
245.33418072274861
 20
163.2455314007475
 30
0.0
 11
245.37474453375799
 21
163.24102431063531
 31
0.0
  0
LINE
  5
284D
  8
3
 10
245.37474453375799
 20
163.24102431063531
 30
0.0
 11
245.4153083447674
 21
163.24102431063531
 31
0.0
  0
LINE
  5
284E
  8
3
 10
245.4153083447674
 20
163.24102431063531
 30
0.0
 11
245.4603792458889
 21
163.23651722052321
 31
0.0
  0
LINE
  5
284F
  8
3
 10
245.57756358880491
 20
163.3446873832149
 30
0.0
 11
245.5460139580199
 21
163.3446873832149
 31
0.0
  0
LINE
  5
2850
  8
3
 10
245.5460139580199
 20
163.3446873832149
 30
0.0
 11
245.50995723712271
 21
163.3446873832149
 31
0.0
  0
LINE
  5
2851
  8
3
 10
245.50094305689831
 20
163.232010130411
 30
0.0
 11
245.54150686790771
 21
163.22750304029881
 31
0.0
  0
LINE
  5
2852
  8
3
 10
245.54150686790771
 20
163.22750304029881
 30
0.0
 11
245.5820706789172
 21
163.22299595018669
 31
0.0
  0
LINE
  5
2853
  8
3
 10
245.50995723712271
 20
163.3446873832149
 30
0.0
 11
245.4693934261133
 21
163.3446873832149
 31
0.0
  0
LINE
  5
2854
  8
3
 10
245.4603792458889
 20
163.23651722052321
 30
0.0
 11
245.50094305689831
 21
163.232010130411
 31
0.0
  0
LINE
  5
2855
  8
3
 10
245.36122326342161
 20
163.3446873832149
 30
0.0
 11
245.28910982162699
 21
163.34018029310269
 31
0.0
  0
LINE
  5
2856
  8
3
 10
245.28910982162699
 20
163.2455314007475
 30
0.0
 11
245.33418072274861
 21
163.2455314007475
 31
0.0
  0
LINE
  5
2857
  8
3
 10
245.83446772519781
 20
163.66919787129001
 30
0.0
 11
245.83897481531
 21
163.63314115039279
 31
0.0
  0
LINE
  5
2858
  8
3
 10
245.82996063508571
 20
163.7728609438696
 30
0.0
 11
245.82996063508571
 21
163.73680422297241
 31
0.0
  0
LINE
  5
2859
  8
3
 10
245.82996063508571
 20
163.73680422297241
 30
0.0
 11
245.83446772519781
 21
163.70525459218729
 31
0.0
  0
LINE
  5
285A
  8
3
 10
245.83446772519781
 20
163.70525459218729
 30
0.0
 11
245.83446772519781
 21
163.66919787129001
 31
0.0
  0
LINE
  5
285B
  8
3
 10
245.81643936474919
 20
163.8449743856641
 30
0.0
 11
245.8254535449735
 21
163.8089176647668
 31
0.0
  0
LINE
  5
285C
  8
3
 10
245.8254535449735
 20
163.8089176647668
 30
0.0
 11
245.82996063508571
 21
163.7728609438696
 31
0.0
  0
LINE
  5
285D
  8
3
 10
245.811932274637
 20
163.8810311065613
 30
0.0
 11
245.81643936474919
 21
163.8449743856641
 31
0.0
  0
LINE
  5
285E
  8
3
 10
245.79841100430059
 20
163.91708782745849
 30
0.0
 11
245.811932274637
 21
163.8810311065613
 31
0.0
  0
LINE
  5
285F
  8
3
 10
245.83897481531
 20
163.5970844294956
 30
0.0
 11
245.83897481531
 21
163.56553479871039
 31
0.0
  0
LINE
  5
2860
  8
3
 10
245.83897481531
 20
163.56553479871039
 30
0.0
 11
245.83897481531
 21
163.5294780778132
 31
0.0
  0
LINE
  5
2861
  8
3
 10
245.83897481531
 20
163.63314115039279
 30
0.0
 11
245.83897481531
 21
163.5970844294956
 31
0.0
  0
LINE
  5
2862
  8
3
 10
245.83897481531
 20
163.493421356916
 30
0.0
 11
245.83446772519781
 21
163.46187172613091
 31
0.0
  0
LINE
  5
2863
  8
3
 10
245.78939682407631
 20
163.35370156343919
 30
0.0
 11
245.7488330130669
 21
163.34919447332709
 31
0.0
  0
LINE
  5
2864
  8
3
 10
245.7488330130669
 20
163.34919447332709
 30
0.0
 11
245.71277629216959
 21
163.3446873832149
 31
0.0
  0
LINE
  5
2865
  8
3
 10
245.71277629216959
 20
163.3446873832149
 30
0.0
 11
245.68573375149671
 21
163.3446873832149
 31
0.0
  0
LINE
  5
2866
  8
3
 10
245.68573375149671
 20
163.3446873832149
 30
0.0
 11
245.65869121082369
 21
163.3446873832149
 31
0.0
  0
LINE
  5
2867
  8
3
 10
245.65869121082369
 20
163.3446873832149
 30
0.0
 11
245.63164867015089
 21
163.3446873832149
 31
0.0
  0
LINE
  5
2868
  8
3
 10
245.63164867015089
 20
163.3446873832149
 30
0.0
 11
245.60460612947799
 21
163.3446873832149
 31
0.0
  0
LINE
  5
2869
  8
3
 10
245.6181273998144
 20
163.2139817699624
 30
0.0
 11
245.65869121082369
 21
163.2004604996259
 31
0.0
  0
LINE
  5
286A
  8
3
 10
245.83446772519781
 20
163.35820865355129
 30
0.0
 11
245.78939682407631
 21
163.35370156343919
 31
0.0
  0
LINE
  5
286B
  8
3
 10
245.83446772519781
 20
163.42581500523369
 30
0.0
 11
245.83446772519781
 21
163.35820865355129
 31
0.0
  0
LINE
  5
286C
  8
3
 10
245.83446772519781
 20
163.46187172613091
 30
0.0
 11
245.83446772519781
 21
163.42581500523369
 31
0.0
  0
LINE
  5
286D
  8
3
 10
245.83897481531
 20
163.5294780778132
 30
0.0
 11
245.83897481531
 21
163.493421356916
 31
0.0
  0
LINE
  5
286E
  8
3
 10
245.57305649869281
 20
164.28216212654311
 30
0.0
 11
245.60460612947799
 21
164.25061249575811
 31
0.0
  0
LINE
  5
286F
  8
3
 10
244.7527660982806
 20
164.4939953618144
 30
0.0
 11
244.80685117962651
 21
164.50300954203871
 31
0.0
  0
LINE
  5
2870
  8
3
 10
244.8293866301872
 20
164.64723642562771
 30
0.0
 11
244.7843157290657
 21
164.65625060585199
 31
0.0
  0
LINE
  5
2871
  8
3
 10
244.7843157290657
 20
164.65625060585199
 30
0.0
 11
244.73924482794411
 21
164.66526478607631
 31
0.0
  0
LINE
  5
2872
  8
3
 10
244.9781206038883
 20
164.51653081237521
 30
0.0
 11
245.0322056852342
 21
164.51653081237521
 31
0.0
  0
LINE
  5
2873
  8
3
 10
245.00967023467339
 20
164.6382222454034
 30
0.0
 11
244.96459933355189
 21
164.6382222454034
 31
0.0
  0
LINE
  5
2874
  8
3
 10
244.9195284324303
 20
164.51653081237521
 30
0.0
 11
244.9781206038883
 21
164.51653081237521
 31
0.0
  0
LINE
  5
2875
  8
3
 10
244.96459933355189
 20
164.6382222454034
 30
0.0
 11
244.9195284324303
 21
164.6382222454034
 31
0.0
  0
LINE
  5
2876
  8
3
 10
244.80685117962651
 20
164.50300954203871
 30
0.0
 11
244.86544335108439
 21
164.512023722263
 31
0.0
  0
LINE
  5
2877
  8
3
 10
244.87445753130879
 20
164.64272933551561
 30
0.0
 11
244.8293866301872
 21
164.64723642562771
 31
0.0
  0
LINE
  5
2878
  8
3
 10
244.86544335108439
 20
164.512023722263
 30
0.0
 11
244.9195284324303
 21
164.51653081237521
 31
0.0
  0
LINE
  5
2879
  8
3
 10
244.9195284324303
 20
164.6382222454034
 30
0.0
 11
244.87445753130879
 21
164.64272933551561
 31
0.0
  0
LINE
  5
287A
  8
3
 10
245.09079785669221
 20
164.5075166321509
 30
0.0
 11
245.14488293803811
 21
164.50300954203871
 31
0.0
  0
LINE
  5
287B
  8
3
 10
245.14488293803811
 20
164.50300954203871
 30
0.0
 11
245.19896801938401
 21
164.48948827170221
 31
0.0
  0
LINE
  5
287C
  8
3
 10
245.19446092927191
 20
164.67427896630059
 30
0.0
 11
245.13586875781371
 21
164.66075769596409
 31
0.0
  0
LINE
  5
287D
  8
3
 10
245.19896801938401
 20
164.48948827170221
 30
0.0
 11
245.2530531007298
 21
164.4759670013658
 31
0.0
  0
LINE
  5
287E
  8
3
 10
245.2530531007298
 20
164.69230732674919
 30
0.0
 11
245.19446092927191
 21
164.67427896630059
 31
0.0
  0
LINE
  5
287F
  8
3
 10
245.13586875781371
 20
164.66075769596409
 30
0.0
 11
245.00967023467339
 21
164.6382222454034
 31
0.0
  0
LINE
  5
2880
  8
3
 10
245.0322056852342
 20
164.51653081237521
 30
0.0
 11
245.09079785669221
 21
164.5075166321509
 31
0.0
  0
LINE
  5
2881
  8
3
 10
245.35220908319729
 20
164.4354031903564
 30
0.0
 11
245.39277289420659
 21
164.41286773979559
 31
0.0
  0
LINE
  5
2882
  8
3
 10
245.39277289420659
 20
164.41286773979559
 30
0.0
 11
245.43333670521599
 21
164.39033228923489
 31
0.0
  0
LINE
  5
2883
  8
3
 10
245.2530531007298
 20
164.4759670013658
 30
0.0
 11
245.35220908319729
 21
164.4354031903564
 31
0.0
  0
LINE
  5
2884
  8
3
 10
245.30713818207559
 20
164.71484277731
 30
0.0
 11
245.2530531007298
 21
164.69230732674919
 31
0.0
  0
LINE
  5
2885
  8
3
 10
245.54150686790771
 20
164.31371175732821
 30
0.0
 11
245.57305649869281
 21
164.28216212654311
 31
0.0
  0
LINE
  5
2886
  8
3
 10
245.50545014701049
 20
164.34075429800109
 30
0.0
 11
245.54150686790771
 21
164.31371175732821
 31
0.0
  0
LINE
  5
2887
  8
3
 10
245.4693934261133
 20
164.367796838674
 30
0.0
 11
245.50545014701049
 21
164.34075429800109
 31
0.0
  0
LINE
  5
2888
  8
3
 10
245.43333670521599
 20
164.39033228923489
 30
0.0
 11
245.4693934261133
 21
164.367796838674
 31
0.0
  0
LINE
  5
2889
  8
3
 10
245.60460612947799
 20
164.25061249575811
 30
0.0
 11
245.63164867015089
 21
164.2190628649729
 31
0.0
  0
LINE
  5
288A
  8
3
 10
245.63164867015089
 20
164.2190628649729
 30
0.0
 11
245.6631983009359
 21
164.18751323418789
 31
0.0
  0
LINE
  5
288B
  8
3
 10
245.6631983009359
 20
164.18751323418789
 30
0.0
 11
245.68573375149671
 21
164.15145651329061
 31
0.0
  0
LINE
  5
288C
  8
3
 10
245.68573375149671
 20
164.15145651329061
 30
0.0
 11
245.71277629216959
 21
164.11539979239339
 31
0.0
  0
LINE
  5
288D
  8
3
 10
245.71277629216959
 20
164.11539979239339
 30
0.0
 11
245.7308046526183
 21
164.07483598138401
 31
0.0
  0
LINE
  5
288E
  8
3
 10
245.7308046526183
 20
164.07483598138401
 30
0.0
 11
245.753340103179
 21
164.03877926048671
 31
0.0
  0
LINE
  5
288F
  8
3
 10
245.753340103179
 20
164.03877926048671
 30
0.0
 11
245.77136846362771
 21
163.9982154494773
 31
0.0
  0
LINE
  5
2890
  8
3
 10
243.36908943384901
 20
165.4540055557035
 30
0.0
 11
243.36908943384901
 21
165.4900622766007
 31
0.0
  0
LINE
  5
2891
  8
3
 10
244.15332311336391
 20
165.50358354693719
 30
0.0
 11
244.15332311336391
 21
165.4179488348062
 31
0.0
  0
LINE
  5
2892
  8
3
 10
244.33360671785019
 20
164.88160511145969
 30
0.0
 11
244.3200854475138
 21
166.03992727028361
 31
0.0
  0
LINE
  5
2893
  8
3
 10
243.88289770663471
 20
164.7914633092166
 30
0.0
 11
243.8423338956253
 21
164.79597039932881
 31
0.0
  0
LINE
  5
2894
  8
3
 10
243.36908943384901
 20
165.26470777099291
 30
0.0
 11
243.36908943384901
 21
165.30076449189011
 31
0.0
  0
LINE
  5
2895
  8
3
 10
243.36908943384901
 20
165.30076449189011
 30
0.0
 11
243.36908943384901
 21
165.3413283028996
 31
0.0
  0
LINE
  5
2896
  8
3
 10
243.36908943384901
 20
165.37738502379679
 30
0.0
 11
243.36908943384901
 21
165.4134417446941
 31
0.0
  0
LINE
  5
2897
  8
3
 10
243.36908943384901
 20
165.4134417446941
 30
0.0
 11
243.36908943384901
 21
165.4540055557035
 31
0.0
  0
LINE
  5
2898
  8
3
 10
243.36908943384901
 20
165.3413283028996
 30
0.0
 11
243.36908943384901
 21
165.37738502379679
 31
0.0
  0
LINE
  5
2899
  8
3
 10
243.38261070418551
 20
165.07991707639459
 30
0.0
 11
243.3781036140733
 21
165.11597379729179
 31
0.0
  0
LINE
  5
289A
  8
3
 10
243.3871177942975
 20
165.0438603554974
 30
0.0
 11
243.38261070418551
 21
165.07991707639459
 31
0.0
  0
LINE
  5
289B
  8
3
 10
243.3735965239612
 20
165.18808723908629
 30
0.0
 11
243.3735965239612
 21
165.22865105009569
 31
0.0
  0
LINE
  5
289C
  8
3
 10
243.3781036140733
 20
165.11597379729179
 30
0.0
 11
243.3735965239612
 21
165.15203051818901
 31
0.0
  0
LINE
  5
289D
  8
3
 10
243.3735965239612
 20
165.15203051818901
 30
0.0
 11
243.3735965239612
 21
165.18808723908629
 31
0.0
  0
LINE
  5
289E
  8
3
 10
243.76571336371859
 20
164.80949166966531
 30
0.0
 11
243.72514955270921
 21
164.81399875977741
 31
0.0
  0
LINE
  5
289F
  8
3
 10
243.72514955270921
 20
164.81399875977741
 30
0.0
 11
243.68909283181199
 21
164.81850584988959
 31
0.0
  0
LINE
  5
28A0
  8
3
 10
243.68909283181199
 20
164.81850584988959
 30
0.0
 11
243.64852902080261
 21
164.82752003011379
 31
0.0
  0
LINE
  5
28A1
  8
3
 10
243.64852902080261
 20
164.82752003011379
 30
0.0
 11
243.61247229990539
 21
164.84104130045031
 31
0.0
  0
LINE
  5
28A2
  8
3
 10
243.61247229990539
 20
164.84104130045031
 30
0.0
 11
243.54035885811089
 21
164.87259093123541
 31
0.0
  0
LINE
  5
28A3
  8
3
 10
243.54035885811089
 20
164.87259093123541
 30
0.0
 11
243.3871177942975
 21
165.0438603554974
 31
0.0
  0
LINE
  5
28A4
  8
3
 10
243.3735965239612
 20
165.22865105009569
 30
0.0
 11
243.36908943384901
 21
165.26470777099291
 31
0.0
  0
LINE
  5
28A5
  8
3
 10
243.8423338956253
 20
164.79597039932881
 30
0.0
 11
243.80177008461601
 21
164.80047748944099
 31
0.0
  0
LINE
  5
28A6
  8
3
 10
243.80177008461601
 20
164.80047748944099
 30
0.0
 11
243.76571336371859
 21
164.80949166966531
 31
0.0
  0
LINE
  5
28A7
  8
3
 10
244.15332311336391
 20
165.4179488348062
 30
0.0
 11
244.1578302034761
 21
165.3323141226752
 31
0.0
  0
LINE
  5
28A8
  8
3
 10
244.16684438370049
 20
165.16104469841329
 30
0.0
 11
244.17135147381259
 21
165.07540998628241
 31
0.0
  0
LINE
  5
28A9
  8
3
 10
244.17135147381259
 20
165.07540998628241
 30
0.0
 11
244.17135147381259
 21
164.9897752741515
 31
0.0
  0
LINE
  5
28AA
  8
3
 10
244.16233729358831
 20
165.24667941054429
 30
0.0
 11
244.16684438370049
 21
165.16104469841329
 31
0.0
  0
LINE
  5
28AB
  8
3
 10
243.91895442753199
 20
164.7869562191045
 30
0.0
 11
243.88289770663471
 21
164.7914633092166
 31
0.0
  0
LINE
  5
28AC
  8
3
 10
244.10825221224249
 20
164.72836404764649
 30
0.0
 11
244.07219549134521
 21
164.74639240809509
 31
0.0
  0
LINE
  5
28AD
  8
3
 10
244.07219549134521
 20
164.74639240809509
 30
0.0
 11
244.03613877044799
 21
164.75991367843159
 31
0.0
  0
LINE
  5
28AE
  8
3
 10
244.03613877044799
 20
164.75991367843159
 30
0.0
 11
243.9955749594385
 21
164.7689278586559
 31
0.0
  0
LINE
  5
28AF
  8
3
 10
243.9955749594385
 20
164.7689278586559
 30
0.0
 11
243.95951823854131
 21
164.77794203888021
 31
0.0
  0
LINE
  5
28B0
  8
3
 10
244.52741159267291
 20
164.73287113775859
 30
0.0
 11
244.48684778166341
 21
164.7554065883194
 31
0.0
  0
LINE
  5
28B1
  8
3
 10
244.48684778166341
 20
164.7554065883194
 30
0.0
 11
244.45079106076619
 21
164.773434948768
 31
0.0
  0
LINE
  5
28B2
  8
3
 10
244.45079106076619
 20
164.773434948768
 30
0.0
 11
244.41473433986889
 21
164.79597039932881
 31
0.0
  0
LINE
  5
28B3
  8
3
 10
244.41473433986889
 20
164.79597039932881
 30
0.0
 11
244.3471279881866
 21
164.8500554806746
 31
0.0
  0
LINE
  5
28B4
  8
3
 10
244.3471279881866
 20
164.8500554806746
 30
0.0
 11
244.3471279881866
 21
164.85456257078681
 31
0.0
  0
LINE
  5
28B5
  8
3
 10
244.3471279881866
 20
164.85456257078681
 30
0.0
 11
244.3426208980745
 21
164.85456257078681
 31
0.0
  0
LINE
  5
28B6
  8
3
 10
244.3426208980745
 20
164.85456257078681
 30
0.0
 11
244.3426208980745
 21
164.85906966089891
 31
0.0
  0
LINE
  5
28B7
  8
3
 10
244.3426208980745
 20
164.85906966089891
 30
0.0
 11
244.3426208980745
 21
164.8635767510111
 31
0.0
  0
LINE
  5
28B8
  8
3
 10
244.3426208980745
 20
164.8635767510111
 30
0.0
 11
244.33811380796229
 21
164.86808384112331
 31
0.0
  0
LINE
  5
28B9
  8
3
 10
244.33811380796229
 20
164.86808384112331
 30
0.0
 11
244.33811380796229
 21
164.87259093123541
 31
0.0
  0
LINE
  5
28BA
  8
3
 10
244.33811380796229
 20
164.87259093123541
 30
0.0
 11
244.33811380796229
 21
164.87709802134759
 31
0.0
  0
LINE
  5
28BB
  8
3
 10
244.33811380796229
 20
164.87709802134759
 30
0.0
 11
244.33360671785019
 21
164.88160511145969
 31
0.0
  0
LINE
  5
28BC
  8
3
 10
244.17135147381259
 20
164.9041405620205
 30
0.0
 11
244.1488160232519
 21
164.74188531798291
 31
0.0
  0
LINE
  5
28BD
  8
3
 10
243.95951823854131
 20
164.77794203888021
 30
0.0
 11
243.91895442753199
 21
164.7869562191045
 31
0.0
  0
LINE
  5
28BE
  8
3
 10
244.17135147381259
 20
164.9897752741515
 30
0.0
 11
244.17135147381259
 21
164.9041405620205
 31
0.0
  0
LINE
  5
28BF
  8
3
 10
244.1578302034761
 20
165.3323141226752
 30
0.0
 11
244.16233729358831
 21
165.24667941054429
 31
0.0
  0
LINE
  5
28C0
  8
3
 10
243.4502170558678
 20
166.15260452308749
 30
0.0
 11
243.4817666866528
 21
166.22922505499409
 31
0.0
  0
LINE
  5
28C1
  8
3
 10
243.3555681635126
 20
165.64330334041389
 30
0.0
 11
243.3600752536247
 21
165.72893805254489
 31
0.0
  0
LINE
  5
28C2
  8
3
 10
243.36908943384901
 20
165.4900622766007
 30
0.0
 11
243.36908943384901
 21
165.5306260876101
 31
0.0
  0
LINE
  5
28C3
  8
3
 10
243.36908943384901
 20
165.5306260876101
 30
0.0
 11
243.36458234373691
 21
165.5666828085073
 31
0.0
  0
LINE
  5
28C4
  8
3
 10
243.36458234373691
 20
165.5666828085073
 30
0.0
 11
243.3555681635126
 21
165.64330334041389
 31
0.0
  0
LINE
  5
28C5
  8
3
 10
243.36908943384901
 20
165.81907985478799
 30
0.0
 11
243.38261070418551
 21
165.9047145669189
 31
0.0
  0
LINE
  5
28C6
  8
3
 10
243.3600752536247
 20
165.72893805254489
 30
0.0
 11
243.36908943384901
 21
165.81907985478799
 31
0.0
  0
LINE
  5
28C7
  8
3
 10
243.38261070418551
 20
165.9047145669189
 30
0.0
 11
243.40063906463411
 21
165.99034927904989
 31
0.0
  0
LINE
  5
28C8
  8
3
 10
243.40063906463411
 20
165.99034927904989
 30
0.0
 11
243.4231745151948
 21
166.07147690106871
 31
0.0
  0
LINE
  5
28C9
  8
3
 10
243.4231745151948
 20
166.07147690106871
 30
0.0
 11
243.4502170558678
 21
166.15260452308749
 31
0.0
  0
LINE
  5
28CA
  8
3
 10
244.16684438370049
 20
165.7514735031057
 30
0.0
 11
244.1578302034761
 21
165.67034588108689
 31
0.0
  0
LINE
  5
28CB
  8
3
 10
244.15332311336391
 20
165.5892182590681
 30
0.0
 11
244.15332311336391
 21
165.50358354693719
 31
0.0
  0
LINE
  5
28CC
  8
3
 10
244.1578302034761
 20
165.67034588108689
 30
0.0
 11
244.15332311336391
 21
165.5892182590681
 31
0.0
  0
LINE
  5
28CD
  8
3
 10
244.211915284822
 20
165.9047145669189
 30
0.0
 11
244.18487274414909
 21
165.8280940350123
 31
0.0
  0
LINE
  5
28CE
  8
3
 10
244.18487274414909
 20
165.8280940350123
 30
0.0
 11
244.16684438370049
 21
165.7514735031057
 31
0.0
  0
LINE
  5
28CF
  8
3
 10
244.3200854475138
 20
166.03992727028361
 30
0.0
 11
244.31557835740151
 21
166.03992727028361
 31
0.0
  0
LINE
  5
28D0
  8
3
 10
244.31557835740151
 20
166.03992727028361
 30
0.0
 11
244.31107126728941
 21
166.03992727028361
 31
0.0
  0
LINE
  5
28D1
  8
3
 10
244.31107126728941
 20
166.03992727028361
 30
0.0
 11
244.30656417717731
 21
166.03992727028361
 31
0.0
  0
LINE
  5
28D2
  8
3
 10
244.30656417717731
 20
166.03992727028361
 30
0.0
 11
244.30205708706509
 21
166.03992727028361
 31
0.0
  0
LINE
  5
28D3
  8
3
 10
244.30205708706509
 20
166.03992727028361
 30
0.0
 11
244.29754999695299
 21
166.03992727028361
 31
0.0
  0
LINE
  5
28D4
  8
3
 10
244.29754999695299
 20
166.03992727028361
 30
0.0
 11
244.2885358167286
 21
166.04443436039571
 31
0.0
  0
LINE
  5
28D5
  8
3
 10
244.2885358167286
 20
166.04443436039571
 30
0.0
 11
244.2479720057193
 21
165.9723209186013
 31
0.0
  0
LINE
  5
28D6
  8
3
 10
244.2479720057193
 20
165.9723209186013
 30
0.0
 11
244.211915284822
 21
165.9047145669189
 31
0.0
  0
POLYLINE
  5
28D7
  8
3
 66
     1
 10
0.0
 20
0.0
 30
0.0
 70
     1
  0
VERTEX
  5
2C6D
  8
3
 10
244.86995044119661
 20
165.44499137547911
 30
0.0
  0
VERTEX
  5
2C6E
  8
3
 10
244.86995044119661
 20
166.07598399118081
 30
0.0
  0
VERTEX
  5
2C6F
  8
3
 10
244.87896462142089
 20
166.08049108129299
 30
0.0
  0
VERTEX
  5
2C70
  8
3
 10
244.88797880164529
 20
166.0849981714052
 30
0.0
  0
VERTEX
  5
2C71
  8
3
 10
244.89248589175739
 20
166.0849981714052
 30
0.0
  0
VERTEX
  5
2C72
  8
3
 10
244.9015000719817
 20
166.0849981714052
 30
0.0
  0
VERTEX
  5
2C73
  8
3
 10
244.90600716209391
 20
166.08049108129299
 30
0.0
  0
VERTEX
  5
2C74
  8
3
 10
244.91502134231811
 20
166.07598399118081
 30
0.0
  0
VERTEX
  5
2C75
  8
3
 10
244.92403552254251
 20
166.07147690106871
 30
0.0
  0
VERTEX
  5
2C76
  8
3
 10
244.93304970276679
 20
166.06246272084439
 30
0.0
  0
VERTEX
  5
2C77
  8
3
 10
244.93755679287901
 20
166.05344854062
 30
0.0
  0
VERTEX
  5
2C78
  8
3
 10
244.94657097310329
 20
166.04443436039571
 30
0.0
  0
VERTEX
  5
2C79
  8
3
 10
244.9555851533276
 20
166.0354201801714
 30
0.0
  0
VERTEX
  5
2C7A
  8
3
 10
244.96459933355189
 20
166.02640599994709
 30
0.0
  0
VERTEX
  5
2C7B
  8
3
 10
244.96910642366399
 20
166.0173918197228
 30
0.0
  0
VERTEX
  5
2C7C
  8
3
 10
244.9781206038883
 20
166.00837763949849
 30
0.0
  0
VERTEX
  5
2C7D
  8
3
 10
244.99164187422471
 20
165.99485636916211
 30
0.0
  0
VERTEX
  5
2C7E
  8
3
 10
245.00967023467339
 20
165.96781382848911
 30
0.0
  0
VERTEX
  5
2C7F
  8
3
 10
245.02769859512199
 20
165.93626419770399
 30
0.0
  0
VERTEX
  5
2C80
  8
3
 10
245.04121986545849
 20
165.90922165703111
 30
0.0
  0
VERTEX
  5
2C81
  8
3
 10
245.05023404568291
 20
165.8821791163582
 30
0.0
  0
VERTEX
  5
2C82
  8
3
 10
245.0592482259072
 20
165.85062948557311
 30
0.0
  0
VERTEX
  5
2C83
  8
3
 10
245.06826240613151
 20
165.8235869449002
 30
0.0
  0
VERTEX
  5
2C84
  8
3
 10
245.07727658635579
 20
165.79203731411499
 30
0.0
  0
VERTEX
  5
2C85
  8
3
 10
245.08178367646789
 20
165.76048768333001
 30
0.0
  0
VERTEX
  5
2C86
  8
3
 10
245.08629076658011
 20
165.72893805254489
 30
0.0
  0
VERTEX
  5
2C87
  8
3
 10
245.08629076658011
 20
165.6973884217598
 30
0.0
  0
VERTEX
  5
2C88
  8
3
 10
245.08629076658011
 20
165.6658387909747
 30
0.0
  0
VERTEX
  5
2C89
  8
3
 10
245.08629076658011
 20
165.63428916018961
 30
0.0
  0
VERTEX
  5
2C8A
  8
3
 10
245.08178367646789
 20
165.6072466195167
 30
0.0
  0
VERTEX
  5
2C8B
  8
3
 10
245.07727658635579
 20
165.57569698873161
 30
0.0
  0
VERTEX
  5
2C8C
  8
3
 10
245.0637553160193
 20
165.51710481727361
 30
0.0
  0
VERTEX
  5
2C8D
  8
3
 10
245.0592482259072
 20
165.50358354693719
 30
0.0
  0
VERTEX
  5
2C8E
  8
3
 10
245.05474113579501
 20
165.4945693667128
 30
0.0
  0
VERTEX
  5
2C8F
  8
3
 10
245.05023404568291
 20
165.48104809637641
 30
0.0
  0
VERTEX
  5
2C90
  8
3
 10
245.04121986545849
 20
165.4720339161521
 30
0.0
  0
VERTEX
  5
2C91
  8
3
 10
245.03671277534639
 20
165.46301973592779
 30
0.0
  0
VERTEX
  5
2C92
  8
3
 10
245.02769859512199
 20
165.4540055557035
 30
0.0
  0
VERTEX
  5
2C93
  8
3
 10
245.01868441489771
 20
165.44499137547911
 30
0.0
  0
VERTEX
  5
2C94
  8
3
 10
245.00967023467339
 20
165.44048428536701
 30
0.0
  0
VERTEX
  5
2C95
  8
3
 10
245.00065605444919
 20
165.43147010514269
 30
0.0
  0
VERTEX
  5
2C96
  8
3
 10
244.99164187422471
 20
165.42696301503051
 30
0.0
  0
VERTEX
  5
2C97
  8
3
 10
244.98262769400051
 20
165.4224559249183
 30
0.0
  0
VERTEX
  5
2C98
  8
3
 10
244.9736135137762
 20
165.4179488348062
 30
0.0
  0
VERTEX
  5
2C99
  8
3
 10
244.96459933355189
 20
165.4134417446941
 30
0.0
  0
VERTEX
  5
2C9A
  8
3
 10
244.9510780632155
 20
165.40893465458191
 30
0.0
  0
VERTEX
  5
2C9B
  8
3
 10
244.92854261265461
 20
165.4044275644697
 30
0.0
  0
VERTEX
  5
2C9C
  8
3
 10
244.87445753130879
 20
165.43597719525479
 30
0.0
  0
VERTEX
  5
2C9D
  8
3
 10
244.87445753130879
 20
165.44048428536701
 30
0.0
  0
VERTEX
  5
2C9E
  8
3
 10
244.86995044119661
 20
165.44499137547911
 30
0.0
  0
SEQEND
  5
2C9F
  8
3
  0
LINE
  5
290B
  8
3
 10
245.85249608564649
 20
165.4900622766007
 30
0.0
 11
245.84798899553431
 21
165.44048428536701
 31
0.0
  0
LINE
  5
290C
  8
3
 10
245.63615576026299
 20
164.93569019280559
 30
0.0
 11
245.59559194925359
 21
164.89512638179619
 31
0.0
  0
LINE
  5
290D
  8
3
 10
245.4603792458889
 20
164.79597039932881
 30
0.0
 11
245.4153083447674
 21
164.76442076854369
 31
0.0
  0
LINE
  5
290E
  8
3
 10
245.4153083447674
 20
164.76442076854369
 30
0.0
 11
245.36122326342161
 21
164.73737822787081
 31
0.0
  0
LINE
  5
290F
  8
3
 10
245.5550281382443
 20
164.85906966089891
 30
0.0
 11
245.50995723712271
 21
164.82752003011379
 31
0.0
  0
LINE
  5
2910
  8
3
 10
245.59559194925359
 20
164.89512638179619
 30
0.0
 11
245.5550281382443
 21
164.85906966089891
 31
0.0
  0
LINE
  5
2911
  8
3
 10
245.50995723712271
 20
164.82752003011379
 30
0.0
 11
245.4603792458889
 21
164.79597039932881
 31
0.0
  0
LINE
  5
2912
  8
3
 10
245.84348190542221
 20
165.39090629413329
 30
0.0
 11
245.83446772519781
 21
165.3413283028996
 31
0.0
  0
LINE
  5
2913
  8
3
 10
245.83446772519781
 20
165.3413283028996
 30
0.0
 11
245.82094645486131
 21
165.29175031166579
 31
0.0
  0
LINE
  5
2914
  8
3
 10
245.84798899553431
 20
165.44048428536701
 30
0.0
 11
245.84348190542221
 21
165.39090629413329
 31
0.0
  0
LINE
  5
2915
  8
3
 10
245.7623542834034
 20
165.12048088740389
 30
0.0
 11
245.73531174273049
 21
165.0709028961702
 31
0.0
  0
LINE
  5
2916
  8
3
 10
245.70376211194531
 20
165.02132490493659
 30
0.0
 11
245.6722124811603
 21
164.976254003815
 31
0.0
  0
LINE
  5
2917
  8
3
 10
245.73531174273049
 20
165.0709028961702
 30
0.0
 11
245.70376211194531
 21
165.02132490493659
 31
0.0
  0
LINE
  5
2918
  8
3
 10
245.79390391418841
 20
165.1925943291985
 30
0.0
 11
245.79390391418841
 21
165.1835801489741
 31
0.0
  0
LINE
  5
2919
  8
3
 10
245.79390391418841
 20
165.1835801489741
 30
0.0
 11
245.78939682407631
 21
165.179073058862
 31
0.0
  0
LINE
  5
291A
  8
3
 10
245.78939682407631
 20
165.179073058862
 30
0.0
 11
245.78939682407631
 21
165.17456596874979
 31
0.0
  0
LINE
  5
291B
  8
3
 10
245.78939682407631
 20
165.17456596874979
 30
0.0
 11
245.78488973396421
 21
165.17005887863769
 31
0.0
  0
LINE
  5
291C
  8
3
 10
245.78488973396421
 20
165.17005887863769
 30
0.0
 11
245.78488973396421
 21
165.16555178852551
 31
0.0
  0
LINE
  5
291D
  8
3
 10
245.78038264385199
 20
165.16104469841329
 30
0.0
 11
245.77587555373981
 21
165.15653760830119
 31
0.0
  0
LINE
  5
291E
  8
3
 10
245.77587555373981
 20
165.15653760830119
 30
0.0
 11
245.77587555373981
 21
165.15203051818901
 31
0.0
  0
LINE
  5
291F
  8
3
 10
245.77587555373981
 20
165.15203051818901
 30
0.0
 11
245.77136846362771
 21
165.14752342807691
 31
0.0
  0
LINE
  5
2920
  8
3
 10
245.77136846362771
 20
165.14752342807691
 30
0.0
 11
245.77136846362771
 21
165.1430163379647
 31
0.0
  0
LINE
  5
2921
  8
3
 10
245.77136846362771
 20
165.1430163379647
 30
0.0
 11
245.77136846362771
 21
165.1385092478526
 31
0.0
  0
LINE
  5
2922
  8
3
 10
245.77136846362771
 20
165.1385092478526
 30
0.0
 11
245.7668613735155
 21
165.1385092478526
 31
0.0
  0
LINE
  5
2923
  8
3
 10
245.7668613735155
 20
165.1385092478526
 30
0.0
 11
245.7668613735155
 21
165.13400215774041
 31
0.0
  0
LINE
  5
2924
  8
3
 10
245.7668613735155
 20
165.12949506762831
 30
0.0
 11
245.7623542834034
 21
165.12048088740389
 31
0.0
  0
LINE
  5
2925
  8
3
 10
245.7668613735155
 20
165.13400215774041
 30
0.0
 11
245.7668613735155
 21
165.12949506762831
 31
0.0
  0
LINE
  5
2926
  8
3
 10
245.78488973396421
 20
165.16555178852551
 30
0.0
 11
245.78038264385199
 21
165.16104469841329
 31
0.0
  0
LINE
  5
2927
  8
3
 10
245.6722124811603
 20
164.976254003815
 30
0.0
 11
245.63615576026299
 21
164.93569019280559
 31
0.0
  0
LINE
  5
2928
  8
3
 10
245.82094645486131
 20
165.29175031166579
 30
0.0
 11
245.79390391418841
 21
165.1925943291985
 31
0.0
  0
LINE
  5
2929
  8
3
 10
245.80291809441269
 20
166.24274632533059
 30
0.0
 11
245.79390391418841
 21
166.2382392352184
 31
0.0
  0
LINE
  5
292A
  8
3
 10
245.79390391418841
 20
166.2382392352184
 30
0.0
 11
245.78939682407631
 21
166.2337321451063
 31
0.0
  0
LINE
  5
292B
  8
3
 10
245.78939682407631
 20
166.2337321451063
 30
0.0
 11
245.78038264385199
 21
166.22922505499409
 31
0.0
  0
LINE
  5
292C
  8
3
 10
245.78038264385199
 20
166.22922505499409
 30
0.0
 11
245.77136846362771
 21
166.22922505499409
 31
0.0
  0
LINE
  5
292D
  8
3
 10
245.77136846362771
 20
166.22922505499409
 30
0.0
 11
245.7623542834034
 21
166.2247179648819
 31
0.0
  0
LINE
  5
292E
  8
3
 10
245.7623542834034
 20
166.2247179648819
 30
0.0
 11
245.753340103179
 21
166.2202108747698
 31
0.0
  0
LINE
  5
292F
  8
3
 10
245.753340103179
 20
166.2202108747698
 30
0.0
 11
245.7308046526183
 21
166.21570378465759
 31
0.0
  0
LINE
  5
2930
  8
3
 10
245.7308046526183
 20
166.21570378465759
 30
0.0
 11
245.7308046526183
 21
166.21119669454549
 31
0.0
  0
LINE
  5
2931
  8
3
 10
245.7308046526183
 20
166.21119669454549
 30
0.0
 11
245.7308046526183
 21
166.20668960443331
 31
0.0
  0
LINE
  5
2932
  8
3
 10
245.7308046526183
 20
166.20668960443331
 30
0.0
 11
245.7262975625062
 21
166.20668960443331
 31
0.0
  0
LINE
  5
2933
  8
3
 10
245.7262975625062
 20
166.20668960443331
 30
0.0
 11
245.7262975625062
 21
166.20218251432109
 31
0.0
  0
LINE
  5
2934
  8
3
 10
245.7262975625062
 20
166.20218251432109
 30
0.0
 11
245.72179047239391
 21
166.197675424209
 31
0.0
  0
LINE
  5
2935
  8
3
 10
245.72179047239391
 20
166.197675424209
 30
0.0
 11
245.72179047239391
 21
166.19316833409681
 31
0.0
  0
LINE
  5
2936
  8
3
 10
245.72179047239391
 20
166.19316833409681
 30
0.0
 11
245.72179047239391
 21
166.18866124398471
 31
0.0
  0
LINE
  5
2937
  8
3
 10
245.72179047239391
 20
166.18866124398471
 30
0.0
 11
245.72179047239391
 21
166.1841541538725
 31
0.0
  0
LINE
  5
2938
  8
3
 10
245.72179047239391
 20
166.1841541538725
 30
0.0
 11
245.72179047239391
 21
166.1796470637604
 31
0.0
  0
LINE
  5
2939
  8
3
 10
245.72179047239391
 20
166.1796470637604
 30
0.0
 11
245.72179047239391
 21
166.17513997364821
 31
0.0
  0
LINE
  5
293A
  8
3
 10
245.72179047239391
 20
166.17513997364821
 30
0.0
 11
245.72179047239391
 21
166.17063288353609
 31
0.0
  0
LINE
  5
293B
  8
3
 10
245.72179047239391
 20
166.17063288353609
 30
0.0
 11
245.72179047239391
 21
166.1661257934239
 31
0.0
  0
LINE
  5
293C
  8
3
 10
245.72179047239391
 20
166.1661257934239
 30
0.0
 11
245.72179047239391
 21
166.1616187033118
 31
0.0
  0
LINE
  5
293D
  8
3
 10
245.72179047239391
 20
166.1616187033118
 30
0.0
 11
245.71728338228181
 21
166.15711161319959
 31
0.0
  0
LINE
  5
293E
  8
3
 10
245.71728338228181
 20
166.15711161319959
 30
0.0
 11
245.7262975625062
 21
166.14809743297531
 31
0.0
  0
LINE
  5
293F
  8
3
 10
245.7262975625062
 20
166.14809743297531
 30
0.0
 11
245.7308046526183
 21
166.13908325275099
 31
0.0
  0
LINE
  5
2940
  8
3
 10
245.7308046526183
 20
166.13908325275099
 30
0.0
 11
245.73531174273049
 21
166.1300690725266
 31
0.0
  0
LINE
  5
2941
  8
3
 10
245.84798899553431
 20
165.7424593228813
 30
0.0
 11
245.85249608564649
 21
165.6928813316477
 31
0.0
  0
LINE
  5
2942
  8
3
 10
245.85700317575859
 20
165.53964026783439
 30
0.0
 11
245.85249608564649
 21
165.4900622766007
 31
0.0
  0
LINE
  5
2943
  8
3
 10
245.85700317575859
 20
165.64330334041389
 30
0.0
 11
245.85700317575859
 21
165.5937253491802
 31
0.0
  0
LINE
  5
2944
  8
3
 10
245.85700317575859
 20
165.5937253491802
 30
0.0
 11
245.85700317575859
 21
165.53964026783439
 31
0.0
  0
LINE
  5
2945
  8
3
 10
245.85249608564649
 20
165.6928813316477
 30
0.0
 11
245.85700317575859
 21
165.64330334041389
 31
0.0
  0
LINE
  5
2946
  8
3
 10
245.8254535449735
 20
165.9002074768068
 30
0.0
 11
245.83446772519781
 21
165.8461223954609
 31
0.0
  0
LINE
  5
2947
  8
3
 10
245.83446772519781
 20
165.8461223954609
 30
0.0
 11
245.84348190542221
 21
165.79654440422721
 31
0.0
  0
LINE
  5
2948
  8
3
 10
245.84348190542221
 20
165.79654440422721
 30
0.0
 11
245.84798899553431
 21
165.7424593228813
 31
0.0
  0
LINE
  5
2949
  8
3
 10
245.73981883284259
 20
166.11654780219021
 30
0.0
 11
245.7488330130669
 21
166.1075336219659
 31
0.0
  0
LINE
  5
294A
  8
3
 10
245.7488330130669
 20
166.1075336219659
 30
0.0
 11
245.753340103179
 21
166.09851944174159
 31
0.0
  0
LINE
  5
294B
  8
3
 10
245.753340103179
 20
166.09851944174159
 30
0.0
 11
245.7578471932911
 21
166.0895052615173
 31
0.0
  0
LINE
  5
294C
  8
3
 10
245.7578471932911
 20
166.0895052615173
 30
0.0
 11
245.7623542834034
 21
166.08049108129299
 31
0.0
  0
LINE
  5
294D
  8
3
 10
245.7623542834034
 20
166.08049108129299
 30
0.0
 11
245.7668613735155
 21
166.06696981095649
 31
0.0
  0
LINE
  5
294E
  8
3
 10
245.7668613735155
 20
166.06696981095649
 30
0.0
 11
245.77136846362771
 21
166.05795563073221
 31
0.0
  0
LINE
  5
294F
  8
3
 10
245.77136846362771
 20
166.05795563073221
 30
0.0
 11
245.77587555373981
 21
166.0489414505079
 31
0.0
  0
LINE
  5
2950
  8
3
 10
245.77587555373981
 20
166.0489414505079
 30
0.0
 11
245.78038264385199
 21
166.03992727028361
 31
0.0
  0
LINE
  5
2951
  8
3
 10
245.78038264385199
 20
166.03992727028361
 30
0.0
 11
245.78488973396421
 21
166.0309130900593
 31
0.0
  0
LINE
  5
2952
  8
3
 10
245.78488973396421
 20
166.0309130900593
 30
0.0
 11
245.78939682407631
 21
166.02189890983499
 31
0.0
  0
LINE
  5
2953
  8
3
 10
245.78939682407631
 20
166.02189890983499
 30
0.0
 11
245.79841100430059
 21
166.00837763949849
 31
0.0
  0
LINE
  5
2954
  8
3
 10
245.79841100430059
 20
166.00837763949849
 30
0.0
 11
245.811932274637
 21
165.9542925581527
 31
0.0
  0
LINE
  5
2955
  8
3
 10
245.811932274637
 20
165.9542925581527
 30
0.0
 11
245.8254535449735
 21
165.9002074768068
 31
0.0
  0
LINE
  5
2956
  8
3
 10
245.73531174273049
 20
166.1300690725266
 30
0.0
 11
245.73981883284259
 21
166.11654780219021
 31
0.0
  0
LINE
  5
2957
  8
3
 10
243.55388012844739
 20
166.37795902869519
 30
0.0
 11
243.59895102956889
 21
166.4455653803775
 31
0.0
  0
LINE
  5
2958
  8
3
 10
243.51331631743801
 20
166.30584558690069
 30
0.0
 11
243.55388012844739
 21
166.37795902869519
 31
0.0
  0
LINE
  5
2959
  8
3
 10
245.84798899553431
 20
166.28781722645209
 30
0.0
 11
245.84798899553431
 21
166.27880304622781
 31
0.0
  0
LINE
  5
295A
  8
3
 10
245.84798899553431
 20
166.27880304622781
 30
0.0
 11
245.83897481531
 21
166.27429595611571
 31
0.0
  0
LINE
  5
295B
  8
3
 10
245.83897481531
 20
166.27429595611571
 30
0.0
 11
245.83446772519781
 21
166.26528177589131
 31
0.0
  0
LINE
  5
295C
  8
3
 10
245.83446772519781
 20
166.26528177589131
 30
0.0
 11
245.82996063508571
 21
166.26077468577921
 31
0.0
  0
LINE
  5
295D
  8
3
 10
245.82996063508571
 20
166.26077468577921
 30
0.0
 11
245.8254535449735
 21
166.256267595667
 31
0.0
  0
LINE
  5
295E
  8
3
 10
245.8254535449735
 20
166.256267595667
 30
0.0
 11
245.81643936474919
 21
166.2517605055549
 31
0.0
  0
LINE
  5
295F
  8
3
 10
245.81643936474919
 20
166.2517605055549
 30
0.0
 11
245.811932274637
 21
166.24725341544271
 31
0.0
  0
LINE
  5
2960
  8
3
 10
243.59895102956889
 20
166.4455653803775
 30
0.0
 11
243.64402193069051
 21
166.5131717320599
 31
0.0
  0
LINE
  5
2961
  8
3
 10
245.84798899553431
 20
166.5131717320599
 30
0.0
 11
245.84798899553431
 21
166.28781722645209
 31
0.0
  0
LINE
  5
2962
  8
3
 10
245.50995723712271
 20
167.02698000484551
 30
0.0
 11
245.62714158003871
 21
167.05402254551851
 31
0.0
  0
LINE
  5
2963
  8
3
 10
245.3882658040944
 20
167.01345873450899
 30
0.0
 11
245.50995723712271
 21
167.02698000484551
 31
0.0
  0
LINE
  5
2964
  8
3
 10
245.62714158003871
 20
167.05402254551851
 30
0.0
 11
245.84798899553431
 21
167.15317852798589
 31
0.0
  0
ARC
  5
2965
  8
0
 10
245.84388349649461
 20
184.3658598851143
 30
0.0
 40
3.0
 50
0.000000000000007
 51
90.0
  0
LINE
  5
2966
  8
2
 10
235.84388349649461
 20
86.365598992578654
 30
0.0
 11
240.3438674964946
 21
86.365598992578654
 31
0.0
  0
LINE
  5
2967
  8
2
 10
235.60790606406209
 20
83.865598992578654
 30
0.0
 11
245.0798289289271
 21
83.865598992578654
 31
0.0
1001
GENIUS_GENOREF_13
1005
0
1005
0
  0
LINE
  5
2968
  8
0
 10
231.84388349649461
 20
75.365598992578654
 30
0.0
 11
248.84388349649461
 21
75.365598992578654
 31
0.0
  0
LINE
  5
2969
  8
0
 10
240.30798549649461
 20
86.365598992578654
 30
0.0
 11
227.84388349649461
 21
93.56175199257865
 31
0.0
  0
ARC
  5
296B
  8
0
 10
224.84388349649461
 20
88.365598992578668
 30
0.0
 40
6.0
 50
60.0
 51
240.0
  0
CIRCLE
  5
296C
  8
0
 10
224.84388349649461
 20
88.365598992578668
 30
0.0
 40
2.0
  0
LINE
  5
296E
  8
0
 10
231.84388349649461
 20
77.092075413631335
 30
0.0
 11
221.84388349649461
 21
83.169446992578628
 31
0.0
  0
LINE
  5
2970
  8
0
 10
217.84388349649461
 20
77.085063069501757
 30
0.0
 11
224.7697390902087
 21
81.391295829644378
 31
0.0
  0
LINE
  5
2971
  8
0
 10
220.34388349649461
 20
78.639467684886426
 30
0.0
 11
220.34388349649461
 21
82.612822992578685
 31
0.0
  0
LINE
  5
2972
  8
2
 10
236.94386749649459
 20
79.365598992578668
 30
0.0
 11
236.94386749649459
 21
75.365598992578654
 31
0.0
  0
LINE
  5
2974
  8
2
 10
235.84388349649461
 20
86.365598992578654
 30
0.0
 11
229.34388349649461
 21
82.612822992578685
 31
0.0
  0
LINE
  5
2975
  8
2
 10
229.34388349649461
 20
78.611418308368116
 30
0.0
 11
229.34388349649461
 21
82.612822992578685
 31
0.0
  0
LINE
  5
2976
  8
2
 10
235.60790606406221
 20
83.865598992578654
 30
0.0
 11
235.60790606406209
 21
79.365598992578668
 31
0.0
  0
LINE
  5
2977
  8
2
 10
235.60790606406209
 20
79.365598992578668
 30
0.0
 11
236.94386749649459
 21
79.365598992578668
 31
0.0
  0
ARC
  5
2978
  8
0
 10
245.84388349649461
 20
83.365598992578668
 30
0.0
 40
3.0
 50
0.000000000000007
 51
90.0
  0
LINE
  5
2979
  8
2
 10
237.8438674964946
 20
75.365598992578654
 30
0.0
 11
237.8438674964946
 21
83.865598992578654
 31
0.0
  0
LINE
  5
297A
  8
2
 10
238.2438674964946
 20
75.365598992578654
 30
0.0
 11
238.2438674964946
 21
83.865598992578654
 31
0.0
  0
LINE
  5
297B
  8
2
 10
242.8438674964946
 20
75.365598992578654
 30
0.0
 11
242.8438674964946
 21
83.865598992578654
 31
0.0
  0
LINE
  5
297C
  8
2
 10
242.44386749649459
 20
75.365598992578654
 30
0.0
 11
242.44386749649459
 21
83.865598992578654
 31
0.0
  0
LINE
  5
297D
  8
2
 10
243.7438674964946
 20
79.365598992578668
 30
0.0
 11
243.7438674964946
 21
75.365598992578654
 31
0.0
  0
LINE
  5
297E
  8
1
 10
240.3438674964946
 20
73.365598992578668
 30
0.0
 11
240.3438674964946
 21
85.865598992578668
 31
0.0
  0
LINE
  5
2980
  8
0
 10
240.30798549649461
 20
86.365598992578654
 30
0.0
 11
245.84388349649461
 21
86.365598992578654
 31
0.0
  0
LINE
  5
2981
  8
2
 10
245.0798289289271
 20
79.365598992578668
 30
0.0
 11
243.7438674964946
 21
79.365598992578668
 31
0.0
  0
LINE
  5
2982
  8
2
 10
245.0798289289271
 20
83.865598992578654
 30
0.0
 11
245.0798289289271
 21
79.365598992578668
 31
0.0
  0
LINE
  5
2983
  8
0
 10
248.84388349649461
 20
75.365598992578654
 30
0.0
 11
248.84388349649461
 21
83.365598992578668
 31
0.0
  0
LINE
  5
2986
  8
0
 10
112.5404628880304
 20
94.365598992578626
 30
0.0
 11
116.5404628880304
 21
94.365598992578626
 31
0.0
  0
LINE
  5
2987
  8
0
 10
98.790462888030461
 20
75.365598992578654
 30
0.0
 11
98.79046288803039
 21
93.365598992578668
 31
0.0
  0
LINE
  5
2988
  8
0
 10
105.5404628880304
 20
86.365598992578654
 30
0.0
 11
105.5404628880304
 21
93.36559899257864
 31
0.0
  0
LINE
  5
2989
  8
0
 10
111.5404628880304
 20
86.365598992578654
 30
0.0
 11
111.5404628880304
 21
93.36559899257864
 31
0.0
  0
ARC
  5
298A
  8
0
 10
101.7904628880304
 20
83.365598992578668
 30
0.0
 40
3.0
 50
90.0
 51
180.0
1001
GENIUS_GENODEF_13
1002
{
1000
HIER
1070
     0
1002
}
1002
{
1000
MANEDIT
1070
     0
1002
}
1002
{
1000
NOSEL
1070
     0
1002
}
1002
{
1000
BEHIND
1070
     0
1002
}
1002
{
1000
REACTOR
1002
}
1001
GENIUS_GENOBJ-N-FIL_13
1002
{
1000
OWNER
1000
GEN
1002
}
  0
LINE
  5
2995
  8
0
 10
99.790462888030405
 20
94.365598992578668
 30
0.0
 11
104.5404628880304
 21
94.365598992578668
 31
0.0
  0
ARC
  5
2996
  8
0
 10
99.790462888030405
 20
93.365598992578668
 30
0.0
 40
1.0
 50
90.0
 51
180.0
1001
GENIUS_GENODEF_13
1002
{
1000
HIER
1070
     0
1002
}
1002
{
1000
MANEDIT
1070
     0
1002
}
1002
{
1000
NOSEL
1070
     0
1002
}
1002
{
1000
BEHIND
1070
     0
1002
}
1002
{
1000
REACTOR
1002
}
1001
GENIUS_GENOBJ-N-FIL_13
1002
{
1000
OWNER
1000
GEN
1002
}
  0
LINE
  5
2997
  8
0
 10
106.5404628880304
 20
94.365598992578626
 30
0.0
 11
110.5404628880304
 21
94.365598992578626
 31
0.0
  0
ARC
  5
2998
  8
0
 10
104.5404628880304
 20
93.36559899257864
 30
0.0
 40
1.0
 50
0.0000000000001018
 51
90.0
1001
GENIUS_GENODEF_13
1002
{
1000
HIER
1070
     0
1002
}
1002
{
1000
MANEDIT
1070
     0
1002
}
1002
{
1000
NOSEL
1070
     0
1002
}
1002
{
1000
BEHIND
1070
     0
1002
}
1002
{
1000
REACTOR
1002
}
1001
GENIUS_GENOBJ-N-FIL_13
1002
{
1000
OWNER
1000
GEN
1002
}
  0
ARC
  5
2999
  8
0
 10
106.5404628880304
 20
93.36559899257864
 30
0.0
 40
1.0
 50
90.0
 51
180.00000000000011
1001
GENIUS_GENODEF_13
1002
{
1000
HIER
1070
     0
1002
}
1002
{
1000
MANEDIT
1070
     0
1002
}
1002
{
1000
NOSEL
1070
     0
1002
}
1002
{
1000
BEHIND
1070
     0
1002
}
1002
{
1000
REACTOR
1002
}
1001
GENIUS_GENOBJ-N-FIL_13
1002
{
1000
OWNER
1000
GEN
1002
}
  0
ARC
  5
299A
  8
0
 10
110.5404628880304
 20
93.36559899257864
 30
0.0
 40
1.0
 50
0.0
 51
90.0
1001
GENIUS_GENODEF_13
1002
{
1000
HIER
1070
     0
1002
}
1002
{
1000
MANEDIT
1070
     0
1002
}
1002
{
1000
NOSEL
1070
     0
1002
}
1002
{
1000
BEHIND
1070
     0
1002
}
1002
{
1000
REACTOR
1002
}
1001
GENIUS_GENOBJ-N-FIL_13
1002
{
1000
OWNER
1000
GEN
1002
}
  0
ARC
  5
299B
  8
0
 10
112.5404628880304
 20
93.36559899257864
 30
0.0
 40
1.0
 50
90.0
 51
180.0
1001
GENIUS_GENODEF_13
1002
{
1000
HIER
1070
     0
1002
}
1002
{
1000
MANEDIT
1070
     0
1002
}
1002
{
1000
NOSEL
1070
     0
1002
}
1002
{
1000
BEHIND
1070
     0
1002
}
1002
{
1000
REACTOR
1002
}
1001
GENIUS_GENOBJ-N-FIL_13
1002
{
1000
OWNER
1000
GEN
1002
}
  0
LINE
  5
299C
  8
1
 10
123.5404628880304
 20
72.365598992578668
 30
0.0
 11
123.5404628880304
 21
97.365598992578526
 31
0.0
  0
LINE
  5
299D
  8
0
 10
117.5404628880304
 20
86.365598992578654
 30
0.0
 11
117.5404628880304
 21
93.36559899257864
 31
0.0
  0
LINE
  5
299E
  8
0
 10
123.5404628880304
 20
86.365598992578654
 30
0.0
 11
123.5404628880304
 21
93.36559899257864
 31
0.0
  0
LINE
  5
299F
  8
0
 10
123.5404628880304
 20
86.365598992578654
 30
0.0
 11
123.5404628880309
 21
93.365598992578626
 31
0.0
  0
LINE
  5
29A0
  8
0
 10
129.5404628880305
 20
86.365598992578214
 30
0.0
 11
129.5404628880309
 21
93.365598992578214
 31
0.0
  0
ARC
  5
29A3
  8
0
 10
124.5404628880309
 20
93.365598992578555
 30
0.0
 40
1.0
 50
89.999999999996177
 51
179.99999999999619
1001
GENIUS_GENODEF_13
1002
{
1000
HIER
1070
     0
1002
}
1002
{
1000
MANEDIT
1070
     0
1002
}
1002
{
1000
NOSEL
1070
     0
1002
}
1002
{
1000
BEHIND
1070
     0
1002
}
1002
{
1000
REACTOR
1002
}
1001
GENIUS_GENOBJ-N-FIL_13
1002
{
1000
OWNER
1000
GEN
1002
}
  0
ARC
  5
29A4
  8
0
 10
118.5404628880304
 20
93.36559899257864
 30
0.0
 40
1.0
 50
90.0
 51
180.0
1001
GENIUS_GENODEF_13
1002
{
1000
HIER
1070
     0
1002
}
1002
{
1000
MANEDIT
1070
     0
1002
}
1002
{
1000
NOSEL
1070
     0
1002
}
1002
{
1000
BEHIND
1070
     0
1002
}
1002
{
1000
REACTOR
1002
}
1001
GENIUS_GENOBJ-N-FIL_13
1002
{
1000
OWNER
1000
GEN
1002
}
  0
ARC
  5
29A5
  8
0
 10
116.5404628880304
 20
93.36559899257864
 30
0.0
 40
1.0
 50
0.0
 51
90.0
1001
GENIUS_GENODEF_13
1002
{
1000
HIER
1070
     0
1002
}
1002
{
1000
MANEDIT
1070
     0
1002
}
1002
{
1000
NOSEL
1070
     0
1002
}
1002
{
1000
BEHIND
1070
     0
1002
}
1002
{
1000
REACTOR
1002
}
1001
GENIUS_GENOBJ-N-FIL_13
1002
{
1000
OWNER
1000
GEN
1002
}
  0
ARC
  5
29A6
  8
0
 10
122.5404628880304
 20
93.36559899257864
 30
0.0
 40
1.0
 50
360.0
 51
90.0
1001
GENIUS_GENODEF_13
1002
{
1000
HIER
1070
     0
1002
}
1002
{
1000
MANEDIT
1070
     0
1002
}
1002
{
1000
NOSEL
1070
     0
1002
}
1002
{
1000
BEHIND
1070
     0
1002
}
1002
{
1000
REACTOR
1002
}
1001
GENIUS_GENOBJ-N-FIL_13
1002
{
1000
OWNER
1000
GEN
1002
}
  0
LINE
  5
29A7
  8
0
 10
118.5404628880304
 20
94.365598992578612
 30
0.0
 11
122.5404628880304
 21
94.365598992578612
 31
0.0
  0
ARC
  5
29A8
  8
0
 10
128.5404628880309
 20
93.365598992578256
 30
0.0
 40
1.0
 50
359.99999999999619
 51
89.999999999996177
1001
GENIUS_GENODEF_13
1002
{
1000
HIER
1070
     0
1002
}
1002
{
1000
MANEDIT
1070
     0
1002
}
1002
{
1000
NOSEL
1070
     0
1002
}
1002
{
1000
BEHIND
1070
     0
1002
}
1002
{
1000
REACTOR
1002
}
1001
GENIUS_GENOBJ-N-FIL_13
1002
{
1000
OWNER
1000
GEN
1002
}
  0
ARC
  5
29A9
  8
0
 10
130.5404628880309
 20
93.365598992578157
 30
0.0
 40
1.0
 50
89.999999999996177
 51
179.99999999999611
1001
GENIUS_GENODEF_13
1002
{
1000
HIER
1070
     0
1002
}
1002
{
1000
MANEDIT
1070
     0
1002
}
1002
{
1000
NOSEL
1070
     0
1002
}
1002
{
1000
BEHIND
1070
     0
1002
}
1002
{
1000
REACTOR
1002
}
1001
GENIUS_GENOBJ-N-FIL_13
1002
{
1000
OWNER
1000
GEN
1002
}
  0
LINE
  5
29AA
  8
0
 10
128.54046288803099
 20
94.365598992578242
 30
0.0
 11
124.5404628880309
 21
94.365598992578526
 31
0.0
  0
LINE
  5
29AB
  8
0
 10
134.54046288803099
 20
94.365598992577873
 30
0.0
 11
130.54046288803099
 21
94.365598992578157
 31
0.0
  0
LINE
  5
29AC
  8
0
 10
148.29046288802971
 20
75.36559899257702
 30
0.0
 11
148.2904628880309
 21
93.365598992576977
 31
0.0
  0
LINE
  5
29AD
  8
0
 10
135.5404628880305
 20
86.365598992577816
 30
0.0
 11
135.5404628880309
 21
93.365598992577816
 31
0.0
  0
LINE
  5
29AE
  8
0
 10
141.54046288803039
 20
86.365598992577418
 30
0.0
 11
141.5404628880309
 21
93.365598992577404
 31
0.0
  0
ARC
  5
29AF
  8
0
 10
145.29046288803031
 20
83.365598992578668
 30
0.0
 40
3.0
 50
0.0
 51
90.0
1001
GENIUS_GENODEF_13
1002
{
1000
HIER
1070
     0
1002
}
1002
{
1000
MANEDIT
1070
     0
1002
}
1002
{
1000
NOSEL
1070
     0
1002
}
1002
{
1000
BEHIND
1070
     0
1002
}
1002
{
1000
REACTOR
1002
}
1001
GENIUS_GENOBJ-N-FIL_13
1002
{
1000
OWNER
1000
GEN
1002
}
  0
LINE
  5
29BA
  8
0
 10
147.29046288803099
 20
94.365598992577077
 30
0.0
 11
142.5404628880309
 21
94.365598992577347
 31
0.0
  0
ARC
  5
29BB
  8
0
 10
140.5404628880309
 20
93.365598992577475
 30
0.0
 40
1.0
 50
359.99999999999608
 51
89.999999999996177
1001
GENIUS_GENODEF_13
1002
{
1000
HIER
1070
     0
1002
}
1002
{
1000
MANEDIT
1070
     0
1002
}
1002
{
1000
NOSEL
1070
     0
1002
}
1002
{
1000
BEHIND
1070
     0
1002
}
1002
{
1000
REACTOR
1002
}
1001
GENIUS_GENOBJ-N-FIL_13
1002
{
1000
OWNER
1000
GEN
1002
}
  0
LINE
  5
29BC
  8
0
 10
140.5404628880309
 20
94.365598992577475
 30
0.0
 11
136.54046288803099
 21
94.365598992577731
 31
0.0
  0
ARC
  5
29BD
  8
0
 10
136.5404628880309
 20
93.365598992577731
 30
0.0
 40
1.0
 50
89.999999999996177
 51
179.99999999999611
1001
GENIUS_GENODEF_13
1002
{
1000
HIER
1070
     0
1002
}
1002
{
1000
MANEDIT
1070
     0
1002
}
1002
{
1000
NOSEL
1070
     0
1002
}
1002
{
1000
BEHIND
1070
     0
1002
}
1002
{
1000
REACTOR
1002
}
1001
GENIUS_GENOBJ-N-FIL_13
1002
{
1000
OWNER
1000
GEN
1002
}
  0
ARC
  5
29BE
  8
0
 10
142.5404628880309
 20
93.365598992577347
 30
0.0
 40
1.0
 50
89.999999999996177
 51
179.99999999999599
1001
GENIUS_GENODEF_13
1002
{
1000
HIER
1070
     0
1002
}
1002
{
1000
MANEDIT
1070
     0
1002
}
1002
{
1000
NOSEL
1070
     0
1002
}
1002
{
1000
BEHIND
1070
     0
1002
}
1002
{
1000
REACTOR
1002
}
1001
GENIUS_GENOBJ-N-FIL_13
1002
{
1000
OWNER
1000
GEN
1002
}
  0
ARC
  5
29BF
  8
0
 10
147.2904628880309
 20
93.365598992577077
 30
0.0
 40
1.0
 50
359.99999999999608
 51
89.999999999996177
1001
GENIUS_GENODEF_13
1002
{
1000
HIER
1070
     0
1002
}
1002
{
1000
MANEDIT
1070
     0
1002
}
1002
{
1000
NOSEL
1070
     0
1002
}
1002
{
1000
BEHIND
1070
     0
1002
}
1002
{
1000
REACTOR
1002
}
1001
GENIUS_GENOBJ-N-FIL_13
1002
{
1000
OWNER
1000
GEN
1002
}
  0
LINE
  5
29C4
  8
1
 10
229.84388349649461
 20
88.365598992578668
 30
0.0
 11
219.84388349649461
 21
88.365598992578668
 31
0.0
  0
LINE
  5
29C5
  8
1
 10
224.84388349649461
 20
93.365598992578668
 30
0.0
 11
224.84388349649461
 21
83.365598992578668
 31
0.0
  0
LINE
  5
2A88
  8
0
 10
231.84388349649461
 20
75.365598992578654
 30
0.0
 11
231.84388349649461
 21
77.092075413631335
 31
0.0
  0
LINE
  5
2A89
  8
0
 10
217.84388349649461
 20
75.365598992578654
 30
0.0
 11
217.84388349649461
 21
77.085063069501757
 31
0.0
  0
LINE
  5
2A8C
  8
2
 10
211.44389949649471
 20
75.365598992578654
 30
0.0
 11
211.44389949649471
 21
83.865598992578654
 31
0.0
  0
LINE
  5
2A8D
  8
2
 10
211.84389949649471
 20
75.365598992578654
 30
0.0
 11
211.84389949649471
 21
83.865598992578654
 31
0.0
  0
LINE
  5
2A8E
  8
2
 10
207.24389949649469
 20
75.365598992578654
 30
0.0
 11
207.24389949649469
 21
83.865598992578654
 31
0.0
  0
LINE
  5
2A8F
  8
2
 10
206.8438994964946
 20
75.365598992578654
 30
0.0
 11
206.8438994964946
 21
83.865598992578654
 31
0.0
  0
LINE
  5
2A90
  8
2
 10
214.0798609289271
 20
83.865598992578654
 30
0.0
 11
214.0798609289271
 21
79.365598992578668
 31
0.0
  0
LINE
  5
2A91
  8
2
 10
205.94389949649459
 20
79.365598992578668
 30
0.0
 11
205.94389949649459
 21
75.365598992578654
 31
0.0
  0
LINE
  5
2A92
  8
2
 10
204.60793806406221
 20
79.365598992578668
 30
0.0
 11
205.94389949649459
 21
79.365598992578668
 31
0.0
  0
LINE
  5
2A93
  8
2
 10
212.74389949649469
 20
79.365598992578668
 30
0.0
 11
212.74389949649469
 21
75.365598992578654
 31
0.0
  0
LINE
  5
2A94
  8
2
 10
214.0798609289271
 20
79.365598992578668
 30
0.0
 11
212.74389949649469
 21
79.365598992578668
 31
0.0
  0
LINE
  5
2A95
  8
2
 10
204.60793806406221
 20
83.865598992578654
 30
0.0
 11
214.0798609289271
 21
83.865598992578654
 31
0.0
1001
GENIUS_GENOREF_13
1005
0
1005
0
  0
LINE
  5
2A96
  8
2
 10
204.60793806406221
 20
83.865598992578654
 30
0.0
 11
204.60793806406221
 21
79.365598992578668
 31
0.0
  0
LINE
  5
2A98
  8
2
 10
134.054501455598
 20
83.865598992578725
 30
0.0
 11
134.054501455598
 21
79.365598992578725
 31
0.0
  0
LINE
  5
2A99
  8
2
 10
143.52642432046289
 20
83.865598992578725
 30
0.0
 11
143.52642432046289
 21
79.365598992578725
 31
0.0
  0
LINE
  5
2A9A
  8
2
 10
136.2904628880305
 20
75.365598992578725
 30
0.0
 11
136.2904628880305
 21
83.865598992578725
 31
0.0
  0
LINE
  5
2A9B
  8
2
 10
136.69046288803051
 20
75.365598992578725
 30
0.0
 11
136.69046288803051
 21
83.865598992578725
 31
0.0
  0
LINE
  5
2A9C
  8
2
 10
141.2904628880305
 20
75.365598992578725
 30
0.0
 11
141.2904628880305
 21
83.865598992578725
 31
0.0
  0
LINE
  5
2A9D
  8
2
 10
140.89046288803041
 20
75.365598992578725
 30
0.0
 11
140.89046288803041
 21
83.865598992578725
 31
0.0
  0
LINE
  5
2A9F
  8
2
 10
135.39046288803041
 20
79.365598992578725
 30
0.0
 11
135.39046288803041
 21
75.365598992578725
 31
0.0
  0
LINE
  5
2AA0
  8
2
 10
134.054501455598
 20
79.365598992578725
 30
0.0
 11
135.39046288803041
 21
79.365598992578725
 31
0.0
  0
LINE
  5
2AA1
  8
2
 10
142.1904628880304
 20
79.365598992578725
 30
0.0
 11
142.1904628880304
 21
75.365598992578725
 31
0.0
  0
LINE
  5
2AA2
  8
2
 10
143.52642432046289
 20
79.365598992578725
 30
0.0
 11
142.1904628880304
 21
79.365598992578725
 31
0.0
  0
LINE
  5
2AA3
  8
2
 10
134.054501455598
 20
83.865598992578725
 30
0.0
 11
143.52642432046289
 21
83.865598992578725
 31
0.0
1001
GENIUS_GENOREF_13
1005
0
1005
0
  0
LINE
  5
2AA4
  8
1
 10
138.79046288803039
 20
73.365598992578725
 30
0.0
 11
138.79046288803039
 21
85.865598992578725
 31
0.0
  0
LINE
  5
2AA5
  8
2
 10
103.554501455598
 20
83.865598992578725
 30
0.0
 11
113.02642432046289
 21
83.865598992578725
 31
0.0
1001
GENIUS_GENOREF_13
1005
0
1005
0
  0
LINE
  5
2AA6
  8
2
 10
103.554501455598
 20
83.865598992578725
 30
0.0
 11
103.554501455598
 21
79.365598992578725
 31
0.0
  0
LINE
  5
2AA7
  8
2
 10
105.7904628880304
 20
75.365598992578725
 30
0.0
 11
105.7904628880304
 21
83.865598992578725
 31
0.0
  0
LINE
  5
2AA8
  8
2
 10
106.1904628880305
 20
75.365598992578725
 30
0.0
 11
106.1904628880305
 21
83.865598992578725
 31
0.0
  0
LINE
  5
2AA9
  8
2
 10
104.8904628880305
 20
79.365598992578725
 30
0.0
 11
104.8904628880305
 21
75.365598992578725
 31
0.0
  0
LINE
  5
2AAA
  8
2
 10
103.554501455598
 20
79.365598992578725
 30
0.0
 11
104.8904628880305
 21
79.365598992578725
 31
0.0
  0
LINE
  5
2AAB
  8
2
 10
113.02642432046289
 20
83.865598992578725
 30
0.0
 11
113.02642432046289
 21
79.365598992578725
 31
0.0
  0
LINE
  5
2AAC
  8
2
 10
110.7904628880304
 20
75.365598992578725
 30
0.0
 11
110.7904628880304
 21
83.865598992578725
 31
0.0
  0
LINE
  5
2AAD
  8
2
 10
110.3904628880304
 20
75.365598992578725
 30
0.0
 11
110.3904628880304
 21
83.865598992578725
 31
0.0
  0
LINE
  5
2AAE
  8
2
 10
111.6904628880304
 20
79.365598992578725
 30
0.0
 11
111.6904628880305
 21
75.365598992578725
 31
0.0
  0
LINE
  5
2AAF
  8
2
 10
113.02642432046289
 20
79.365598992578725
 30
0.0
 11
111.6904628880305
 21
79.365598992578725
 31
0.0
  0
LINE
  5
2AB0
  8
1
 10
108.2904628880304
 20
73.365598992578725
 30
0.0
 11
108.2904628880305
 21
85.865598992578725
 31
0.0
  0
LINE
  5
2AC7
  8
1
 10
209.3438994964946
 20
153.43489081241191
 30
0.0
 11
209.3438994964946
 21
141.2968289578167
 31
0.0
  0
LINE
  5
2AC8
  8
1
 10
215.4129304237922
 20
147.3658598851143
 30
0.0
 11
203.274868569197
 21
147.3658598851143
 31
0.0
  0
LINE
  5
2AC9
  8
1
 10
240.3438674964946
 20
171.7968289578167
 30
0.0
 11
240.3438674964946
 21
183.93489081241191
 31
0.0
  0
LINE
  5
2ACA
  8
1
 10
234.27483656919699
 20
177.8658598851143
 30
0.0
 11
246.4128984237922
 21
177.8658598851143
 31
0.0
  0
LINE
  5
2ACB
  8
1
 10
234.27483656919699
 20
147.3658598851143
 30
0.0
 11
246.4128984237922
 21
147.3658598851143
 31
0.0
  0
LINE
  5
2ACC
  8
1
 10
240.3438674964946
 20
153.43489081241191
 30
0.0
 11
240.3438674964946
 21
141.2968289578167
 31
0.0
  0
TEXT
  5
2BE4
  8
0
 62
     3
 10
0.0
 20
0.0
 30
0.0
 40
10.0
  1
EFH5050SS
  7
STANDARD1
  0
ENDSEC
  0
EOF
