  0
SECTION
  2
HEADER
  9
$ACADVER
  1
AC1009
  9
$INSBASE
 10
0.0
 20
0.0
 30
0.0
  9
$EXTMIN
 10
0.0
 20
-2.960436562073669
 30
0.0
  9
$EXTMAX
 10
131.05313239048451
 20
117.72576931833331
 30
0.0
  9
$LIMMIN
 10
0.0
 20
0.0
  9
$LIMMAX
 10
375.0
 20
278.0
  9
$ORTHOMODE
 70
     1
  9
$REGENMODE
 70
     1
  9
$FILLMODE
 70
     1
  9
$QTEXTMODE
 70
     0
  9
$MIRRTEXT
 70
     0
  9
$DRAGMODE
 70
     2
  9
$LTSCALE
 40
5.0
  9
$OSMODE
 70
  3071
  9
$ATTMODE
 70
     1
  9
$TEXTSIZE
 40
0.2
  9
$TRACEWID
 40
0.05
  9
$TEXTSTYLE
  7
STANDARD
  9
$CLAYER
  8
0
  9
$CELTYPE
  6
BYLAYER
  9
$CECOLOR
 62
   256
  9
$DIMSCALE
 40
1.0
  9
$DIMASZ
 40
3.0
  9
$DIMEXO
 40
1.0
  9
$DIMDLI
 40
6.0
  9
$DIMRND
 40
0.0
  9
$DIMDLE
 40
0.0
  9
$DIMEXE
 40
1.0
  9
$DIMTP
 40
495.0
  9
$DIMTM
 40
0.0
  9
$DIMTXT
 40
3.0
  9
$DIMCEN
 40
0.0
  9
$DIMTSZ
 40
0.0
  9
$DIMTOL
 70
     0
  9
$DIMLIM
 70
     0
  9
$DIMTIH
 70
     0
  9
$DIMTOH
 70
     0
  9
$DIMSE1
 70
     0
  9
$DIMSE2
 70
     0
  9
$DIMTAD
 70
     1
  9
$DIMZIN
 70
     0
  9
$DIMBLK
  1

  9
$DIMASO
 70
     1
  9
$DIMSHO
 70
     0
  9
$DIMPOST
  1

  9
$DIMAPOST
  1

  9
$DIMALT
 70
     0
  9
$DIMALTD
 70
     2
  9
$DIMALTF
 40
25.399999999999999
  9
$DIMLFAC
 40
1.0
  9
$DIMTOFL
 70
     1
  9
$DIMTVP
 40
0.0
  9
$DIMTIX
 70
     1
  9
$DIMSOXD
 70
     0
  9
$DIMSAH
 70
     0
  9
$DIMBLK1
  1

  9
$DIMBLK2
  1

  9
$DIMSTYLE
  2
STANDARD
  9
$DIMCLRD
 70
     0
  9
$DIMCLRE
 70
     0
  9
$DIMCLRT
 70
     4
  9
$DIMTFAC
 40
1.0
  9
$DIMGAP
 40
1.0
  9
$LUNITS
 70
     2
  9
$LUPREC
 70
     4
  9
$SKETCHINC
 40
0.1
  9
$FILLETRAD
 40
0.0
  9
$AUNITS
 70
     0
  9
$AUPREC
 70
     0
  9
$MENU
  1
C:\R13\WIN\SUPPORT\ACAD-I
  9
$ELEVATION
 40
0.0
  9
$PELEVATION
 40
0.0
  9
$THICKNESS
 40
0.0
  9
$LIMCHECK
 70
     0
  9
$BLIPMODE
 70
     0
  9
$CHAMFERA
 40
0.0
  9
$CHAMFERB
 40
0.0
  9
$SKPOLY
 70
     0
  9
$TDCREATE
 40
2450834.4199027782
  9
$TDUPDATE
 40
2456598.6567504508
  9
$TDINDWG
 40
0.1466468866
  9
$TDUSRTIMER
 40
0.1466468866
  9
$USRTIMER
 70
     1
  9
$ANGBASE
 50
0.0
  9
$ANGDIR
 70
     0
  9
$PDMODE
 70
     0
  9
$PDSIZE
 40
0.0
  9
$PLINEWID
 40
0.0
  9
$COORDS
 70
     1
  9
$SPLFRAME
 70
     0
  9
$SPLINETYPE
 70
     6
  9
$SPLINESEGS
 70
     8
  9
$ATTDIA
 70
     0
  9
$ATTREQ
 70
     1
  9
$HANDLING
 70
     1
  9
$HANDSEED
  5
1205B
  9
$SURFTAB1
 70
     6
  9
$SURFTAB2
 70
     6
  9
$SURFTYPE
 70
     6
  9
$SURFU
 70
     6
  9
$SURFV
 70
     6
  9
$UCSNAME
  2

  9
$UCSORG
 10
0.0
 20
0.0
 30
0.0
  9
$UCSXDIR
 10
1.0
 20
0.0
 30
0.0
  9
$UCSYDIR
 10
0.0
 20
1.0
 30
0.0
  9
$PUCSNAME
  2

  9
$PUCSORG
 10
0.0
 20
0.0
 30
0.0
  9
$PUCSXDIR
 10
1.0
 20
0.0
 30
0.0
  9
$PUCSYDIR
 10
0.0
 20
1.0
 30
0.0
  9
$USERI1
 70
     4
  9
$USERI2
 70
     1
  9
$USERI3
 70
     1
  9
$USERI4
 70
     0
  9
$USERI5
 70
     0
  9
$USERR1
 40
1.0
  9
$USERR2
 40
3.0
  9
$USERR3
 40
3.0
  9
$USERR4
 40
3.0
  9
$USERR5
 40
10.0
  9
$WORLDVIEW
 70
     1
  9
$SHADEDGE
 70
     3
  9
$SHADEDIF
 70
    70
  9
$TILEMODE
 70
     1
  9
$MAXACTVP
 70
    16
  9
$PLIMCHECK
 70
     0
  9
$PEXTMIN
 10
1.0000000000000000E+020
 20
1.0000000000000000E+020
 30
1.0000000000000000E+020
  9
$PEXTMAX
 10
-1.0000000000000000E+020
 20
-1.0000000000000000E+020
 30
-1.0000000000000000E+020
  9
$PLIMMIN
 10
0.0
 20
0.0
  9
$PLIMMAX
 10
12.0
 20
9.0
  9
$UNITMODE
 70
     0
  9
$VISRETAIN
 70
     0
  9
$PLINEGEN
 70
     0
  9
$PSLTSCALE
 70
     0
  0
ENDSEC
  0
SECTION
  2
TABLES
  0
TABLE
  2
VPORT
 70
     1
  0
VPORT
  2
*ACTIVE
 70
     0
 10
0.0
 20
0.0
 11
1.0
 21
1.0
 12
187.49427839065231
 22
174.97168974450321
 13
0.0
 23
0.0
 14
10.0
 24
10.0
 15
10.0
 25
10.0
 16
0.0
 26
0.0
 36
1.0
 17
0.0
 27
0.0
 37
0.0
 40
359.12869706410731
 41
1.831871345029239
 42
50.0
 43
0.0
 44
0.0
 50
0.0
 51
0.0
 71
     0
 72
   100
 73
     1
 74
     0
 75
     0
 76
     0
 77
     0
 78
     0
  0
ENDTAB
  0
TABLE
  2
LTYPE
 70
     3
  0
LTYPE
  2
CONTINUOUS
 70
     0
  3
Solid Line
 72
    65
 73
     0
 40
0.0
  0
LTYPE
  2
CENTER
 70
     0
  3
____ _ ____ _ ____ _ ____ _ ____ _ ____ _ ____
 72
    65
 73
     4
 40
2.0
 49
1.25
 49
-0.25
 49
0.25
 49
-0.25
  0
LTYPE
  2
PHANTOM2
 70
     0
  3
___ _ _ ___ _ _ ___ _ _ ___ _ _
 72
    65
 73
     6
 40
1.25
 49
0.625
 49
-0.125
 49
0.125
 49
-0.125
 49
0.125
 49
-0.125
  0
ENDTAB
  0
TABLE
  2
LAYER
 70
     3
  0
LAYER
  2
0
 70
     0
 62
     7
  6
CONTINUOUS
  0
LAYER
  2
1
 70
     0
 62
     1
  6
CENTER
  0
LAYER
  2
3
 70
     0
 62
     3
  6
CONTINUOUS
  0
ENDTAB
  0
TABLE
  2
STYLE
 70
     2
  0
STYLE
  2
STANDARD
 70
     0
 40
0.0
 41
1.0
 50
0.0
 71
     0
 42
0.2
  3
SIMPLEX
  4
BIGFONT
  0
STYLE
  2
STANDARD1
 70
     0
 40
0.0
 41
1.0
 50
0.0
 71
     0
 42
3.0
  3
txt
  4

  0
ENDTAB
  0
TABLE
  2
VIEW
 70
     0
  0
ENDTAB
  0
TABLE
  2
UCS
 70
     0
  0
ENDTAB
  0
TABLE
  2
APPID
 70
    39
  0
APPID
  2
ACAD
 70
     0
  0
APPID
  2
GENIUS_GENOBJ_13
 70
     0
  0
APPID
  2
GENIUS_GENODEF_13
 70
     0
  0
APPID
  2
GENIUS_GENOENT_13
 70
     0
  0
APPID
  2
GENIUS_GENOLIS_13
 70
     0
  0
APPID
  2
GENIUS_GENOREF_13
 70
     0
  0
APPID
  2
GENIUS_GENOBJ-N-TIT_13
 70
     0
  0
APPID
  2
GENIUS_GENTITLE_13
 70
     0
  0
APPID
  2
GENIUS_GENZVEED_13
 70
     0
  0
APPID
  2
GENIUS_GENOBJ-N-FIL_13
 70
     0
  0
APPID
  2
GENIUS_GENOBJ-N-CRS_13
 70
     0
  0
APPID
  2
GENIUS_GEFINERT_13
 70
     0
  0
APPID
  2
GENIUS_GENOBJ-F-INER_13
 70
     0
  0
APPID
  2
GENIUS_GENOBJ-N-ZOO_13
 70
     0
  0
APPID
  2
GENIUS_GENZOO_13
 70
     0
  0
APPID
  2
GENIUS_GENOBJ-F-TOL_13
 70
     0
  0
APPID
  2
GENIUS_GENOBJ-N-RSSYM_13
 70
     0
  0
APPID
  2
GENIUS_GENSYMENT_13
 70
     0
  0
APPID
  2
GENIUS_GENBH_13
 70
     0
  0
APPID
  2
GENIUS_GENOBJ-NBEHI-BHF_13
 70
     0
  0
APPID
  2
GENIUS_GENOBJ-NBEHI-BHB_13
 70
     0
  0
APPID
  2
GENIUS_GENOBJ-F-PART_13
 70
     0
  0
APPID
  2
GENIUS_GEFSTDP_13
 70
     0
  0
APPID
  2
GENIUS_GENOBJ-N-LEADER_13
 70
     0
  0
APPID
  2
GENIUS_GENOBJ-N-REV_13
 70
     0
  0
APPID
  2
GENIUS_GENCFG_13
 70
     0
  0
APPID
  2
GENIUS_GENCFG0_13
 70
     0
  0
APPID
  2
GENIUS_GENCFG1_13
 70
     0
  0
APPID
  2
GENIUS_GENCFG2_13
 70
     0
  0
APPID
  2
GENIUS_GENCFG3_13
 70
     0
  0
APPID
  2
GENIUS_GEVCFG0_13
 70
     0
  0
APPID
  2
GENIUS_GENCFG4_13
 70
     0
  0
APPID
  2
GENIUS_GENOBJ-N-REC_13
 70
     0
  0
APPID
  2
GENIUS_GENFIL_13
 70
     0
  0
APPID
  2
GENIUS_GENOBJ-N-CHA_13
 70
     0
  0
APPID
  2
GENIUS_GENREC_13
 70
     0
  0
APPID
  2
ACAD_EXEMPT_FROM_CAD_STANDARDS
 70
     0
  0
APPID
  2
ACAD_MLEADERVER
 70
     0
  0
APPID
  2
ACAD_NAV_VCDISPLAY
 70
     0
  0
ENDTAB
  0
TABLE
  2
DIMSTYLE
 70
     1
  0
DIMSTYLE
  2
STANDARD
 70
     0
  3

  4

  5

  6

  7

 40
1.0
 41
0.18
 42
0.0625
 43
0.38
 44
0.18
 45
0.0
 46
0.0
 47
0.0
 48
0.0
140
0.18
141
0.09
142
0.0
143
25.399999999999999
144
1.0
145
0.0
146
1.0
147
0.09
 71
     0
 72
     0
 73
     1
 74
     1
 75
     0
 76
     0
 77
     0
 78
     0
170
     0
171
     2
172
     0
173
     0
174
     0
175
     0
176
     0
177
     0
178
     0
  0
ENDTAB
  0
ENDSEC
  0
SECTION
  2
BLOCKS
  0
BLOCK
  8
0
  2
$MODEL_SPACE
 70
     0
 10
0.0
 20
0.0
 30
0.0
  3
$MODEL_SPACE
  1

  0
ENDBLK
  5
11D57
  8
0
  0
BLOCK
 67
     1
  8
0
  2
$PAPER_SPACE
 70
     0
 10
0.0
 20
0.0
 30
0.0
  3
$PAPER_SPACE
  1

  0
ENDBLK
  5
11D55
 67
     1
  8
0
  0
ENDSEC
  0
SECTION
  2
ENTITIES
  0
LINE
  5
110DA
  8
1
 10
32.561700390484653
 20
99.725770318333332
 30
0.0
 11
84.053132390484578
 21
99.725770318333332
 31
0.0
  0
LINE
  5
110DD
  8
0
 10
61.685856726769252
 20
58.081277083496801
 30
0.0
 11
58.307416390484633
 21
58.638080870467732
 31
0.0
  0
LINE
  5
110DF
  8
0
 10
66.03507574803308
 20
64.7257713183334
 30
0.0
 11
58.3074183904846
 21
64.7257713183334
 31
0.0
  0
LINE
  5
110E0
  8
0
 10
55.816875850966689
 20
89.734521318333293
 30
0.0
 11
65.057416390484605
 21
89.73452131833335
 31
0.0
  0
LINE
  5
110E1
  8
0
 10
55.816875850966689
 20
99.725770318333275
 30
0.0
 11
65.057416390484605
 21
99.725770318333332
 31
0.0
  0
LINE
  5
110E2
  8
0
 10
55.816875850966703
 20
94.839521318333325
 30
0.0
 11
65.057416390484633
 21
94.839521318333325
 31
0.0
  0
LINE
  5
110E3
  8
0
 10
51.557416390484612
 20
99.838270318333286
 30
0.0
 11
60.797956930002663
 21
99.838270318333286
 31
0.0
  0
LINE
  5
110E4
  8
0
 10
51.557416390484612
 20
89.847021318333304
 30
0.0
 11
60.79795693000267
 21
89.847021318333304
 31
0.0
  0
LINE
  5
110E5
  8
0
 10
51.557416390484612
 20
94.727021318333286
 30
0.0
 11
60.797956930002663
 21
94.727021318333286
 31
0.0
  0
LINE
  5
110E8
  8
0
 10
55.816875850966703
 20
109.61452031833331
 30
0.0
 11
65.057416390484605
 21
109.61452031833331
 31
0.0
  0
LINE
  5
110E9
  8
0
 10
55.816875850966689
 20
104.84452031833329
 30
0.0
 11
65.057416390484633
 21
104.8445203183332
 31
0.0
  0
LINE
  5
110EA
  8
0
 10
51.557416390484612
 20
109.7270203183333
 30
0.0
 11
60.797956930002641
 21
109.7270203183333
 31
0.0
  0
LINE
  5
110EB
  8
0
 10
51.557416390484612
 20
104.7320203183333
 30
0.0
 11
60.797956930002663
 21
104.7320203183333
 31
0.0
  0
LINE
  5
110EC
  8
3
 10
49.997414181455461
 20
114.72576931833321
 30
0.0
 11
49.997414181455461
 21
84.725771318333315
 31
0.0
  0
LINE
  5
110ED
  8
1
 10
58.307416390484597
 20
117.72576931833331
 30
0.0
 11
58.307416390484597
 21
81.725771318333344
 31
0.0
  0
LINE
  5
110F0
  8
0
 10
35.557416390484583
 20
113.97576931833331
 30
0.0
 11
35.557416390484583
 21
85.475771318333344
 31
0.0
  0
LINE
  5
110F1
  8
0
 10
36.307416390484583
 20
84.725771318333315
 30
0.0
 11
53.600275390484569
 21
84.725771318333315
 31
0.0
  0
ARC
  5
110F3
  8
0
 10
36.307416390484583
 20
85.475771318333344
 30
0.0
 40
0.75
 50
180.0
 51
270.0
  0
ARC
  5
114C6
  8
0
 10
55.816875850966703
 20
88.984521318333279
 30
0.0
 40
0.75
 50
90.0
 51
180.0
  0
ARC
  5
114C7
  8
0
 10
55.816875850966703
 20
85.475771318333344
 30
0.0
 40
0.75
 50
180.0
 51
270.0
  0
LINE
  5
114C8
  8
0
 10
51.557416390484612
 20
89.847021318333304
 30
0.0
 11
51.557416390484612
 21
84.725771318333315
 31
0.0
  0
LINE
  5
114C9
  8
0
 10
53.600275390484569
 20
84.725771318333315
 30
0.0
 11
53.60027539048459
 21
89.847021318333304
 31
0.0
  0
LINE
  5
114CA
  8
0
 10
55.066875850966703
 20
88.984521318333279
 30
0.0
 11
55.066875850966703
 21
85.475771318333344
 31
0.0
  0
ARC
  5
114CB
  8
0
 10
55.816875850966703
 20
98.975770318333346
 30
0.0
 40
0.75
 50
90.0
 51
180.0
  0
ARC
  5
114CC
  8
0
 10
55.816875850966703
 20
95.589521318333311
 30
0.0
 40
0.75
 50
180.0
 51
270.0
  0
LINE
  5
114CD
  8
0
 10
51.557416390484612
 20
99.838270318333286
 30
0.0
 11
51.557416390484612
 21
94.727021318333286
 31
0.0
  0
LINE
  5
114CE
  8
0
 10
53.600275390484569
 20
94.727021318333286
 30
0.0
 11
53.600275390484541
 21
99.838270318333343
 31
0.0
  0
LINE
  5
114CF
  8
0
 10
55.066875850966703
 20
98.975770318333346
 30
0.0
 11
55.066875850966703
 21
95.589521318333311
 31
0.0
  0
LINE
  5
114D0
  8
0
 10
36.307416390484583
 20
114.72576931833331
 30
0.0
 11
60.797956930002663
 21
114.72576931833331
 31
0.0
  0
LINE
  5
114D1
  8
0
 10
37.062551903139571
 20
57.66433259828996
 30
0.0
 11
49.454757032936129
 21
64.424328318333394
 31
0.0
  0
LINE
  5
114D2
  8
0
 10
35.557416390484583
 20
52.225772318333398
 30
0.0
 11
51.697416390484591
 21
52.225772318333398
 31
0.0
  0
LINE
  5
114D3
  8
0
 10
44.307416390484597
 20
39.225772318333341
 30
0.0
 11
42.307416390484597
 21
39.225772318333341
 31
0.0
1001
GENIUS_GENOREF_13
1005
0
1005
0
  0
LINE
  5
114D4
  8
0
 10
44.807416390484597
 20
39.725772318333341
 30
0.0
 11
41.807416390484597
 21
39.725772318333341
 31
0.0
  0
LINE
  5
114D5
  8
3
 10
42.113916390484569
 20
39.41927231833337
 30
0.0
 11
42.113916390484569
 21
52.225772318333341
 31
0.0
1001
GENIUS_GENOREF_13
1005
0
1005
0
  0
LINE
  5
114D6
  8
1
 10
43.307416390484597
 20
37.725772318333341
 30
0.0
 11
43.30741639048459
 21
53.725772318333391
 31
0.0
  0
LINE
  5
114D7
  8
0
 10
41.807416390484597
 20
52.225772318333341
 30
0.0
 11
41.807416390484597
 21
39.725772318333341
 31
0.0
1001
GENIUS_GENOREF_13
1005
0
1005
0
  0
ARC
  5
114D8
  8
0
 10
36.307416390484583
 20
113.97576931833331
 30
0.0
 40
0.75
 50
90.0
 51
180.0
  0
LINE
  5
114E0
  8
0
 10
41.807416390484597
 20
39.725772318333341
 30
0.0
 11
42.307416390484597
 21
39.225772318333341
 31
0.0
  0
ARC
  5
114E1
  8
0
 10
38.679365314588473
 20
55.13729591621366
 30
0.0
 40
3.0
 50
122.61135978685709
 51
177.11503360335479
1001
GENIUS_GENODEF_13
1002
{
1000
HIER
1070
     0
1002
}
1002
{
1000
MANEDIT
1070
     0
1002
}
1002
{
1000
NOSEL
1070
     0
1002
}
1002
{
1000
BEHIND
1070
     0
1002
}
1002
{
1000
REACTOR
1002
}
1001
GENIUS_GENOBJ-N-FIL_13
1002
{
1000
OWNER
1000
GEN
1002
}
  0
LINE
  5
114E2
  8
0
 10
35.557416390484583
 20
52.225772318333398
 30
0.0
 11
35.683167521554793
 21
55.288288581664929
 31
0.0
  0
LINE
  5
114E3
  8
3
 10
44.500916390484583
 20
39.41927231833337
 30
0.0
 11
44.500916390484583
 21
52.225772318333341
 31
0.0
1001
GENIUS_GENOREF_13
1005
0
1005
0
  0
LINE
  5
114E4
  8
0
 10
44.807416390484597
 20
52.225772318333341
 30
0.0
 11
44.807416390484597
 21
39.725772318333341
 31
0.0
1001
GENIUS_GENOREF_13
1005
0
1005
0
  0
LINE
  5
114E5
  8
0
 10
44.807416390484597
 20
39.725772318333341
 30
0.0
 11
44.307416390484597
 21
39.225772318333341
 31
0.0
  0
ARC
  5
114E6
  8
0
 10
55.816875850966703
 20
108.86452031833331
 30
0.0
 40
0.75
 50
90.0
 51
180.0
  0
ARC
  5
114E7
  8
0
 10
55.816875850966703
 20
105.59452031833329
 30
0.0
 40
0.75
 50
180.0
 51
270.0
  0
LINE
  5
114E8
  8
0
 10
53.600275390484569
 20
114.72576931833331
 30
0.0
 11
53.600275390484569
 21
114.72576931833331
 31
0.0
  0
LINE
  5
114E9
  8
0
 10
51.557416390484612
 20
109.7270203183333
 30
0.0
 11
51.557416390484612
 21
104.7320203183333
 31
0.0
  0
LINE
  5
114EA
  8
0
 10
53.600275390484569
 20
114.72576931833331
 30
0.0
 11
53.600275390484569
 21
114.72576931833331
 31
0.0
  0
LINE
  5
114EB
  8
0
 10
53.600275390484512
 20
104.7320203183333
 30
0.0
 11
53.600275390484512
 21
109.7270203183332
 31
0.0
  0
LINE
  5
114EC
  8
0
 10
55.066875850966703
 20
108.86452031833321
 30
0.0
 11
55.066875850966703
 21
105.59452031833329
 31
0.0
  0
LINE
  5
114ED
  8
0
 10
50.579757032936129
 20
64.7257713183334
 30
0.0
 11
58.30741439048461
 21
64.7257713183334
 31
0.0
  0
LINE
  5
114EE
  8
0
 10
53.600274390484572
 20
61.384295918368032
 30
0.0
 11
51.501107454067672
 21
64.263532951124219
 31
0.0
  0
ARC
  5
114EF
  8
0
 10
55.346962298572009
 20
54.606325645056877
 30
0.0
 40
3.5
 50
96.858898165249116
 51
176.55714944288519
1001
GENIUS_GENODEF_13
1002
{
1000
HIER
1070
     0
1002
}
1002
{
1000
MANEDIT
1070
     0
1002
}
1002
{
1000
NOSEL
1070
     0
1002
}
1002
{
1000
BEHIND
1070
     0
1002
}
1002
{
1000
REACTOR
1002
}
1001
GENIUS_GENOBJ-N-FIL_13
1002
{
1000
OWNER
1000
GEN
1002
}
  0
ARC
  5
114F0
  8
0
 10
50.59205739048457
 20
63.6007713183334
 30
0.0
 40
1.125
 50
36.09468848340893
 51
90.0
  0
ARC
  5
114F1
  8
0
 10
50.579757032936129
 20
62.4757713183334
 30
0.0
 40
2.25
 50
90.0
 51
120.0
  0
LINE
  5
114F2
  8
0
 10
51.980175457579662
 20
56.925772318333387
 30
0.0
 11
53.600274390484572
 21
61.384295918368032
 31
0.0
  0
LINE
  5
114F3
  8
0
 10
51.980175457579662
 20
56.925772318333387
 30
0.0
 11
51.853279117791999
 21
54.816510878446209
 31
0.0
  0
LINE
  5
114F4
  8
0
 10
51.697416390484591
 20
52.225772318333398
 30
0.0
 11
51.853279117791942
 21
54.816510878444731
 31
0.0
  0
ARC
  5
114F5
  8
0
 10
58.075803478456862
 20
61.7257713183334
 30
0.0
 40
3.0089276274901691
 50
94.414761323006786
 51
260.68551032355452
  0
LINE
  5
114F6
  8
0
 10
54.92897605419995
 20
58.081277083496801
 30
0.0
 11
57.706790888448211
 21
58.53909124188273
 31
0.0
  0
LINE
  5
114F8
  8
0
 10
57.706790888447841
 20
58.53909124188273
 30
0.0
 11
58.908041892521709
 21
58.53909124188273
 31
0.0
  0
LINE
  5
114F9
  8
0
 10
58.307416390484768
 20
58.638080870467668
 30
0.0
 11
57.588798358556801
 21
58.756516953907081
 31
0.0
  0
LINE
  5
114FA
  8
3
 10
66.617418599513741
 20
114.72576931833321
 30
0.0
 11
66.617418599513741
 21
84.725771318333315
 31
0.0
  0
LINE
  5
114FE
  8
0
 10
61.547956930002663
 20
103.9820203183333
 30
0.0
 11
61.547956930002663
 21
100.5882703183333
 31
0.0
  0
LINE
  5
114FF
  8
0
 10
81.057416390484633
 20
113.97576931833331
 30
0.0
 11
81.057416390484633
 21
85.475771318333344
 31
0.0
  0
LINE
  5
11500
  8
0
 10
63.014557390484612
 20
99.725770318333332
 30
0.0
 11
63.014557390484669
 21
104.8445203183332
 31
0.0
  0
LINE
  5
11501
  8
0
 10
65.057416390484633
 20
104.8445203183332
 30
0.0
 11
65.057416390484661
 21
99.725770318333332
 31
0.0
  0
LINE
  5
11502
  8
0
 10
80.307416390484619
 20
84.725771318333315
 30
0.0
 11
55.816875850966703
 21
84.725771318333315
 31
0.0
  0
ARC
  5
11503
  8
0
 10
60.594018458472547
 20
90.779316999216178
 30
0.0
 40
0.9543406817080038
 50
282.33901639002852
 51
1.663518724962642
  0
LINE
  5
11504
  8
0
 10
63.01455739048464
 20
89.734520318333352
 30
0.0
 11
63.014557390484612
 21
94.839521318333368
 31
0.0
  0
LINE
  5
11505
  8
0
 10
65.057416390484633
 20
94.839521318333325
 30
0.0
 11
65.057416390484605
 21
89.73452131833335
 31
0.0
  0
ARC
  5
11506
  8
0
 10
60.797956930002648
 20
100.5882703183333
 30
0.0
 40
0.75
 50
270.0
 51
0.0
  0
ARC
  5
11507
  8
0
 10
60.797956930002663
 20
93.9770213183333
 30
0.0
 40
0.75
 50
359.99999000000003
 51
90.0
  0
LINE
  5
11508
  8
0
 10
61.547956930002663
 20
93.9770213183333
 30
0.0
 11
61.547956930002663
 21
90.807021318332431
 31
0.0
  0
ARC
  5
1150A
  8
0
 10
80.307416390484619
 20
85.475771318333344
 30
0.0
 40
0.75
 50
270.0
 51
0.000000000000007
  0
LINE
  5
118E2
  8
0
 10
79.552280877829645
 20
57.66433259828996
 30
0.0
 11
67.16007574803308
 21
64.424328318333394
 31
0.0
  0
LINE
  5
118E3
  8
0
 10
81.057416390484633
 20
52.225772318333398
 30
0.0
 11
64.917416390484618
 21
52.225772318333398
 31
0.0
  0
LINE
  5
118E4
  8
0
 10
80.307416390484619
 20
114.72576931833331
 30
0.0
 11
63.01455739048464
 21
114.72576931833331
 31
0.0
  0
LINE
  5
118E5
  8
3
 10
74.500916390484633
 20
39.41927231833337
 30
0.0
 11
74.500916390484633
 21
52.225772318333341
 31
0.0
1001
GENIUS_GENOREF_13
1005
0
1005
0
  0
LINE
  5
118E6
  8
3
 10
72.113916390484633
 20
39.41927231833337
 30
0.0
 11
72.113916390484633
 21
52.225772318333341
 31
0.0
1001
GENIUS_GENOREF_13
1005
0
1005
0
  0
LINE
  5
118E7
  8
1
 10
73.307416390484605
 20
37.725772318333341
 30
0.0
 11
73.307416390484605
 21
53.725772318333391
 31
0.0
  0
LINE
  5
118E8
  8
0
 10
71.807416390484605
 20
52.225772318333341
 30
0.0
 11
71.807416390484605
 21
39.725772318333341
 31
0.0
1001
GENIUS_GENOREF_13
1005
0
1005
0
  0
LINE
  5
118E9
  8
0
 10
74.807416390484605
 20
52.225772318333341
 30
0.0
 11
74.807416390484605
 21
39.725772318333341
 31
0.0
1001
GENIUS_GENOREF_13
1005
0
1005
0
  0
LINE
  5
118EA
  8
0
 10
61.547956930002663
 20
113.97576931833331
 30
0.0
 11
61.547956930002627
 21
110.4770203183333
 31
0.0
  0
ARC
  5
118EB
  8
0
 10
60.797956930002663
 20
103.9820203183333
 30
0.0
 40
0.75
 50
359.99999000000003
 51
90.0
  0
ARC
  5
118EC
  8
0
 10
60.797956930002663
 20
113.97576931833331
 30
0.0
 40
0.75
 50
0.0
 51
90.0
  0
LINE
  5
118ED
  8
0
 10
63.01455739048464
 20
109.61452031833331
 30
0.0
 11
63.01455739048464
 21
114.72576931833331
 31
0.0
  0
ARC
  5
118EE
  8
0
 10
60.797956930002641
 20
110.4770203183333
 30
0.0
 40
0.75
 50
270.0
 51
0.0
1001
GENIUS_GENODEF_13
1002
{
1000
HIER
1070
     0
1002
}
1002
{
1000
MANEDIT
1070
     0
1002
}
1002
{
1000
NOSEL
1070
     0
1002
}
1002
{
1000
BEHIND
1070
     0
1002
}
1002
{
1000
REACTOR
1002
}
1001
GENIUS_GENOBJ-N-FIL_13
1002
{
1000
OWNER
1000
GEN
1002
}
  0
LINE
  5
118EF
  8
0
 10
65.057416390484605
 20
109.61452031833331
 30
0.0
 11
65.057416390484605
 21
114.72576931833331
 31
0.0
  0
LINE
  5
118F1
  8
0
 10
71.807416390484605
 20
39.725772318333341
 30
0.0
 11
72.307416390484605
 21
39.225772318333341
 31
0.0
  0
LINE
  5
118F2
  8
0
 10
74.807416390484605
 20
39.725772318333341
 30
0.0
 11
74.307416390484605
 21
39.225772318333341
 31
0.0
  0
LINE
  5
118F3
  8
0
 10
71.807416390484605
 20
39.725772318333341
 30
0.0
 11
74.807416390484605
 21
39.725772318333341
 31
0.0
  0
LINE
  5
118F4
  8
0
 10
72.307416390484605
 20
39.225772318333341
 30
0.0
 11
74.307416390484605
 21
39.225772318333341
 31
0.0
1001
GENIUS_GENOREF_13
1005
0
1005
0
  0
LINE
  5
118F5
  8
3
 10
64.634657323389547
 20
56.925772318333387
 30
0.0
 11
63.014558390484638
 21
61.384295918368032
 31
0.0
  0
ARC
  5
118F6
  8
0
 10
61.267870482397193
 20
54.606325645056877
 30
0.0
 40
3.5
 50
3.442850557114729
 51
83.141101834750927
1001
GENIUS_GENODEF_13
1002
{
1000
HIER
1070
     0
1002
}
1002
{
1000
MANEDIT
1070
     0
1002
}
1002
{
1000
NOSEL
1070
     0
1002
}
1002
{
1000
BEHIND
1070
     0
1002
}
1002
{
1000
REACTOR
1002
}
1001
GENIUS_GENOBJ-N-FIL_13
1002
{
1000
OWNER
1000
GEN
1002
}
  0
LINE
  5
118F7
  8
3
 10
64.634657323389547
 20
56.925772318333387
 30
0.0
 11
64.76155366317721
 21
54.816510878446209
 31
0.0
  0
LINE
  5
118F8
  8
0
 10
64.917416390484618
 20
52.225772318333398
 30
0.0
 11
64.761553663177267
 21
54.816510878444731
 31
0.0
  0
LINE
  5
118F9
  8
3
 10
63.014558390484638
 20
61.384295918368032
 30
0.0
 11
65.113725326901545
 21
64.263532951124219
 31
0.0
  0
ARC
  5
118FA
  8
3
 10
66.02277539048464
 20
63.6007713183334
 30
0.0
 40
1.125
 50
90.0
 51
143.90531151659101
  0
ARC
  5
118FB
  8
0
 10
66.03507574803308
 20
62.4757713183334
 30
0.0
 40
2.25
 50
60.0
 51
90.0
  0
ARC
  5
118FC
  8
0
 10
80.307416390484619
 20
113.97576931833331
 30
0.0
 40
0.75
 50
0.000000000000007
 51
90.0
  0
ARC
  5
118FD
  8
0
 10
77.935467466380743
 20
55.13729591621366
 30
0.0
 40
3.0
 50
2.8849663966451411
 51
57.388640213142843
1001
GENIUS_GENODEF_13
1002
{
1000
HIER
1070
     0
1002
}
1002
{
1000
MANEDIT
1070
     0
1002
}
1002
{
1000
NOSEL
1070
     0
1002
}
1002
{
1000
BEHIND
1070
     0
1002
}
1002
{
1000
REACTOR
1002
}
1001
GENIUS_GENOBJ-N-FIL_13
1002
{
1000
OWNER
1000
GEN
1002
}
  0
LINE
  5
118FE
  8
0
 10
81.057416390484633
 20
52.225772318333398
 30
0.0
 11
80.931665259414416
 21
55.288288581664929
 31
0.0
  0
LINE
  5
118FF
  8
3
 10
130.96954963761539
 20
56.643494978288359
 30
0.0
 11
101.1367151433537
 21
56.643494978288359
 31
0.0
  0
LINE
  5
11900
  8
0
 10
131.05313239048451
 20
52.225772318333398
 30
0.0
 11
101.05313239048451
 21
52.225772318333398
 31
0.0
  0
ARC
  5
11901
  8
0
 10
102.27088987895981
 20
63.725771318333351
 30
0.0
 40
1.0
 50
89.999999999999758
 51
178.91610043182951
1001
GENIUS_GENODEF_13
1002
{
1000
HIER
1070
     0
1002
}
1002
{
1000
MANEDIT
1070
     0
1002
}
1002
{
1000
NOSEL
1070
     0
1002
}
1002
{
1000
BEHIND
1070
     0
1002
}
1002
{
1000
REACTOR
1002
}
1001
GENIUS_GENOBJ-N-FIL_13
1002
{
1000
OWNER
1000
GEN
1002
}
  0
LINE
  5
11902
  8
0
 10
101.05313239048451
 20
52.225772318333398
 30
0.0
 11
101.2710688117252
 21
63.744687806218288
 31
0.0
  0
LINE
  5
11907
  8
0
 10
129.83537490200919
 20
64.725771318333287
 30
0.0
 11
102.27088987895981
 21
64.725771318333344
 31
0.0
  0
LINE
  5
11908
  8
3
 10
107.35963239048451
 20
39.41927231833337
 30
0.0
 11
107.35963239048451
 21
52.225772318333341
 31
0.0
1001
GENIUS_GENOREF_13
1005
0
1005
0
  0
LINE
  5
11909
  8
3
 10
109.74663239048451
 20
39.41927231833337
 30
0.0
 11
109.74663239048451
 21
52.225772318333341
 31
0.0
1001
GENIUS_GENOREF_13
1005
0
1005
0
  0
LINE
  5
1190A
  8
1
 10
108.55313239048451
 20
37.725772318333341
 30
0.0
 11
108.55313239048451
 21
53.725772318333391
 31
0.0
  0
LINE
  5
1190B
  8
0
 10
110.05313239048451
 20
52.225772318333341
 30
0.0
 11
110.05313239048451
 21
39.725772318333341
 31
0.0
1001
GENIUS_GENOREF_13
1005
0
1005
0
  0
LINE
  5
1190C
  8
0
 10
107.05313239048451
 20
52.225772318333341
 30
0.0
 11
107.05313239048451
 21
39.725772318333341
 31
0.0
1001
GENIUS_GENOREF_13
1005
0
1005
0
  0
LINE
  5
1190D
  8
0
 10
107.05313239048451
 20
39.725772318333341
 30
0.0
 11
110.05313239048451
 21
39.725772318333341
 31
0.0
  0
LINE
  5
1190E
  8
0
 10
110.05313239048451
 20
39.725772318333341
 30
0.0
 11
109.55313239048451
 21
39.225772318333341
 31
0.0
  0
LINE
  5
1190F
  8
0
 10
107.55313239048451
 20
39.225772318333341
 30
0.0
 11
109.55313239048451
 21
39.225772318333341
 31
0.0
1001
GENIUS_GENOREF_13
1005
0
1005
0
  0
LINE
  5
11910
  8
0
 10
107.05313239048451
 20
39.725772318333341
 30
0.0
 11
107.55313239048451
 21
39.225772318333341
 31
0.0
  0
LINE
  5
11911
  8
1
 10
116.05313239048439
 20
67.725771318333315
 30
0.0
 11
116.05313239048451
 21
49.225772318333398
 31
0.0
  0
LINE
  5
11C48
  8
3
 10
124.74663239048451
 20
39.41927231833337
 30
0.0
 11
124.74663239048451
 21
52.225772318333341
 31
0.0
1001
GENIUS_GENOREF_13
1005
0
1005
0
  0
LINE
  5
11C49
  8
3
 10
122.35963239048451
 20
39.41927231833337
 30
0.0
 11
122.35963239048451
 21
52.225772318333341
 31
0.0
1001
GENIUS_GENOREF_13
1005
0
1005
0
  0
LINE
  5
11C4A
  8
1
 10
123.55313239048451
 20
37.725772318333341
 30
0.0
 11
123.55313239048451
 21
53.725772318333391
 31
0.0
  0
LINE
  5
11C4B
  8
0
 10
125.05313239048451
 20
52.225772318333341
 30
0.0
 11
125.05313239048451
 21
39.725772318333341
 31
0.0
1001
GENIUS_GENOREF_13
1005
0
1005
0
  0
LINE
  5
11C4C
  8
0
 10
122.05313239048451
 20
52.225772318333341
 30
0.0
 11
122.05313239048451
 21
39.725772318333341
 31
0.0
1001
GENIUS_GENOREF_13
1005
0
1005
0
  0
LINE
  5
11C4D
  8
0
 10
122.05313239048451
 20
39.725772318333341
 30
0.0
 11
122.55313239048451
 21
39.225772318333341
 31
0.0
  0
LINE
  5
11C4E
  8
0
 10
125.05313239048451
 20
39.725772318333341
 30
0.0
 11
122.05313239048451
 21
39.725772318333341
 31
0.0
  0
LINE
  5
11C4F
  8
0
 10
124.55313239048451
 20
39.225772318333341
 30
0.0
 11
122.55313239048451
 21
39.225772318333341
 31
0.0
1001
GENIUS_GENOREF_13
1005
0
1005
0
  0
LINE
  5
11C50
  8
0
 10
125.05313239048451
 20
39.725772318333341
 30
0.0
 11
124.55313239048451
 21
39.225772318333341
 31
0.0
  0
LINE
  5
11CF1
  8
0
 10
131.05313239048451
 20
52.225772318333398
 30
0.0
 11
130.83519596924381
 21
63.744687806218238
 31
0.0
  0
ARC
  5
11CF2
  8
0
 10
129.83537490200919
 20
63.72577131833328
 30
0.0
 40
1.0
 50
1.08389956817063
 51
89.999999999999915
1001
GENIUS_GENODEF_13
1002
{
1000
HIER
1070
     0
1002
}
1002
{
1000
MANEDIT
1070
     0
1002
}
1002
{
1000
NOSEL
1070
     0
1002
}
1002
{
1000
BEHIND
1070
     0
1002
}
1002
{
1000
REACTOR
1002
}
1001
GENIUS_GENOBJ-N-FIL_13
1002
{
1000
OWNER
1000
GEN
1002
}
  0
LINE
  5
11EF9
  8
1
 10
38.807417390484581
 20
92.225770318333332
 30
0.0
 11
47.807417390484567
 21
92.225770318333332
 31
0.0
  0
CIRCLE
  5
11EFC
  8
0
 10
58.307416390484597
 20
61.7257713183334
 30
0.0
 40
1.25
  0
LINE
  5
11F04
  8
1
 10
43.307417390484567
 20
96.725770318333346
 30
0.0
 11
43.307417390484567
 21
87.725770318333346
 31
0.0
  0
LINE
  5
11F2F
  8
1
 10
62.557416390484597
 20
61.7257713183334
 30
0.0
 11
54.057416390484612
 21
61.7257713183334
 31
0.0
  0
LINE
  5
11F30
  8
1
 10
58.307416390484597
 20
65.9757713183334
 30
0.0
 11
58.30741639048459
 21
57.4757713183334
 31
0.0
  0
LINE
  5
11F31
  8
1
 10
38.807417390484581
 20
107.2257703183333
 30
0.0
 11
47.807417390484567
 21
107.2257703183333
 31
0.0
  0
LINE
  5
11F32
  8
1
 10
43.307417390484567
 20
111.7257703183333
 30
0.0
 11
43.307417390484567
 21
102.7257703183333
 31
0.0
  0
LINE
  5
11F33
  8
1
 10
68.807415390484636
 20
107.2257703183333
 30
0.0
 11
77.807415390484636
 21
107.2257703183333
 31
0.0
  0
LINE
  5
11F34
  8
1
 10
73.307415390484636
 20
111.7257703183333
 30
0.0
 11
73.307415390484636
 21
102.7257703183333
 31
0.0
  0
LINE
  5
11F35
  8
1
 10
68.807415390484636
 20
92.225770318333332
 30
0.0
 11
77.807415390484636
 21
92.225770318333332
 31
0.0
  0
LINE
  5
11F36
  8
1
 10
73.307415390484636
 20
96.725770318333346
 30
0.0
 11
73.307415390484636
 21
87.725770318333346
 31
0.0
  0
TEXT
  5
11FF8
  8
0
 62
     3
 10
0.0
 20
0.0
 30
0.0
 40
10.0
  1
EFH4530TT
  7
STANDARD1
  0
ENDSEC
  0
EOF
