  0
SECTION
  2
HEADER
  9
$ACADVER
  1
AC1009
  9
$INSBASE
 10
0.0
 20
0.0
 30
0.0
  9
$EXTMIN
 10
0.0
 20
-2.960436562073669
 30
0.0
  9
$EXTMAX
 10
292.5
 20
244.25000000000011
 30
0.0
  9
$LIMMIN
 10
0.0
 20
0.0
  9
$LIMMAX
 10
390.0
 20
270.0
  9
$ORTHOMODE
 70
     1
  9
$REGENMODE
 70
     1
  9
$FILLMODE
 70
     1
  9
$QTEXTMODE
 70
     0
  9
$MIRRTEXT
 70
     1
  9
$DRAGMODE
 70
     2
  9
$LTSCALE
 40
5.0
  9
$OSMODE
 70
    37
  9
$ATTMODE
 70
     1
  9
$TEXTSIZE
 40
2.5
  9
$TRACEWID
 40
1.0
  9
$TEXTSTYLE
  7
STANDARD
  9
$CLAYER
  8
0
  9
$CELTYPE
  6
BYLAYER
  9
$CECOLOR
 62
   256
  9
$DIMSCALE
 40
1.0
  9
$DIMASZ
 40
3.0
  9
$DIMEXO
 40
1.0
  9
$DIMDLI
 40
6.0
  9
$DIMRND
 40
0.0
  9
$DIMDLE
 40
0.0
  9
$DIMEXE
 40
1.0
  9
$DIMTP
 40
495.0
  9
$DIMTM
 40
0.0
  9
$DIMTXT
 40
2.5
  9
$DIMCEN
 40
0.0
  9
$DIMTSZ
 40
0.0
  9
$DIMTOL
 70
     0
  9
$DIMLIM
 70
     0
  9
$DIMTIH
 70
     0
  9
$DIMTOH
 70
     0
  9
$DIMSE1
 70
     0
  9
$DIMSE2
 70
     0
  9
$DIMTAD
 70
     1
  9
$DIMZIN
 70
     8
  9
$DIMBLK
  1

  9
$DIMASO
 70
     0
  9
$DIMSHO
 70
     1
  9
$DIMPOST
  1

  9
$DIMAPOST
  1

  9
$DIMALT
 70
     0
  9
$DIMALTD
 70
     2
  9
$DIMALTF
 40
25.399999999999999
  9
$DIMLFAC
 40
1.0
  9
$DIMTOFL
 70
     1
  9
$DIMTVP
 40
0.0
  9
$DIMTIX
 70
     1
  9
$DIMSOXD
 70
     0
  9
$DIMSAH
 70
     0
  9
$DIMBLK1
  1

  9
$DIMBLK2
  1

  9
$DIMSTYLE
  2
ITM
  9
$DIMCLRD
 70
   256
  9
$DIMCLRE
 70
   256
  9
$DIMCLRT
 70
   256
  9
$DIMTFAC
 40
1.0
  9
$DIMGAP
 40
1.0
  9
$LUNITS
 70
     2
  9
$LUPREC
 70
     1
  9
$SKETCHINC
 40
1.0
  9
$FILLETRAD
 40
0.4
  9
$AUNITS
 70
     0
  9
$AUPREC
 70
     1
  9
$MENU
  1
.
  9
$ELEVATION
 40
0.0
  9
$PELEVATION
 40
0.0
  9
$THICKNESS
 40
0.0
  9
$LIMCHECK
 70
     0
  9
$BLIPMODE
 70
     0
  9
$CHAMFERA
 40
1.1999999999999991
  9
$CHAMFERB
 40
1.1999999999999991
  9
$SKPOLY
 70
     0
  9
$TDCREATE
 40
2453354.0921258219
  9
$TDUPDATE
 40
2457168.5542473029
  9
$TDINDWG
 40
513.95001278940003
  9
$TDUSRTIMER
 40
513.94973481479997
  9
$USRTIMER
 70
     1
  9
$ANGBASE
 50
0.0
  9
$ANGDIR
 70
     0
  9
$PDMODE
 70
     0
  9
$PDSIZE
 40
0.0
  9
$PLINEWID
 40
0.0
  9
$COORDS
 70
     1
  9
$SPLFRAME
 70
     0
  9
$SPLINETYPE
 70
     6
  9
$SPLINESEGS
 70
     8
  9
$ATTDIA
 70
     0
  9
$ATTREQ
 70
     1
  9
$HANDLING
 70
     1
  9
$HANDSEED
  5
59D02
  9
$SURFTAB1
 70
     6
  9
$SURFTAB2
 70
     6
  9
$SURFTYPE
 70
     6
  9
$SURFU
 70
     6
  9
$SURFV
 70
     6
  9
$UCSNAME
  2

  9
$UCSORG
 10
0.0
 20
0.0
 30
0.0
  9
$UCSXDIR
 10
1.0
 20
0.0
 30
0.0
  9
$UCSYDIR
 10
0.0
 20
1.0
 30
0.0
  9
$PUCSNAME
  2

  9
$PUCSORG
 10
0.0
 20
0.0
 30
0.0
  9
$PUCSXDIR
 10
1.0
 20
0.0
 30
0.0
  9
$PUCSYDIR
 10
0.0
 20
1.0
 30
0.0
  9
$USERI1
 70
     4
  9
$USERI2
 70
     1
  9
$USERI3
 70
     1
  9
$USERI4
 70
     0
  9
$USERI5
 70
     0
  9
$USERR1
 40
1.0
  9
$USERR2
 40
3.0
  9
$USERR3
 40
3.2000000000000002
  9
$USERR4
 40
3.0
  9
$USERR5
 40
10.0
  9
$WORLDVIEW
 70
     1
  9
$SHADEDGE
 70
     3
  9
$SHADEDIF
 70
    70
  9
$TILEMODE
 70
     1
  9
$MAXACTVP
 70
    16
  9
$PLIMCHECK
 70
     0
  9
$PEXTMIN
 10
0.0
 20
0.0
 30
0.0
  9
$PEXTMAX
 10
0.0
 20
0.0
 30
0.0
  9
$PLIMMIN
 10
0.0
 20
0.0
  9
$PLIMMAX
 10
12.0
 20
9.0
  9
$UNITMODE
 70
     0
  9
$VISRETAIN
 70
     0
  9
$PLINEGEN
 70
     0
  9
$PSLTSCALE
 70
     1
  0
ENDSEC
  0
SECTION
  2
TABLES
  0
TABLE
  2
VPORT
 70
     1
  0
VPORT
  2
*ACTIVE
 70
     0
 10
0.0
 20
0.0
 11
1.0
 21
1.0
 12
317.84188034188031
 22
175.0
 13
0.0
 23
0.0
 14
5.0
 24
5.0
 15
10.0
 25
10.0
 16
0.0
 26
0.0
 36
1.0
 17
0.0
 27
0.0
 37
0.0
 40
350.0
 41
1.816239316239316
 42
50.0
 43
0.0
 44
0.0
 50
0.0
 51
0.0
 71
    16
 72
   500
 73
     1
 74
     1
 75
     0
 76
     0
 77
     0
 78
     1
  0
ENDTAB
  0
TABLE
  2
LTYPE
 70
     3
  0
LTYPE
  2
CONTINUOUS
 70
     0
  3
Solid line
 72
    65
 73
     0
 40
0.0
  0
LTYPE
  2
CENTER
 70
     0
  3
____ _ ____ _ ____ _ ____ _ ____ _ ____ _ ____
 72
    65
 73
     4
 40
2.0
 49
1.25
 49
-0.25
 49
0.25
 49
-0.25
  0
LTYPE
  2
PHANTOM2
 70
     0
  3
___ _ _ ___ _ _ ___ _ _ ___ _ _
 72
    65
 73
     6
 40
1.25
 49
0.625
 49
-0.125
 49
0.125
 49
-0.125
 49
0.125
 49
-0.125
  0
ENDTAB
  0
TABLE
  2
LAYER
 70
     5
  0
LAYER
  2
0
 70
     0
 62
     7
  6
CONTINUOUS
  0
LAYER
  2
1
 70
     0
 62
     1
  6
CENTER
  0
LAYER
  2
WAKU
 70
     0
 62
     5
  6
CONTINUOUS
  0
LAYER
  2
DEFPOINTS
 70
     0
 62
     7
  6
CONTINUOUS
  0
LAYER
  2
3
 70
     0
 62
     3
  6
CONTINUOUS
  0
ENDTAB
  0
TABLE
  2
STYLE
 70
     3
  0
STYLE
  2
STANDARD
 70
     0
 40
0.0
 41
1.0
 50
0.0
 71
     0
 42
2.5
  3
ROMANS
  4
EXTFONT
  0
STYLE
  2
K
 70
     0
 40
0.0
 41
0.75
 50
0.0
 71
     0
 42
3.2000000000000002
  3
ROMANS.shx
  4
EXTFONT.shx
  0
STYLE
  2
STANDARD1
 70
     0
 40
0.0
 41
1.0
 50
0.0
 71
     0
 42
3.0
  3
txt
  4

  0
ENDTAB
  0
TABLE
  2
VIEW
 70
     2
  0
VIEW
  2
OLE1
 70
     0
 40
151.81220504325799
 10
73.676474473531471
 20
85.209442582639014
 41
295.93771616027522
 11
0.0
 21
0.0
 31
1.0
 12
0.0
 22
0.0
 32
0.0
 42
50.0
 43
0.0
 44
0.0
 50
0.0
 71
    16
  0
VIEW
  2
OLE2
 70
     0
 40
12.66566269640963
 10
177.82767580922561
 20
80.089748755761136
 41
24.690026015785861
 11
0.0
 21
0.0
 31
1.0
 12
0.0
 22
0.0
 32
0.0
 42
50.0
 43
0.0
 44
0.0
 50
0.0
 71
    16
  0
ENDTAB
  0
TABLE
  2
UCS
 70
     0
  0
ENDTAB
  0
TABLE
  2
APPID
 70
    49
  0
APPID
  2
ACAD
 70
     0
  0
APPID
  2
COMM
 70
     0
  0
APPID
  2
DCO15
 70
     0
  0
APPID
  2
GENIUS_GENOREF_13
 70
     0
  0
APPID
  2
GENIUS_GENOENT_13
 70
     0
  0
APPID
  2
GENIUS_GENBH_13
 70
     0
  0
APPID
  2
GENIUS_GENOBJ_13
 70
     0
  0
APPID
  2
GENIUS_GENODEF_13
 70
     0
  0
APPID
  2
GENIUS_GENOLIS_13
 70
     0
  0
APPID
  2
GENIUS_GENOBJ-NBEHI-BHF_13
 70
     0
  0
APPID
  2
GENIUS_GENOBJ-NBEHI-BHB_13
 70
     0
  0
APPID
  2
GENIUS_GENOBJ-F-PART_13
 70
     0
  0
APPID
  2
GENIUS_GEFSTDP_13
 70
     0
  0
APPID
  2
GENIUS_GENOBJ-N-RSSYM_13
 70
     0
  0
APPID
  2
GENIUS_GENSYMENT_13
 70
     0
  0
APPID
  2
GENIUS_GENOBJ-N-TIT_13
 70
     0
  0
APPID
  2
GENIUS_GENTITLE_13
 70
     0
  0
APPID
  2
GENIUS_GENZVEED_13
 70
     0
  0
APPID
  2
GENIUS_GENOBJ-N-LEADER_13
 70
     0
  0
APPID
  2
GENIUS_GENOBJ-N-FIL_13
 70
     0
  0
APPID
  2
GENIUS_GENOBJ-N-SEC_13
 70
     0
  0
APPID
  2
GENIUS_GENOBJ-N-CRS_13
 70
     0
  0
APPID
  2
GENIUS_GENOBJ-N-ZOO_13
 70
     0
  0
APPID
  2
GENIUS_GENZOO_13
 70
     0
  0
APPID
  2
GENIUS_GENOBJ-F-TOL_13
 70
     0
  0
APPID
  2
GENIUS_GENFIL_13
 70
     0
  0
APPID
  2
GENIUS_GENOBJ-N-CHA_13
 70
     0
  0
APPID
  2
_CALL_MAC$
 70
     0
  0
APPID
  2
ASM_BASE
 70
     0
  0
APPID
  2
ASM_EXPLO_VER_2_00
 70
     0
  0
APPID
  2
ASM_CADM_VER_12_00
 70
     0
  0
APPID
  2
ASM_BASEFORO
 70
     0
  0
APPID
  2
ASM_BASETRAVI
 70
     0
  0
APPID
  2
ASM_BASETRAVI1
 70
     0
  0
APPID
  2
ASM_GRUPPI
 70
     0
  0
APPID
  2
ASM_CADM_ALBERO
 70
     0
  0
APPID
  2
ASM_GOLE
 70
     0
  0
APPID
  2
GENIUS_GEFINERT_13
 70
     0
  0
APPID
  2
GENIUS_GENOBJ-F-INER_13
 70
     0
  0
APPID
  2
GENIUS_GENDTOL_13
 70
     0
  0
APPID
  2
AD_SKETCHDIM
 70
     0
  0
APPID
  2
GENIUS_GENSCREG_15
 70
     0
  0
APPID
  2
GENIUS_GENOBJ-N-SDF_13
 70
     0
  0
APPID
  2
GENIUS_GENOBJ-N-CEN_13
 70
     0
  0
APPID
  2
ACAD_MLEADERVER
 70
     0
  0
APPID
  2
ACAD_EXEMPT_FROM_CAD_STANDARDS
 70
     0
  0
APPID
  2
ACAD_NAV_VCDISPLAY
 70
     0
  0
APPID
  2
ACAD_DSTYLE_DIMJAG
 70
     0
  0
APPID
  2
ACAD_DSTYLE_DIMTALN
 70
     0
  0
ENDTAB
  0
TABLE
  2
DIMSTYLE
 70
     2
  0
DIMSTYLE
  2
ITM
 70
     0
  3

  4

  5

  6

  7

 40
0.0
 41
2.5
 42
1.0
 43
6.0
 44
1.0
 45
0.0
 46
0.0
 47
495.0
 48
0.0
140
3.0
141
0.0
142
0.0
143
25.399999999999999
144
1.0
145
0.0
146
1.0
147
1.0
 71
     0
 72
     0
 73
     0
 74
     0
 75
     0
 76
     0
 77
     3
 78
     8
170
     0
171
     2
172
     1
173
     0
174
     0
175
     0
176
     0
177
     0
178
     0
  0
DIMSTYLE
  2
STANDARD
 70
     0
  3

  4

  5

  6

  7

 40
1.0
 41
0.18
 42
0.0625
 43
0.38
 44
0.18
 45
0.0
 46
0.0
 47
0.0
 48
0.0
140
0.18
141
0.09
142
0.0
143
25.399999999999999
144
1.0
145
0.0
146
1.0
147
0.09
 71
     0
 72
     0
 73
     1
 74
     1
 75
     0
 76
     0
 77
     0
 78
     0
170
     0
171
     2
172
     0
173
     0
174
     0
175
     0
176
     0
177
     0
178
     0
  0
ENDTAB
  0
ENDSEC
  0
SECTION
  2
BLOCKS
  0
BLOCK
  8
0
  2
$MODEL_SPACE
 70
     0
 10
0.0
 20
0.0
 30
0.0
  3
$MODEL_SPACE
  1

  0
ENDBLK
  5
21
  8
0
  0
BLOCK
 67
     1
  8
0
  2
$PAPER_SPACE
 70
     0
 10
0.0
 20
0.0
 30
0.0
  3
$PAPER_SPACE
  1

  0
ENDBLK
  5
76
 67
     1
  8
0
  0
BLOCK
  8
0
  2
ARROW1
 70
     0
 10
0.0
 20
0.0
 30
0.0
  3
ARROW1
  1

  0
SOLID
  5
18C
  8
WAKU
  6
CONTINUOUS
 62
     4
 10
-1.0
 20
0.1666666666666714
 30
0.0
 11
-1.0
 21
-0.1666666666666714
 31
0.0
 12
0.0
 22
0.0
 32
0.0
 13
0.0
 23
0.0
 33
0.0
  0
ENDBLK
  5
3534A
  8
0
  0
ENDSEC
  0
SECTION
  2
ENTITIES
  0
TEXT
  5
58002
  8
0
 62
     3
 10
0.0
 20
0.0
 30
0.0
 40
10.0
  1
EFAL78X30-SUS
  7
STANDARD1
  0
LINE
  5
5932A
  8
1
 10
115.0
 20
227.0
 30
0.0
 11
215.25
 21
227.0
 31
0.0
  0
LINE
  5
5932B
  8
1
 10
132.25
 20
209.75000000000011
 30
0.0
 11
132.25
 21
244.25000000000011
 31
0.0
  0
ARC
  5
5932C
  8
0
 10
132.25
 20
227.0
 30
0.0
 40
12.25
 50
60.000000000000412
 51
299.9999999999996
  0
POLYLINE
  5
5932D
  8
0
 66
     1
 10
0.0
 20
0.0
 30
0.0
 70
     8
  0
VERTEX
  5
5932E
  8
0
 10
139.1774826746724
 20
216.8969072164949
 30
0.0
 70
    32
  0
VERTEX
  5
5932F
  8
0
 10
139.49644766076739
 20
217.10821912445121
 30
0.0
 70
    32
  0
VERTEX
  5
59330
  8
0
 10
139.810308190184
 20
217.3022883726245
 30
0.0
 70
    32
  0
VERTEX
  5
59331
  8
0
 10
140.09024506248139
 20
217.46440829449759
 30
0.0
 70
    32
  0
VERTEX
  5
59332
  8
0
 10
140.2206440538225
 20
217.53653275617981
 30
0.0
 70
    32
  0
VERTEX
  5
59333
  8
0
 10
140.33810074556169
 20
217.5997118565131
 30
0.0
 70
    32
  0
VERTEX
  5
59334
  8
0
 10
140.4166666666666
 20
217.64103669933669
 30
0.0
 70
    32
  0
SEQEND
  5
59335
  8
0
  0
POLYLINE
  5
59336
  8
0
 66
     1
 10
0.0
 20
0.0
 30
0.0
 70
     8
  0
VERTEX
  5
59337
  8
0
 10
139.1774826746724
 20
237.10309278350519
 30
0.0
 70
    32
  0
VERTEX
  5
59338
  8
0
 10
138.8929715764508
 20
237.29239664191331
 30
0.0
 70
    32
  0
VERTEX
  5
59339
  8
0
 10
138.59532855074471
 20
237.47851638272829
 30
0.0
 70
    32
  0
VERTEX
  5
5933A
  8
0
 10
138.375
 20
237.6088111963594
 30
0.0
 70
    32
  0
SEQEND
  5
5933B
  8
0
  0
POLYLINE
  5
5933D
  8
0
 66
     1
 10
0.0
 20
0.0
 30
0.0
 70
     8
  0
VERTEX
  5
5933E
  8
0
 10
138.375
 20
216.39118880364069
 30
0.0
 70
    32
  0
VERTEX
  5
5933F
  8
0
 10
138.57566335929729
 20
216.50960043349909
 30
0.0
 70
    32
  0
VERTEX
  5
59340
  8
0
 10
138.77634071781719
 20
216.6332562086757
 30
0.0
 70
    32
  0
VERTEX
  5
59341
  8
0
 10
138.97854150699871
 20
216.76333896289449
 30
0.0
 70
    32
  0
VERTEX
  5
59342
  8
0
 10
139.1774826746724
 20
216.8969072164949
 30
0.0
 70
    32
  0
SEQEND
  5
59343
  8
0
  0
POLYLINE
  5
59344
  8
0
 66
     1
 10
0.0
 20
0.0
 30
0.0
 70
     8
  0
VERTEX
  5
59345
  8
0
 10
140.4166666666666
 20
236.35896330066339
 30
0.0
 70
    32
  0
VERTEX
  5
59346
  8
0
 10
140.2328107642212
 20
236.4568415295586
 30
0.0
 70
    32
  0
VERTEX
  5
59347
  8
0
 10
140.00555304932081
 20
236.58357941918609
 30
0.0
 70
    32
  0
VERTEX
  5
59348
  8
0
 10
139.75866247925251
 20
236.7287343819329
 30
0.0
 70
    32
  0
VERTEX
  5
59349
  8
0
 10
139.48793533973659
 20
236.89723202996879
 30
0.0
 70
    32
  0
VERTEX
  5
5934A
  8
0
 10
139.1774826746728
 20
237.10309278350499
 30
0.0
 70
    32
  0
SEQEND
  5
5934B
  8
0
  0
ARC
  5
5934C
  8
0
 10
202.25
 20
227.0
 30
0.0
 40
8.0000000000000018
 50
28.955024371859079
 51
90.0
  0
ARC
  5
5934D
  8
0
 10
202.25
 20
227.0
 30
0.0
 40
7.9999999999999716
 50
270.0
 51
331.044975628141
  0
ARC
  5
5934E
  8
0
 10
145.96358815190251
 20
207.00000000000011
 30
0.0
 40
11.999999999999989
 50
90.0
 51
117.5319687017553
  0
ARC
  5
5934F
  8
0
 10
145.96358815190251
 20
247.0000000000002
 30
0.0
 40
12.00000000000011
 50
242.46803129824471
 51
270.0
  0
LINE
  5
59350
  8
3
 10
140.4166666666666
 20
217.64103669933669
 30
0.0
 11
140.4166666666666
 21
236.35896330066339
 31
0.0
  0
LINE
  5
59351
  8
0
 10
202.25
 20
219.00000000000011
 30
0.0
 11
145.96358815190251
 21
219.00000000000011
 31
0.0
  0
LINE
  5
59352
  8
0
 10
145.9635881519024
 20
235.0
 30
0.0
 11
202.25
 21
235.0
 31
0.0
  0
POLYLINE
  5
59353
  8
0
 66
     1
 10
0.0
 20
0.0
 30
0.0
 70
     8
  0
VERTEX
  5
59354
  8
0
 10
209.25
 20
223.12701665379259
 30
0.0
 70
    32
  0
VERTEX
  5
59355
  8
0
 10
209.4298000510729
 20
223.47147747256531
 30
0.0
 70
    32
  0
VERTEX
  5
59356
  8
0
 10
209.59302780829699
 20
223.8251074653501
 30
0.0
 70
    32
  0
VERTEX
  5
59357
  8
0
 10
209.7403051897096
 20
224.19013734054329
 30
0.0
 70
    32
  0
VERTEX
  5
59358
  8
0
 10
209.86892742546399
 20
224.56033918638011
 30
0.0
 70
    32
  0
VERTEX
  5
59359
  8
0
 10
210.03353451989699
 20
225.15159788531491
 30
0.0
 70
    32
  0
VERTEX
  5
5935A
  8
0
 10
210.15193751267509
 20
225.7512472038957
 30
0.0
 70
    32
  0
VERTEX
  5
5935B
  8
0
 10
210.22474904534511
 20
226.3648798036848
 30
0.0
 70
    32
  0
VERTEX
  5
5935C
  8
0
 10
210.2499822221871
 20
226.98313451185729
 30
0.0
 70
    32
  0
VERTEX
  5
5935D
  8
0
 10
210.25
 20
227.0
 30
0.0
 70
    32
  0
SEQEND
  5
5935E
  8
0
  0
POLYLINE
  5
5935F
  8
0
 66
     1
 10
0.0
 20
0.0
 30
0.0
 70
     8
  0
VERTEX
  5
59360
  8
0
 10
210.25
 20
227.0
 30
0.0
 70
    32
  0
VERTEX
  5
59361
  8
0
 10
210.2499822221871
 20
227.0168654881428
 30
0.0
 70
    32
  0
VERTEX
  5
59362
  8
0
 10
210.22617149874819
 20
227.61699936998161
 30
0.0
 70
    32
  0
VERTEX
  5
59363
  8
0
 10
210.15655978783931
 20
228.2191440937487
 30
0.0
 70
    32
  0
VERTEX
  5
59364
  8
0
 10
210.03802988495329
 20
228.8293688832695
 30
0.0
 70
    32
  0
VERTEX
  5
59365
  8
0
 10
209.86892742546399
 20
229.43966081362009
 30
0.0
 70
    32
  0
VERTEX
  5
59366
  8
0
 10
209.74403915640721
 20
229.7998887696186
 30
0.0
 70
    32
  0
VERTEX
  5
59367
  8
0
 10
209.6001913358393
 20
230.1582728391565
 30
0.0
 70
    32
  0
VERTEX
  5
59368
  8
0
 10
209.43514038999561
 20
230.51763522498501
 30
0.0
 70
    32
  0
VERTEX
  5
59369
  8
0
 10
209.25
 20
230.87298334620749
 30
0.0
 70
    32
  0
SEQEND
  5
5936A
  8
0
  0
CIRCLE
  5
5936E
  8
0
 10
132.25
 20
227.0
 30
0.0
 40
5.8333333333333304
  0
LINE
  5
5938E
  8
1
 10
132.25
 20
162.0
 30
0.0
 11
132.25
 21
75.0
 31
0.0
  0
LINE
  5
59391
  8
0
 10
137.08333333333329
 20
157.0
 30
0.0
 11
127.4166666666666
 21
157.0
 31
0.0
  0
ARC
  5
59392
  8
0
 10
127.4166666666666
 20
156.0
 30
0.0
 40
1.0
 50
90.0
 51
180.0
  0
ARC
  5
59393
  8
0
 10
137.08333333333329
 20
156.0
 30
0.0
 40
1.0000000000000031
 50
0.0
 51
90.0
  0
LINE
  5
59394
  8
0
 10
126.4166666666666
 20
156.0
 30
0.0
 11
126.4166666666666
 21
151.0
 31
0.0
  0
LINE
  5
59395
  8
0
 10
138.08333333333329
 20
151.0
 30
0.0
 11
138.08333333333329
 21
156.0
 31
0.0
  0
LINE
  5
59398
  8
3
 10
139.6750236378617
 20
119.59999999999999
 30
0.0
 11
139.6750236378617
 21
110.2
 31
0.0
  0
LINE
  5
5939A
  8
3
 10
138.13795812884359
 20
119.59999999999999
 30
0.0
 11
138.13795812884359
 21
110.2
 31
0.0
  0
LINE
  5
5939B
  8
0
 10
124.65000000000001
 20
110.2
 30
0.0
 11
124.65000000000001
 21
110.0
 31
0.0
  0
LINE
  5
5939C
  8
0
 10
139.84999999999999
 20
110.0
 30
0.0
 11
139.84999999999999
 21
110.2
 31
0.0
  0
LINE
  5
5939D
  8
0
 10
139.84999999999999
 20
110.0
 30
0.0
 11
124.65000000000001
 21
110.0
 31
0.0
  0
LINE
  5
5939E
  8
0
 10
205.4499999999999
 20
140.0
 30
0.0
 11
205.25
 21
140.0
 31
0.0
  0
ARC
  5
5939F
  8
0
 10
205.4499999999999
 20
144.80000000000001
 30
0.0
 40
4.8000000000000851
 50
345.04499060903112
 51
0.0053260629534849
  0
ARC
  5
593A0
  8
0
 10
205.4499999999999
 20
144.8000000000001
 30
0.0
 40
4.800000000000046
 50
270.0
 51
345.04499060902941
  0
LINE
  5
593A1
  8
0
 10
201.25
 20
144.0
 30
0.0
 11
205.246889392979
 21
140.00311060702111
 31
0.0
  0
POLYLINE
  5
593B4
  8
0
 66
     1
 10
0.0
 20
0.0
 30
0.0
 70
     8
  0
VERTEX
  5
593B5
  8
0
 10
209.25
 20
152.0
 30
0.0
 70
    32
  0
VERTEX
  5
593B6
  8
0
 10
209.4298000510729
 20
151.98370317760711
 30
0.0
 70
    32
  0
VERTEX
  5
593B7
  8
0
 10
209.59302780829699
 20
151.9393252486413
 30
0.0
 70
    32
  0
VERTEX
  5
593B8
  8
0
 10
209.86892742546399
 20
151.78544817907269
 30
0.0
 70
    32
  0
VERTEX
  5
593B9
  8
0
 10
210.03353451989699
 20
151.6213482567253
 30
0.0
 70
    32
  0
VERTEX
  5
593BA
  8
0
 10
210.15193751267509
 20
151.431866557202
 30
0.0
 70
    32
  0
VERTEX
  5
593BB
  8
0
 10
210.22474904534511
 20
151.22330315403741
 30
0.0
 70
    32
  0
VERTEX
  5
593BC
  8
0
 10
210.2499822221871
 20
151.00596282732511
 30
0.0
 70
    32
  0
VERTEX
  5
593BD
  8
0
 10
210.25
 20
151.0
 30
0.0
 70
    32
  0
SEQEND
  5
593BE
  8
0
  0
LINE
  5
593BF
  8
0
 10
210.24999997926139
 20
144.80044619520589
 30
0.0
 11
210.25
 21
151.0
 31
0.0
  0
ARC
  5
593C0
  8
0
 10
177.9815011658286
 20
69.55151470980627
 30
0.0
 40
78.000000000000242
 50
72.643628574713787
 51
90.257000525338469
  0
LINE
  5
593C3
  8
3
 10
136.19963800365571
 20
119.59999999999999
 30
0.0
 11
136.19963800365571
 21
110.2
 31
0.0
  0
ARC
  5
593D3
  8
0
 10
178.0056069157196
 20
69.477929045085773
 30
0.0
 40
78.077031675463601
 50
90.538323178810074
 51
113.9743594734198
  0
LINE
  5
593D4
  8
0
 10
177.27204402744621
 20
147.55151459577181
 30
0.0
 11
177.63163292201261
 21
147.5507300405518
 31
0.0
  0
LINE
  5
593D6
  8
3
 10
135.12045442515719
 20
119.59999999999999
 30
0.0
 11
135.12045442515719
 21
110.2
 31
0.0
  0
LINE
  5
593D8
  8
3
 10
133.99215657560401
 20
119.59999999999999
 30
0.0
 11
133.99215657560401
 21
110.2
 31
0.0
  0
LINE
  5
593DA
  8
0
 10
141.75
 20
110.2
 30
0.0
 11
122.75
 21
110.2
 31
0.0
  0
LINE
  5
593DB
  8
3
 10
132.8340499440252
 20
119.59999999999999
 30
0.0
 11
132.8340499440252
 21
110.2
 31
0.0
  0
LINE
  5
593F4
  8
3
 10
137.21124218086479
 20
119.60000000000051
 30
0.0
 11
137.21124218086479
 21
110.2000000000005
 31
0.0
  0
LINE
  5
593F6
  8
3
 10
138.9639294807873
 20
119.59999999999999
 30
0.0
 11
138.9639294807873
 21
110.2
 31
0.0
  0
LINE
  5
593F9
  8
3
 10
140.25907358188681
 20
119.60000000000019
 30
0.0
 11
140.25907358188681
 21
110.2000000000002
 31
0.0
  0
LINE
  5
593FE
  8
0
 10
122.75
 20
119.6000000000023
 30
0.0
 11
141.75
 21
119.59999999999999
 31
0.0
  0
LINE
  5
59400
  8
0
 10
122.75
 20
122.0
 30
0.0
 11
122.75
 21
110.2
 31
0.0
  0
LINE
  5
59401
  8
0
 10
141.75
 20
110.2
 30
0.0
 11
141.75
 21
122.0
 31
0.0
  0
POLYLINE
  5
59402
  8
0
 66
     1
 10
0.0
 20
0.0
 30
0.0
 70
     8
  0
VERTEX
  5
59403
  8
0
 10
139.1774826746724
 20
151.04275670534761
 30
0.0
 70
    32
  0
VERTEX
  5
59404
  8
0
 10
139.49644766076739
 20
151.15565910337759
 30
0.0
 70
    32
  0
VERTEX
  5
59405
  8
0
 10
139.810308190184
 20
151.3333623593503
 30
0.0
 70
    32
  0
VERTEX
  5
59406
  8
0
 10
140.09024506248139
 20
151.56765331691781
 30
0.0
 70
    32
  0
VERTEX
  5
59407
  8
0
 10
140.33810074556169
 20
151.87142915630849
 30
0.0
 70
    32
  0
VERTEX
  5
59408
  8
0
 10
140.4166666666666
 20
152.0
 30
0.0
 70
    32
  0
SEQEND
  5
59409
  8
0
  0
POLYLINE
  5
5940A
  8
3
 66
     1
 10
0.0
 20
0.0
 30
0.0
 70
     8
  0
VERTEX
  5
5940B
  8
3
 10
143.611472474962
 20
140.8190510678881
 30
0.0
 70
    32
  0
VERTEX
  5
5940C
  8
3
 10
144.78106854856489
 20
141.1987523018326
 30
0.0
 70
    32
  0
VERTEX
  5
5940D
  8
3
 10
145.96358815190251
 20
141.61174986635109
 30
0.0
 70
    32
  0
SEQEND
  5
5940E
  8
3
  0
LINE
  5
59410
  8
0
 10
209.25
 20
152.0
 30
0.0
 11
140.4166666666666
 21
152.0
 31
0.0
  0
POLYLINE
  5
59411
  8
3
 66
     1
 10
0.0
 20
0.0
 30
0.0
 70
     8
  0
VERTEX
  5
59412
  8
3
 10
139.1774826746724
 20
138.0779919771926
 30
0.0
 70
    32
  0
VERTEX
  5
59413
  8
3
 10
139.18799027254241
 20
138.08695149188901
 30
0.0
 70
    32
  0
VERTEX
  5
59414
  8
3
 10
139.85379542101751
 20
138.63922942346241
 30
0.0
 70
    32
  0
VERTEX
  5
59415
  8
3
 10
140.55389264077141
 20
139.17865444768989
 30
0.0
 70
    32
  0
VERTEX
  5
59416
  8
3
 10
141.30669563217279
 20
139.69997276339839
 30
0.0
 70
    32
  0
VERTEX
  5
59417
  8
3
 10
142.10684209493149
 20
140.1756851075674
 30
0.0
 70
    32
  0
VERTEX
  5
59418
  8
3
 10
142.83463110361791
 20
140.53044639205231
 30
0.0
 70
    32
  0
VERTEX
  5
59419
  8
3
 10
143.611472474962
 20
140.8190510678881
 30
0.0
 70
    32
  0
SEQEND
  5
5941A
  8
3
  0
ARC
  5
5941B
  8
0
 10
147.5
 20
138.0779919771926
 30
0.0
 40
2.999999999999996
 50
113.9801432737367
 51
179.99999914622629
  0
POLYLINE
  5
5941E
  8
0
 66
     1
 10
0.0
 20
0.0
 30
0.0
 70
     8
  0
VERTEX
  5
5941F
  8
0
 10
138.375
 20
151.0
 30
0.0
 70
    32
  0
VERTEX
  5
59420
  8
0
 10
138.77634071781719
 20
150.98054824775721
 30
0.0
 70
    32
  0
VERTEX
  5
59421
  8
0
 10
139.1774826746724
 20
151.04275670534761
 30
0.0
 70
    32
  0
SEQEND
  5
59422
  8
0
  0
LINE
  5
59423
  8
0
 10
138.375
 20
151.0
 30
0.0
 11
120.0
 21
151.0
 31
0.0
  0
LINE
  5
59424
  8
0
 10
120.0
 20
151.0
 30
0.0
 11
120.0
 21
122.0
 31
0.0
  0
LINE
  5
59425
  8
0
 10
144.5
 20
122.0
 30
0.0
 11
144.5
 21
138.0779919771926
 31
0.0
  0
LINE
  5
59427
  8
0
 10
144.5
 20
122.0
 30
0.0
 11
120.0
 21
122.0
 31
0.0
  0
LINE
  5
5944F
  8
1
 10
280.25
 20
162.0
 30
0.0
 11
280.25
 21
75.0
 31
0.0
  0
LINE
  5
59452
  8
0
 10
285.08333333333331
 20
157.0
 30
0.0
 11
275.41666666704663
 21
157.0
 31
0.0
  0
ARC
  5
59453
  8
0
 10
275.41666666666669
 20
156.0
 30
0.0
 40
1.0
 50
90.0
 51
180.0
  0
ARC
  5
59454
  8
0
 10
285.08333333333331
 20
156.0
 30
0.0
 40
1.0000000000000031
 50
0.0
 51
90.0
  0
LINE
  5
59456
  8
0
 10
274.41666666666669
 20
156.0
 30
0.0
 11
274.41666666666669
 21
152.0
 31
0.0
  0
LINE
  5
59457
  8
0
 10
286.08333333333343
 20
152.0
 30
0.0
 11
286.08333333333343
 21
156.0
 31
0.0
  0
LINE
  5
5945C
  8
0
 10
287.85000000000002
 20
110.0
 30
0.0
 11
272.64999999999998
 21
110.0
 31
0.0
  0
LINE
  5
5945D
  8
0
 10
272.64999999999998
 20
110.2
 30
0.0
 11
272.64999999999998
 21
110.0
 31
0.0
  0
LINE
  5
5945E
  8
0
 10
287.85000000000002
 20
110.0
 30
0.0
 11
287.85000000000002
 21
110.2
 31
0.0
  0
LINE
  5
5945F
  8
0
 10
290.5067156903765
 20
151.0
 30
0.0
 11
292.5
 21
151.0
 31
0.0
  0
LINE
  5
59461
  8
0
 10
268.0
 20
151.0
 30
0.0
 11
270.0042795337165
 21
151.0
 31
0.0
  0
LINE
  5
59474
  8
0
 10
289.75
 20
110.2
 30
0.0
 11
270.75
 21
110.2
 31
0.0
  0
LINE
  5
5949A
  8
0
 10
270.75
 20
122.0
 30
0.0
 11
270.75
 21
110.2
 31
0.0
  0
LINE
  5
5949B
  8
0
 10
289.75
 20
110.2
 30
0.0
 11
289.75
 21
122.0
 31
0.0
  0
LINE
  5
594A6
  8
0
 10
292.5
 20
122.0
 30
0.0
 11
268.0
 21
122.0
 31
0.0
  0
LINE
  5
594A7
  8
0
 10
268.0
 20
151.0
 30
0.0
 11
268.0
 21
122.0
 31
0.0
  0
LINE
  5
594A8
  8
0
 10
292.5
 20
122.0
 30
0.0
 11
292.5
 21
151.0
 31
0.0
  0
LINE
  5
594A9
  8
0
 10
289.60896330066339
 20
152.0
 30
0.0
 11
270.89103669933661
 21
152.0
 31
0.0
  0
POLYLINE
  5
594AB
  8
0
 66
     1
 10
0.0
 20
0.0
 30
0.0
 70
     8
  0
VERTEX
  5
594AC
  8
0
 10
289.60896330066339
 20
152.0
 30
0.0
 70
    32
  0
VERTEX
  5
594AD
  8
0
 10
289.70684152955852
 20
151.72727586874939
 30
0.0
 70
    32
  0
VERTEX
  5
594AE
  8
0
 10
289.83357941918598
 20
151.4873085101529
 30
0.0
 70
    32
  0
VERTEX
  5
594AF
  8
0
 10
289.97873438193278
 20
151.29878732799929
 30
0.0
 70
    32
  0
VERTEX
  5
594B0
  8
0
 10
290.14723202996879
 20
151.15183156908779
 30
0.0
 70
    32
  0
VERTEX
  5
594B1
  8
0
 10
290.35309278350491
 20
151.04275670534631
 30
0.0
 70
    32
  0
SEQEND
  5
594B2
  8
0
  0
POLYLINE
  5
594B3
  8
0
 66
     1
 10
0.0
 20
0.0
 30
0.0
 70
     8
  0
VERTEX
  5
594B4
  8
0
 10
270.14690721649481
 20
151.04275670534761
 30
0.0
 70
    32
  0
VERTEX
  5
594B5
  8
0
 10
270.3582191244513
 20
151.1556591033775
 30
0.0
 70
    32
  0
VERTEX
  5
594B6
  8
0
 10
270.5522883726245
 20
151.3333623593503
 30
0.0
 70
    32
  0
VERTEX
  5
594B7
  8
0
 10
270.71440829449762
 20
151.56765331691781
 30
0.0
 70
    32
  0
VERTEX
  5
594B8
  8
0
 10
270.78653275617972
 20
151.7122858884496
 30
0.0
 70
    32
  0
VERTEX
  5
594B9
  8
0
 10
270.84971185651301
 20
151.87142915630841
 30
0.0
 70
    32
  0
VERTEX
  5
594BA
  8
0
 10
270.89103669933672
 20
152.0
 30
0.0
 70
    32
  0
SEQEND
  5
594BB
  8
0
  0
POLYLINE
  5
594BD
  8
0
 66
     1
 10
0.0
 20
0.0
 30
0.0
 70
     8
  0
VERTEX
  5
594BE
  8
0
 10
270.14690721649481
 20
138.0779919771926
 30
0.0
 70
    32
  0
VERTEX
  5
594BF
  8
0
 10
270.15410386542931
 20
138.08695149188901
 30
0.0
 70
    32
  0
VERTEX
  5
594C0
  8
0
 10
270.57822124775612
 20
138.63922942346241
 30
0.0
 70
    32
  0
VERTEX
  5
594C1
  8
0
 10
270.96145155788179
 20
139.17865444768989
 30
0.0
 70
    32
  0
VERTEX
  5
594C2
  8
0
 10
271.19826026122468
 20
139.53020378349001
 30
0.0
 70
    32
  0
VERTEX
  5
594C3
  8
0
 10
271.41601016752389
 20
139.8646744131359
 30
0.0
 70
    32
  0
VERTEX
  5
594C4
  8
0
 10
271.61334061145931
 20
140.17568510756729
 30
0.0
 70
    32
  0
VERTEX
  5
594C5
  8
0
 10
271.72889412003889
 20
140.3603837932144
 30
0.0
 70
    32
  0
VERTEX
  5
594C6
  8
0
 10
271.83488790580168
 20
140.53044639205231
 30
0.0
 70
    32
  0
VERTEX
  5
594C7
  8
0
 10
271.93166996370508
 20
140.6849935405094
 30
0.0
 70
    32
  0
VERTEX
  5
594C8
  8
0
 10
272.01722362506513
 20
140.81905106788801
 30
0.0
 70
    32
  0
SEQEND
  5
594C9
  8
0
  0
POLYLINE
  5
594CB
  8
0
 66
     1
 10
0.0
 20
0.0
 30
0.0
 70
     8
  0
VERTEX
  5
594CC
  8
0
 10
288.48277637493487
 20
140.81905106788801
 30
0.0
 70
    32
  0
VERTEX
  5
594CD
  8
0
 10
288.61512564681141
 20
140.61051508111959
 30
0.0
 70
    32
  0
VERTEX
  5
594CE
  8
0
 10
288.77178590423961
 20
140.35928740754619
 30
0.0
 70
    32
  0
VERTEX
  5
594CF
  8
0
 10
288.95492516375691
 20
140.0673672475493
 30
0.0
 70
    32
  0
VERTEX
  5
594D0
  8
0
 10
289.15912466326671
 20
139.748086013266
 30
0.0
 70
    32
  0
VERTEX
  5
594D1
  8
0
 10
289.41736306997569
 20
139.35687243291929
 30
0.0
 70
    32
  0
VERTEX
  5
594D2
  8
0
 10
289.70028613519122
 20
138.94645382986931
 30
0.0
 70
    32
  0
VERTEX
  5
594D3
  8
0
 10
290.01051909517957
 20
138.51975554021729
 30
0.0
 70
    32
  0
VERTEX
  5
594D4
  8
0
 10
290.34589613457081
 20
138.08695149188941
 30
0.0
 70
    32
  0
VERTEX
  5
594D5
  8
0
 10
290.35309278350519
 20
138.0779919771926
 30
0.0
 70
    32
  0
SEQEND
  5
594D6
  8
0
  0
LINE
  5
594D7
  8
0
 10
272.25
 20
141.611749866351
 30
0.0
 11
272.25
 21
142.99224454991611
 31
0.0
  0
POLYLINE
  5
594DA
  8
0
 66
     1
 10
0.0
 20
0.0
 30
0.0
 70
     8
  0
VERTEX
  5
594DB
  8
0
 10
288.25
 20
141.611749866351
 30
0.0
 70
    32
  0
VERTEX
  5
594DC
  8
0
 10
288.26426069556499
 20
141.40470123113371
 30
0.0
 70
    32
  0
VERTEX
  5
594DD
  8
0
 10
288.30731523583017
 20
141.2025072714473
 30
0.0
 70
    32
  0
VERTEX
  5
594DE
  8
0
 10
288.38002176028522
 20
141.00622348961591
 30
0.0
 70
    32
  0
VERTEX
  5
594DF
  8
0
 10
288.48277637493487
 20
140.81905106788801
 30
0.0
 70
    32
  0
SEQEND
  5
594E0
  8
0
  0
POLYLINE
  5
594E1
  8
0
 66
     1
 10
0.0
 20
0.0
 30
0.0
 70
     8
  0
VERTEX
  5
594E2
  8
0
 10
272.01722362506513
 20
140.81905106788801
 30
0.0
 70
    32
  0
VERTEX
  5
594E3
  8
0
 10
272.11893891987779
 20
141.0039502127664
 30
0.0
 70
    32
  0
VERTEX
  5
594E4
  8
0
 10
272.1915931679037
 20
141.1987523018326
 30
0.0
 70
    32
  0
VERTEX
  5
594E5
  8
0
 10
272.23540288491353
 20
141.40230410964679
 30
0.0
 70
    32
  0
VERTEX
  5
594E6
  8
0
 10
272.25
 20
141.611749866351
 30
0.0
 70
    32
  0
SEQEND
  5
594E7
  8
0
  0
LINE
  5
594E8
  8
0
 10
288.25
 20
142.99892095729541
 30
0.0
 11
288.25
 21
141.611749866351
 31
0.0
  0
POLYLINE
  5
594E9
  8
0
 66
     1
 10
0.0
 20
0.0
 30
0.0
 70
     8
  0
VERTEX
  5
594EA
  8
0
 10
287.66745603062452
 20
140.0031106070206
 30
0.0
 70
    32
  0
VERTEX
  5
594EB
  8
0
 10
287.9004264920145
 20
140.6609885655937
 30
0.0
 70
    32
  0
VERTEX
  5
594EC
  8
0
 10
288.07517258834639
 20
141.33666781351641
 30
0.0
 70
    32
  0
VERTEX
  5
594ED
  8
0
 10
288.19036439631259
 20
142.02500602372561
 30
0.0
 70
    32
  0
VERTEX
  5
594EE
  8
0
 10
288.24512523669978
 20
142.72076452681171
 30
0.0
 70
    32
  0
VERTEX
  5
594EF
  8
0
 10
288.25
 20
143.0
 30
0.0
 70
    32
  0
SEQEND
  5
594F0
  8
0
  0
LINE
  5
594F1
  8
0
 10
288.25
 20
143.0
 30
0.0
 11
288.25
 21
152.0
 31
0.0
  0
POLYLINE
  5
594F2
  8
3
 66
     1
 10
0.0
 20
0.0
 30
0.0
 70
     8
  0
VERTEX
  5
594F3
  8
3
 10
280.25
 20
151.0
 30
0.0
 70
    32
  0
VERTEX
  5
594F4
  8
3
 10
280.26686548814268
 20
151.00596282732511
 30
0.0
 70
    32
  0
VERTEX
  5
594F5
  8
3
 10
280.8669993699815
 20
151.21700047242291
 30
0.0
 70
    32
  0
VERTEX
  5
594F6
  8
3
 10
281.46914409374858
 20
151.422077423079
 30
0.0
 70
    32
  0
VERTEX
  5
594F7
  8
3
 10
282.07936888326941
 20
151.6156369875344
 30
0.0
 70
    32
  0
VERTEX
  5
594F8
  8
3
 10
282.68966081361998
 20
151.78544817907269
 30
0.0
 70
    32
  0
VERTEX
  5
594F9
  8
3
 10
283.05063611747761
 20
151.869629638774
 30
0.0
 70
    32
  0
VERTEX
  5
594FA
  8
3
 10
283.40827283915638
 20
151.93667818822851
 30
0.0
 70
    32
  0
VERTEX
  5
594FB
  8
3
 10
283.76763522498487
 20
151.9827120819408
 30
0.0
 70
    32
  0
VERTEX
  5
594FC
  8
3
 10
284.12298334620738
 20
152.0
 30
0.0
 70
    32
  0
SEQEND
  5
594FD
  8
3
  0
POLYLINE
  5
594FE
  8
3
 66
     1
 10
0.0
 20
0.0
 30
0.0
 70
     8
  0
VERTEX
  5
594FF
  8
3
 10
276.37701665379262
 20
152.0
 30
0.0
 70
    32
  0
VERTEX
  5
59500
  8
3
 10
276.72147747256531
 20
151.983703177607
 30
0.0
 70
    32
  0
VERTEX
  5
59501
  8
3
 10
277.07510746535002
 20
151.93932524864121
 30
0.0
 70
    32
  0
VERTEX
  5
59502
  8
3
 10
277.44096118036822
 20
151.87141160385411
 30
0.0
 70
    32
  0
VERTEX
  5
59503
  8
3
 10
277.81033918638002
 20
151.78544817907269
 30
0.0
 70
    32
  0
VERTEX
  5
59504
  8
3
 10
278.4015978853148
 20
151.62134825672521
 30
0.0
 70
    32
  0
VERTEX
  5
59505
  8
3
 10
279.00124720389562
 20
151.431866557202
 30
0.0
 70
    32
  0
VERTEX
  5
59506
  8
3
 10
279.61487980368491
 20
151.22330315403741
 30
0.0
 70
    32
  0
VERTEX
  5
59507
  8
3
 10
280.23313451185732
 20
151.00596282732511
 30
0.0
 70
    32
  0
VERTEX
  5
59508
  8
3
 10
280.25
 20
151.0
 30
0.0
 70
    32
  0
SEQEND
  5
59509
  8
3
  0
LINE
  5
5950A
  8
0
 10
272.25
 20
143.0
 30
0.0
 11
272.25
 21
152.0
 31
0.0
  0
POLYLINE
  5
5950B
  8
0
 66
     1
 10
0.0
 20
0.0
 30
0.0
 70
     8
  0
VERTEX
  5
5950C
  8
0
 10
272.25
 20
143.0
 30
0.0
 70
    32
  0
VERTEX
  5
5950D
  8
0
 10
272.28044241526601
 20
142.30275405801871
 30
0.0
 70
    32
  0
VERTEX
  5
5950E
  8
0
 10
272.37153797590241
 20
141.61081457866459
 30
0.0
 70
    32
  0
VERTEX
  5
5950F
  8
0
 10
272.52259338968747
 20
140.92944763917981
 30
0.0
 70
    32
  0
VERTEX
  5
59510
  8
0
 10
272.7324590337127
 20
140.2638388533947
 30
0.0
 70
    32
  0
VERTEX
  5
59511
  8
0
 10
272.83254396937542
 20
140.003110607021
 30
0.0
 70
    32
  0
SEQEND
  5
59512
  8
0
  0
POLYLINE
  5
59513
  8
3
 66
     1
 10
0.0
 20
0.0
 30
0.0
 70
     8
  0
VERTEX
  5
59514
  8
3
 10
280.25
 20
144.80000000000001
 30
0.0
 70
    32
  0
VERTEX
  5
59515
  8
3
 10
280.2652240421117
 20
144.78882860929201
 30
0.0
 70
    32
  0
VERTEX
  5
59516
  8
3
 10
280.6699070489255
 20
144.49191520333039
 30
0.0
 70
    32
  0
VERTEX
  5
59517
  8
3
 10
281.07400272743411
 20
144.1956733679001
 30
0.0
 70
    32
  0
VERTEX
  5
59518
  8
3
 10
281.47969242096531
 20
143.89874541380581
 30
0.0
 70
    32
  0
VERTEX
  5
59519
  8
3
 10
281.88360554419432
 20
143.60385773151069
 30
0.0
 70
    32
  0
VERTEX
  5
5951A
  8
3
 10
282.29410743712742
 20
143.30520720525709
 30
0.0
 70
    32
  0
VERTEX
  5
5951B
  8
3
 10
282.70140166976131
 20
143.0102727972419
 30
0.0
 70
    32
  0
VERTEX
  5
5951C
  8
3
 10
283.10804901920852
 20
142.71756761706831
 30
0.0
 70
    32
  0
VERTEX
  5
5951D
  8
3
 10
283.50985888567499
 20
142.43054065260409
 30
0.0
 70
    32
  0
VERTEX
  5
5951E
  8
3
 10
284.071210121288
 20
142.03429247613491
 30
0.0
 70
    32
  0
VERTEX
  5
5951F
  8
3
 10
284.62090912511491
 20
141.65347194224881
 30
0.0
 70
    32
  0
VERTEX
  5
59520
  8
3
 10
285.16208812462548
 20
141.2883006872523
 30
0.0
 70
    32
  0
VERTEX
  5
59521
  8
3
 10
285.68394484636411
 20
140.9492784979
 30
0.0
 70
    32
  0
VERTEX
  5
59522
  8
3
 10
286.03897056581809
 20
140.72906410812229
 30
0.0
 70
    32
  0
VERTEX
  5
59523
  8
3
 10
286.37895064557961
 20
140.52929285936659
 30
0.0
 70
    32
  0
VERTEX
  5
59524
  8
3
 10
286.70507312254551
 20
140.35188723951461
 30
0.0
 70
    32
  0
VERTEX
  5
59525
  8
3
 10
287.01011369440403
 20
140.2041383525191
 30
0.0
 70
    32
  0
VERTEX
  5
59526
  8
3
 10
287.19195596830599
 20
140.12799795328931
 30
0.0
 70
    32
  0
VERTEX
  5
59527
  8
3
 10
287.36241470060929
 20
140.06798784042411
 30
0.0
 70
    32
  0
VERTEX
  5
59528
  8
3
 10
287.52179557260501
 20
140.02553614352229
 30
0.0
 70
    32
  0
VERTEX
  5
59529
  8
3
 10
287.66745603062429
 20
140.0031106070206
 30
0.0
 70
    32
  0
SEQEND
  5
5952A
  8
3
  0
POLYLINE
  5
5952B
  8
3
 66
     1
 10
0.0
 20
0.0
 30
0.0
 70
     8
  0
VERTEX
  5
5952C
  8
3
 10
272.83254396937508
 20
140.0031106070206
 30
0.0
 70
    32
  0
VERTEX
  5
5952D
  8
3
 10
272.97467520894759
 20
140.0247836721793
 30
0.0
 70
    32
  0
VERTEX
  5
5952E
  8
3
 10
273.1315443835062
 20
140.0661095390731
 30
0.0
 70
    32
  0
VERTEX
  5
5952F
  8
3
 10
273.30405646216423
 20
140.1264551420482
 30
0.0
 70
    32
  0
VERTEX
  5
59530
  8
3
 10
273.48988630559597
 20
140.2041383525191
 30
0.0
 70
    32
  0
VERTEX
  5
59531
  8
3
 10
273.78481497845479
 20
140.34666883982231
 30
0.0
 70
    32
  0
VERTEX
  5
59532
  8
3
 10
274.10428197560429
 20
140.51978980933541
 30
0.0
 70
    32
  0
VERTEX
  5
59533
  8
3
 10
274.45028941433611
 20
140.72256864274971
 30
0.0
 70
    32
  0
VERTEX
  5
59534
  8
3
 10
274.81605515363589
 20
140.9492784979
 30
0.0
 70
    32
  0
VERTEX
  5
59535
  8
3
 10
275.32078941986492
 20
141.27694617608739
 30
0.0
 70
    32
  0
VERTEX
  5
59536
  8
3
 10
275.85142561393991
 20
141.63454108031459
 30
0.0
 70
    32
  0
VERTEX
  5
59537
  8
3
 10
276.41145146619027
 20
142.02215952639861
 30
0.0
 70
    32
  0
VERTEX
  5
59538
  8
3
 10
276.99014111432513
 20
142.43054065260409
 30
0.0
 70
    32
  0
VERTEX
  5
59539
  8
3
 10
277.37675604684631
 20
142.70667066757869
 30
0.0
 70
    32
  0
VERTEX
  5
5953A
  8
3
 10
277.76788073477161
 20
142.98809548652881
 30
0.0
 70
    32
  0
VERTEX
  5
5953B
  8
3
 10
278.16593041564238
 20
143.2762026223904
 30
0.0
 70
    32
  0
VERTEX
  5
5953C
  8
3
 10
278.5671157100706
 20
143.5679442786313
 30
0.0
 70
    32
  0
VERTEX
  5
5953D
  8
3
 10
278.98025434603329
 20
143.86946598458181
 30
0.0
 70
    32
  0
VERTEX
  5
5953E
  8
3
 10
279.39531729626549
 20
144.173198416075
 30
0.0
 70
    32
  0
VERTEX
  5
5953F
  8
3
 10
279.8147185238322
 20
144.4806383170457
 30
0.0
 70
    32
  0
VERTEX
  5
59540
  8
3
 10
280.23477595788819
 20
144.78882860929201
 30
0.0
 70
    32
  0
VERTEX
  5
59541
  8
3
 10
280.25
 20
144.80000000000001
 30
0.0
 70
    32
  0
SEQEND
  5
59542
  8
3
  0
LINE
  5
59543
  8
0
 10
287.66745603062429
 20
140.0031106070206
 30
0.0
 11
272.83254396937508
 21
140.0031106070206
 31
0.0
  0
LINE
  5
595D5
  8
1
 10
50.000000000000007
 20
162.0
 30
0.0
 11
50.000000000000007
 21
75.0
 31
0.0
  0
LINE
  5
595D6
  8
0
 10
45.166666666666643
 20
157.0
 30
0.0
 11
54.833333332953451
 21
157.0
 31
0.0
  0
ARC
  5
595D7
  8
0
 10
54.833333333333329
 20
156.0
 30
0.0
 40
1.0
 50
0.0
 51
90.0
  0
ARC
  5
595D8
  8
0
 10
45.1666666666667
 20
156.0
 30
0.0
 40
1.0000000000000031
 50
90.0
 51
180.0
  0
LINE
  5
595D9
  8
0
 10
55.833333333333329
 20
156.0
 30
0.0
 11
55.833333333333329
 21
151.0
 31
0.0
  0
LINE
  5
595DA
  8
0
 10
44.166666666666643
 20
151.0
 30
0.0
 11
44.166666666666643
 21
156.0
 31
0.0
  0
LINE
  5
595DB
  8
0
 10
42.399999999999991
 20
110.0
 30
0.0
 11
57.600000000000009
 21
110.0
 31
0.0
  0
LINE
  5
595DC
  8
0
 10
57.600000000000009
 20
110.2
 30
0.0
 11
57.600000000000009
 21
110.0
 31
0.0
  0
LINE
  5
595DD
  8
0
 10
42.399999999999991
 20
110.0
 30
0.0
 11
42.399999999999991
 21
110.2
 31
0.0
  0
LINE
  5
595E0
  8
0
 10
62.250000000000007
 20
151.0
 30
0.0
 11
37.750000000000021
 21
151.0
 31
0.0
  0
LINE
  5
595EC
  8
0
 10
40.500000000000007
 20
110.2
 30
0.0
 11
59.500000000000007
 21
110.2
 31
0.0
  0
LINE
  5
595ED
  8
0
 10
59.500000000000007
 20
122.0
 30
0.0
 11
59.500000000000007
 21
110.2
 31
0.0
  0
LINE
  5
595EE
  8
0
 10
40.500000000000007
 20
110.2
 30
0.0
 11
40.500000000000007
 21
122.0
 31
0.0
  0
LINE
  5
595F9
  8
0
 10
37.750000000000021
 20
122.0
 30
0.0
 11
62.250000000000007
 21
122.0
 31
0.0
  0
LINE
  5
595FA
  8
0
 10
62.250000000000007
 20
151.0
 30
0.0
 11
62.250000000000007
 21
122.0
 31
0.0
  0
LINE
  5
595FB
  8
0
 10
37.750000000000021
 20
122.0
 30
0.0
 11
37.750000000000021
 21
151.0
 31
0.0
  0
LINE
  5
595FC
  8
0
 10
40.641036699336617
 20
152.0
 30
0.0
 11
44.166666666666643
 21
152.0
 31
0.0
  0
POLYLINE
  5
595FD
  8
0
 66
     1
 10
0.0
 20
0.0
 30
0.0
 70
     8
  0
VERTEX
  5
595FE
  8
0
 10
40.641036699336617
 20
152.0
 30
0.0
 70
    32
  0
VERTEX
  5
595FF
  8
0
 10
40.543158470441497
 20
151.72727586874939
 30
0.0
 70
    32
  0
VERTEX
  5
59600
  8
0
 10
40.416420580814027
 20
151.4873085101529
 30
0.0
 70
    32
  0
VERTEX
  5
59601
  8
0
 10
40.271265618067233
 20
151.29878732799929
 30
0.0
 70
    32
  0
VERTEX
  5
59602
  8
0
 10
40.102767970031223
 20
151.15183156908779
 30
0.0
 70
    32
  0
VERTEX
  5
59603
  8
0
 10
39.896907216495158
 20
151.04275670534619
 30
0.0
 70
    32
  0
SEQEND
  5
59604
  8
0
  0
POLYLINE
  5
59605
  8
0
 66
     1
 10
0.0
 20
0.0
 30
0.0
 70
     8
  0
VERTEX
  5
59606
  8
0
 10
60.103092783505183
 20
151.0427567053475
 30
0.0
 70
    32
  0
VERTEX
  5
59607
  8
0
 10
59.891780875548797
 20
151.1556591033775
 30
0.0
 70
    32
  0
VERTEX
  5
59608
  8
0
 10
59.697711627375512
 20
151.33336235935019
 30
0.0
 70
    32
  0
VERTEX
  5
59609
  8
0
 10
59.535591705502419
 20
151.5676533169177
 30
0.0
 70
    32
  0
VERTEX
  5
5960A
  8
0
 10
59.463467243820311
 20
151.7122858884496
 30
0.0
 70
    32
  0
VERTEX
  5
5960B
  8
0
 10
59.400288143487032
 20
151.87142915630841
 30
0.0
 70
    32
  0
VERTEX
  5
5960C
  8
0
 10
59.358963300663341
 20
152.0
 30
0.0
 70
    32
  0
SEQEND
  5
5960D
  8
0
  0
LINE
  5
5976D
  8
0
 10
55.833333333333329
 20
152.0
 30
0.0
 11
59.358963300663383
 21
152.0
 31
0.0
  0
POLYLINE
  5
5976E
  8
0
 66
     1
 10
0.0
 20
0.0
 30
0.0
 70
     8
  0
VERTEX
  5
59770
  8
0
 10
60.245720466283821
 20
150.99999999999989
 30
0.0
 70
    32
  0
VERTEX
  5
59771
  8
0
 10
60.23666103710557
 20
151.0014560975892
 30
0.0
 70
    32
  0
VERTEX
  5
59772
  8
0
 10
60.10309278350509
 20
151.0427567053475
 30
0.0
 70
    32
  0
SEQEND
  5
5976F
  8
0
  0
POLYLINE
  5
59773
  8
0
 66
     1
 10
0.0
 20
0.0
 30
0.0
 70
     8
  0
VERTEX
  5
59775
  8
0
 10
39.896907216494832
 20
151.0427567053475
 30
0.0
 70
    32
  0
VERTEX
  5
59776
  8
0
 10
39.743284309623519
 20
151.0
 30
0.0
 70
    32
  0
SEQEND
  5
59774
  8
0
  0
LINE
  5
597C8
  8
3
 10
140.84312352591201
 20
119.60000000000031
 30
0.0
 11
140.84312352591201
 21
110.2000000000003
 31
0.0
  0
LINE
  5
597C9
  8
3
 10
141.42717346993709
 20
119.60000000000051
 30
0.0
 11
141.42717346993709
 21
110.2000000000004
 31
0.0
  0
LINE
  5
597CA
  8
3
 10
124.8249763621382
 20
119.59999999999999
 30
0.0
 11
124.8249763621382
 21
110.2
 31
0.0
  0
LINE
  5
597CB
  8
3
 10
126.36204187115641
 20
119.59999999999999
 30
0.0
 11
126.36204187115641
 21
110.2
 31
0.0
  0
LINE
  5
597CC
  8
3
 10
128.30036199634429
 20
119.59999999999999
 30
0.0
 11
128.30036199634429
 21
110.2
 31
0.0
  0
LINE
  5
597CD
  8
3
 10
129.37954557484281
 20
119.59999999999999
 30
0.0
 11
129.37954557484281
 21
110.2
 31
0.0
  0
LINE
  5
597CE
  8
3
 10
130.5078434243959
 20
119.59999999999999
 30
0.0
 11
130.5078434243959
 21
110.2
 31
0.0
  0
LINE
  5
597CF
  8
3
 10
131.6659500559748
 20
119.59999999999999
 30
0.0
 11
131.6659500559748
 21
110.2
 31
0.0
  0
LINE
  5
597D0
  8
3
 10
127.2887578191351
 20
119.60000000000051
 30
0.0
 11
127.2887578191351
 21
110.2000000000005
 31
0.0
  0
LINE
  5
597D1
  8
3
 10
125.5360705192127
 20
119.59999999999999
 30
0.0
 11
125.5360705192127
 21
110.2
 31
0.0
  0
LINE
  5
597D2
  8
3
 10
124.24092641811311
 20
119.60000000000019
 30
0.0
 11
124.24092641811311
 21
110.2000000000002
 31
0.0
  0
LINE
  5
597D3
  8
3
 10
123.65687647408799
 20
119.60000000000031
 30
0.0
 11
123.65687647408799
 21
110.2000000000003
 31
0.0
  0
LINE
  5
597D4
  8
3
 10
123.0728265300628
 20
119.60000000000051
 30
0.0
 11
123.0728265300628
 21
110.2000000000004
 31
0.0
  0
POLYLINE
  5
597D5
  8
3
 66
     1
 10
0.0
 20
0.0
 30
0.0
 70
     8
  0
VERTEX
  5
597D7
  8
3
 10
145.96358815190251
 20
141.61174986635109
 30
0.0
 70
    32
  0
VERTEX
  5
597D8
  8
3
 10
148.691371374027
 20
142.5615075872405
 30
0.0
 70
    32
  0
VERTEX
  5
597D9
  8
3
 10
151.43835265916661
 20
143.4548848769652
 30
0.0
 70
    32
  0
VERTEX
  5
597DA
  8
3
 10
154.20683794355091
 20
144.27708886607081
 30
0.0
 70
    32
  0
VERTEX
  5
597DB
  8
3
 10
157.01697769408071
 20
145.02126112849351
 30
0.0
 70
    32
  0
VERTEX
  5
597DC
  8
3
 10
159.8497330314778
 20
145.6770711687688
 30
0.0
 70
    32
  0
VERTEX
  5
597DD
  8
3
 10
162.70166518359059
 20
146.23943168910219
 30
0.0
 70
    32
  0
VERTEX
  5
597DE
  8
3
 10
165.36713465921881
 20
146.67478003524781
 30
0.0
 70
    32
  0
VERTEX
  5
597DF
  8
3
 10
168.04518936169441
 20
147.02434238493601
 30
0.0
 70
    32
  0
VERTEX
  5
597E0
  8
3
 10
170.74464910190619
 20
147.2873027076611
 30
0.0
 70
    32
  0
VERTEX
  5
597E1
  8
3
 10
173.45132158024609
 20
147.46080300499861
 30
0.0
 70
    32
  0
VERTEX
  5
597E2
  8
3
 10
175.54019601971851
 20
147.53280519495689
 30
0.0
 70
    32
  0
VERTEX
  5
597E3
  8
3
 10
177.0523153077917
 20
147.54914083510221
 30
0.0
 70
    32
  0
SEQEND
  5
597D6
  8
3
  0
LINE
  5
597F4
  8
3
 10
57.425023637861742
 20
119.59999999999999
 30
0.0
 11
57.425023637861742
 21
110.2
 31
0.0
  0
LINE
  5
597F5
  8
3
 10
55.887958128843628
 20
119.59999999999999
 30
0.0
 11
55.887958128843628
 21
110.2
 31
0.0
  0
LINE
  5
597F6
  8
3
 10
53.949638003655693
 20
119.59999999999999
 30
0.0
 11
53.949638003655693
 21
110.2
 31
0.0
  0
LINE
  5
597F7
  8
3
 10
52.870454425157249
 20
119.59999999999999
 30
0.0
 11
52.870454425157249
 21
110.2
 31
0.0
  0
LINE
  5
597F8
  8
3
 10
51.742156575604042
 20
119.59999999999999
 30
0.0
 11
51.742156575604042
 21
110.2
 31
0.0
  0
LINE
  5
597F9
  8
3
 10
50.584049944025189
 20
119.59999999999999
 30
0.0
 11
50.584049944025189
 21
110.2
 31
0.0
  0
LINE
  5
597FA
  8
3
 10
54.961242180864893
 20
119.60000000000051
 30
0.0
 11
54.961242180864893
 21
110.2000000000005
 31
0.0
  0
LINE
  5
597FB
  8
3
 10
56.713929480787272
 20
119.59999999999999
 30
0.0
 11
56.713929480787272
 21
110.2
 31
0.0
  0
LINE
  5
597FC
  8
3
 10
58.009073581886881
 20
119.60000000000019
 30
0.0
 11
58.009073581886881
 21
110.2000000000002
 31
0.0
  0
LINE
  5
597FD
  8
0
 10
40.500000000000028
 20
119.6000000000023
 30
0.0
 11
59.5
 21
119.59999999999999
 31
0.0
  0
LINE
  5
597FE
  8
3
 10
58.59312352591202
 20
119.60000000000031
 30
0.0
 11
58.59312352591202
 21
110.2000000000003
 31
0.0
  0
LINE
  5
597FF
  8
3
 10
59.177173469937159
 20
119.60000000000051
 30
0.0
 11
59.177173469937159
 21
110.2000000000004
 31
0.0
  0
LINE
  5
59800
  8
3
 10
42.574976362138287
 20
119.59999999999999
 30
0.0
 11
42.574976362138287
 21
110.2
 31
0.0
  0
LINE
  5
59801
  8
3
 10
44.112041871156393
 20
119.59999999999999
 30
0.0
 11
44.112041871156393
 21
110.2
 31
0.0
  0
LINE
  5
59802
  8
3
 10
46.050361996344328
 20
119.59999999999999
 30
0.0
 11
46.050361996344328
 21
110.2
 31
0.0
  0
LINE
  5
59803
  8
3
 10
47.12954557484278
 20
119.59999999999999
 30
0.0
 11
47.12954557484278
 21
110.2
 31
0.0
  0
LINE
  5
59804
  8
3
 10
48.257843424395979
 20
119.59999999999999
 30
0.0
 11
48.257843424395979
 21
110.2
 31
0.0
  0
LINE
  5
59805
  8
3
 10
49.415950055974832
 20
119.59999999999999
 30
0.0
 11
49.415950055974832
 21
110.2
 31
0.0
  0
LINE
  5
59806
  8
3
 10
45.038757819135142
 20
119.60000000000051
 30
0.0
 11
45.038757819135142
 21
110.2000000000005
 31
0.0
  0
LINE
  5
59807
  8
3
 10
43.286070519212757
 20
119.59999999999999
 30
0.0
 11
43.286070519212757
 21
110.2
 31
0.0
  0
LINE
  5
59808
  8
3
 10
41.990926418113141
 20
119.60000000000019
 30
0.0
 11
41.990926418113141
 21
110.2000000000002
 31
0.0
  0
LINE
  5
59809
  8
3
 10
41.406876474088008
 20
119.60000000000031
 30
0.0
 11
41.406876474088008
 21
110.2000000000003
 31
0.0
  0
LINE
  5
5980A
  8
3
 10
40.822826530062869
 20
119.60000000000051
 30
0.0
 11
40.822826530062869
 21
110.2000000000004
 31
0.0
  0
LINE
  5
59816
  8
3
 10
287.67502363786173
 20
119.59999999999999
 30
0.0
 11
287.67502363786173
 21
110.2
 31
0.0
  0
LINE
  5
59817
  8
3
 10
286.13795812884359
 20
119.59999999999999
 30
0.0
 11
286.13795812884359
 21
110.2
 31
0.0
  0
LINE
  5
59818
  8
3
 10
284.19963800365559
 20
119.59999999999999
 30
0.0
 11
284.19963800365559
 21
110.2
 31
0.0
  0
LINE
  5
59819
  8
3
 10
283.12045442515722
 20
119.59999999999999
 30
0.0
 11
283.12045442515722
 21
110.2
 31
0.0
  0
LINE
  5
5981A
  8
3
 10
281.9921565756041
 20
119.59999999999999
 30
0.0
 11
281.9921565756041
 21
110.2
 31
0.0
  0
LINE
  5
5981B
  8
3
 10
280.8340499440252
 20
119.59999999999999
 30
0.0
 11
280.8340499440252
 21
110.2
 31
0.0
  0
LINE
  5
5981C
  8
3
 10
285.21124218086487
 20
119.60000000000051
 30
0.0
 11
285.21124218086487
 21
110.2000000000005
 31
0.0
  0
LINE
  5
5981D
  8
3
 10
286.96392948078727
 20
119.59999999999999
 30
0.0
 11
286.96392948078727
 21
110.2
 31
0.0
  0
LINE
  5
5981E
  8
3
 10
288.25907358188692
 20
119.60000000000009
 30
0.0
 11
288.25907358188692
 21
110.2000000000001
 31
0.0
  0
LINE
  5
5981F
  8
0
 10
270.75
 20
119.6000000000023
 30
0.0
 11
289.75
 21
119.59999999999999
 31
0.0
  0
LINE
  5
59820
  8
3
 10
288.84312352591201
 20
119.60000000000031
 30
0.0
 11
288.84312352591201
 21
110.2000000000003
 31
0.0
  0
LINE
  5
59821
  8
3
 10
289.42717346993709
 20
119.60000000000041
 30
0.0
 11
289.42717346993709
 21
110.2000000000004
 31
0.0
  0
LINE
  5
59822
  8
3
 10
272.82497636213827
 20
119.59999999999999
 30
0.0
 11
272.82497636213827
 21
110.2
 31
0.0
  0
LINE
  5
59823
  8
3
 10
274.36204187115641
 20
119.59999999999999
 30
0.0
 11
274.36204187115641
 21
110.2
 31
0.0
  0
LINE
  5
59824
  8
3
 10
276.30036199634441
 20
119.59999999999999
 30
0.0
 11
276.30036199634441
 21
110.2
 31
0.0
  0
LINE
  5
59825
  8
3
 10
277.37954557484278
 20
119.59999999999999
 30
0.0
 11
277.37954557484278
 21
110.2
 31
0.0
  0
LINE
  5
59826
  8
3
 10
278.50784342439601
 20
119.59999999999999
 30
0.0
 11
278.50784342439601
 21
110.2
 31
0.0
  0
LINE
  5
59827
  8
3
 10
279.6659500559748
 20
119.59999999999999
 30
0.0
 11
279.6659500559748
 21
110.2
 31
0.0
  0
LINE
  5
59828
  8
3
 10
275.28875781913513
 20
119.60000000000051
 30
0.0
 11
275.28875781913513
 21
110.2000000000005
 31
0.0
  0
LINE
  5
59829
  8
3
 10
273.53607051921273
 20
119.59999999999999
 30
0.0
 11
273.53607051921273
 21
110.2
 31
0.0
  0
LINE
  5
5982A
  8
3
 10
272.24092641811308
 20
119.60000000000009
 30
0.0
 11
272.24092641811308
 21
110.2000000000001
 31
0.0
  0
LINE
  5
5982B
  8
3
 10
271.65687647408799
 20
119.60000000000031
 30
0.0
 11
271.65687647408799
 21
110.2000000000003
 31
0.0
  0
LINE
  5
5982C
  8
3
 10
271.07282653006291
 20
119.60000000000041
 30
0.0
 11
271.07282653006291
 21
110.2000000000004
 31
0.0
  0
LINE
  5
59ACC
  8
0
 10
284.3300000000001
 20
80.000000000000028
 30
0.0
 11
285.25
 21
80.920000000000044
 31
0.0
  0
LINE
  5
59ACD
  8
0
 10
275.25
 20
80.920000000000044
 30
0.0
 11
276.17000000000002
 21
80.000000000000028
 31
0.0
  0
LINE
  5
59ACE
  8
0
 10
284.3300000000001
 20
80.000000000000028
 30
0.0
 11
276.17000000000002
 21
80.000000000000028
 31
0.0
  0
LINE
  5
59ACF
  8
0
 10
275.25
 20
110.0
 30
0.0
 11
275.25
 21
80.920000000000044
 31
0.0
  0
LINE
  5
59AD0
  8
0
 10
285.25
 20
80.920000000000044
 30
0.0
 11
285.25
 21
110.0
 31
0.0
  0
LINE
  5
59AD1
  8
0
 10
285.25
 20
80.920000000000044
 30
0.0
 11
275.25
 21
80.920000000000044
 31
0.0
  0
LINE
  5
59AD2
  8
3
 10
284.3300000000001
 20
80.000000000000028
 30
0.0
 11
284.3300000000001
 21
109.0
 31
0.0
  0
LINE
  5
59AD3
  8
3
 10
285.25
 20
110.0
 30
0.0
 11
284.3300000000001
 21
109.0
 31
0.0
  0
LINE
  5
59AD4
  8
0
 10
285.25
 20
109.0
 30
0.0
 11
275.25
 21
109.0
 31
0.0
  0
LINE
  5
59AD5
  8
3
 10
276.17000000000002
 20
80.000000000000028
 30
0.0
 11
276.17000000000002
 21
109.0
 31
0.0
  0
LINE
  5
59AD6
  8
3
 10
275.25
 20
110.0
 30
0.0
 11
276.17000000000002
 21
109.0
 31
0.0
  0
LINE
  5
59AD7
  8
0
 10
136.33000000000001
 20
80.000000000000057
 30
0.0
 11
137.25
 21
80.920000000000044
 31
0.0
  0
LINE
  5
59AD8
  8
0
 10
127.25
 20
80.920000000000044
 30
0.0
 11
128.16999999999999
 21
80.000000000000057
 31
0.0
  0
LINE
  5
59AD9
  8
0
 10
136.33000000000001
 20
80.000000000000057
 30
0.0
 11
128.16999999999999
 21
80.000000000000057
 31
0.0
  0
LINE
  5
59ADA
  8
0
 10
127.25
 20
110.0
 30
0.0
 11
127.25
 21
80.920000000000044
 31
0.0
  0
LINE
  5
59ADB
  8
0
 10
137.25
 20
80.920000000000044
 30
0.0
 11
137.25
 21
110.0
 31
0.0
  0
LINE
  5
59ADC
  8
0
 10
137.25
 20
80.920000000000044
 30
0.0
 11
127.25
 21
80.920000000000044
 31
0.0
  0
LINE
  5
59ADD
  8
3
 10
136.33000000000001
 20
80.000000000000057
 30
0.0
 11
136.33000000000001
 21
109.0
 31
0.0
  0
LINE
  5
59ADE
  8
3
 10
137.25
 20
110.0
 30
0.0
 11
136.33000000000001
 21
109.0
 31
0.0
  0
LINE
  5
59ADF
  8
0
 10
137.25
 20
109.0
 30
0.0
 11
127.25
 21
109.0
 31
0.0
  0
LINE
  5
59AE0
  8
3
 10
128.16999999999999
 20
80.000000000000057
 30
0.0
 11
128.16999999999999
 21
109.0
 31
0.0
  0
LINE
  5
59AE1
  8
3
 10
127.25
 20
110.0
 30
0.0
 11
128.16999999999999
 21
109.0
 31
0.0
  0
LINE
  5
59AE2
  8
0
 10
54.080000000000013
 20
80.0
 30
0.0
 11
55.0
 21
80.920000000000002
 31
0.0
  0
LINE
  5
59AE3
  8
0
 10
45.0
 20
80.920000000000002
 30
0.0
 11
45.91999999999998
 21
80.0
 31
0.0
  0
LINE
  5
59AE4
  8
0
 10
54.080000000000013
 20
80.0
 30
0.0
 11
45.91999999999998
 21
80.0
 31
0.0
  0
LINE
  5
59AE5
  8
0
 10
45.0
 20
110.0
 30
0.0
 11
45.0
 21
80.920000000000002
 31
0.0
  0
LINE
  5
59AE6
  8
0
 10
55.0
 20
80.920000000000002
 30
0.0
 11
55.0
 21
110.0
 31
0.0
  0
LINE
  5
59AE7
  8
0
 10
55.0
 20
80.920000000000002
 30
0.0
 11
45.0
 21
80.920000000000002
 31
0.0
  0
LINE
  5
59AE8
  8
3
 10
54.080000000000013
 20
80.0
 30
0.0
 11
54.080000000000013
 21
109.0
 31
0.0
  0
LINE
  5
59AE9
  8
3
 10
55.0
 20
110.0
 30
0.0
 11
54.080000000000013
 21
109.0
 31
0.0
  0
LINE
  5
59AEA
  8
0
 10
55.0
 20
109.0
 30
0.0
 11
45.0
 21
109.0
 31
0.0
  0
LINE
  5
59AEB
  8
3
 10
45.91999999999998
 20
80.0
 30
0.0
 11
45.91999999999998
 21
109.0
 31
0.0
  0
LINE
  5
59AEC
  8
3
 10
45.0
 20
110.0
 30
0.0
 11
45.91999999999998
 21
109.0
 31
0.0
  0
POLYLINE
  5
59C69
  8
0
 66
     1
 10
0.0
 20
0.0
 30
0.0
 70
     8
  0
VERTEX
  5
59C6B
  8
0
 10
270.00427953371661
 20
151.0
 30
0.0
 70
    32
  0
VERTEX
  5
59C6C
  8
0
 10
270.01333896289441
 20
151.0014560975892
 30
0.0
 70
    32
  0
VERTEX
  5
59C6D
  8
0
 10
270.14690721649492
 20
151.04275670534761
 30
0.0
 70
    32
  0
SEQEND
  5
59C6A
  8
0
  0
POLYLINE
  5
59C6E
  8
0
 66
     1
 10
0.0
 20
0.0
 30
0.0
 70
     8
  0
VERTEX
  5
59C70
  8
0
 10
290.35309278350519
 20
151.04275670534761
 30
0.0
 70
    32
  0
VERTEX
  5
59C71
  8
0
 10
290.5067156903765
 20
151.0
 30
0.0
 70
    32
  0
SEQEND
  5
59C6F
  8
0
  0
VIEWPORT
  5
1EC2F
 67
     1
  8
0
 10
261.51769911504419
 20
148.5
 30
0.0
 40
523.0353982300885
 41
297.0
 68
     1
 69
     1
1001
ACAD
1000
MVIEW
1002
{
1070
    16
1010
0.0
1020
0.0
1030
0.0
1010
0.0
1020
0.0
1030
1.0
1040
0.0
1040
297.0
1040
261.51769911504419
1040
148.5
1040
50.0
1040
0.0
1040
0.0
1070
     0
1070
   100
1070
     1
1070
     1
1070
     0
1070
     0
1070
     0
1070
     0
1040
0.0
1040
0.0
1040
0.0
1040
1.0
1040
1.0
1040
10.0
1040
10.0
1070
     0
1002
{
1002
}
1002
}
  0
ENDSEC
  0
EOF
